ISO-10303-21;
HEADER;
FILE_DESCRIPTION (( 'STEP AP203' ),
    '1' );
FILE_NAME ('03-3006.STEP',
    '2023-06-08T00:26:18',
    ( 'USER' ),
    ( 'Hewlett-Packard Company' ),
    'SwSTEP 2.0',
    'SolidWorks 2014',
    '' );
FILE_SCHEMA (( 'CONFIG_CONTROL_DESIGN' ));
ENDSEC;

DATA;
#1 = CARTESIAN_POINT ( 'NONE',  ( 0.9999999999999997800, 0.0000000000000000000, 0.0000000000000000000 ) ) ;
#2 = DIRECTION ( 'NONE',  ( 0.0000000000000000000, 1.000000000000000000, 0.0000000000000000000 ) ) ;
#3 = EDGE_CURVE ( 'NONE', #33, #4, #214, .T. ) ;
#4 = VERTEX_POINT ( 'NONE', #40 ) ;
#5 = EDGE_CURVE ( 'NONE', #280, #296, #27, .T. ) ;
#6 = CARTESIAN_POINT ( 'NONE',  ( -53.00000000000000700, -5.700000000000007300, 7.164183775012018400E-016 ) ) ;
#7 = PERSON_AND_ORGANIZATION ( #29, #230 ) ;
#8 = DIRECTION ( 'NONE',  ( 1.000000000000000000, 1.185062782990882500E-016, -0.0000000000000000000 ) ) ;
#9 = CC_DESIGN_PERSON_AND_ORGANIZATION_ASSIGNMENT ( #117, #308, ( #275 ) ) ;
#10 = FACE_OUTER_BOUND ( 'NONE', #154, .T. ) ;
#11 = CARTESIAN_POINT ( 'NONE',  ( 0.9999999999999995600, -6.000000000000000000, 7.347880794884119700E-016 ) ) ;
#12 = CARTESIAN_POINT ( 'NONE',  ( 0.9999999999999997800, 7.347880794884123700E-016, -6.000000000000000000 ) ) ;
#13 = ADVANCED_FACE ( 'NONE', ( #282 ), #166, .T. ) ;
#14 = AXIS2_PLACEMENT_3D ( 'NONE', #107, #277, #134 ) ;
#15 = APPLICATION_PROTOCOL_DEFINITION ( 'international standard', 'config_control_design', 1994, #35 ) ;
#16 = APPROVAL_STATUS ( 'not_yet_approved' ) ;
#17 = PERSON_AND_ORGANIZATION ( #29, #230 ) ;
#18 = VECTOR ( 'NONE', #224, 1000.000000000000000 ) ;
#19 = DIRECTION ( 'NONE',  ( 0.0000000000000000000, 0.0000000000000000000, 1.000000000000000000 ) ) ;
#20 = EDGE_CURVE ( 'NONE', #4, #33, #235, .T. ) ;
#21 = ORIENTED_EDGE ( 'NONE', *, *, #287, .F. ) ;
#22 = LINE ( 'NONE', #300, #18 ) ;
#23 = ORIENTED_EDGE ( 'NONE', *, *, #68, .T. ) ;
#24 = CC_DESIGN_DATE_AND_TIME_ASSIGNMENT ( #169, #159, ( #275 ) ) ;
#25 = DIRECTION ( 'NONE',  ( 0.0000000000000000000, 0.0000000000000000000, 1.000000000000000000 ) ) ;
#26 = FACE_OUTER_BOUND ( 'NONE', #60, .T. ) ;
#27 = CIRCLE ( 'NONE', #99, 6.000000000000000900 ) ;
#28 = DIRECTION ( 'NONE',  ( -1.000000000000000000, -0.0000000000000000000, -0.0000000000000000000 ) ) ;
#29 = PERSON ( 'UNSPECIFIED', 'UNSPECIFIED', 'UNSPECIFIED', ('UNSPECIFIED'), ('UNSPECIFIED'), ('UNSPECIFIED') ) ;
#30 = DIRECTION ( 'NONE',  ( 0.7071067811865577900, 0.7071067811865373600, 0.0000000000000000000 ) ) ;
#31 = EDGE_CURVE ( 'NONE', #33, #225, #42, .T. ) ;
#32 = CIRCLE ( 'NONE', #168, 6.000000000000000000 ) ;
#33 = VERTEX_POINT ( 'NONE', #212 ) ;
#34 = CLOSED_SHELL ( 'NONE', ( #13, #83, #61, #279 ) ) ;
#35 = APPLICATION_CONTEXT ( 'configuration controlled 3d designs of mechanical parts and assemblies' ) ;
#36 = APPROVAL_PERSON_ORGANIZATION ( #103, #58, #186 ) ;
#37 = PERSON_AND_ORGANIZATION_ROLE ( 'creator' ) ;
#38 = PRODUCT_DEFINITION_FORMATION_WITH_SPECIFIED_SOURCE ( 'ANY', '', #151, .NOT_KNOWN. ) ;
#39 = EDGE_LOOP ( 'NONE', ( #236, #267, #310, #244 ) ) ;
#40 = CARTESIAN_POINT ( 'NONE',  ( 53.00000000000000000, 0.0000000000000000000, 6.000000000000009800 ) ) ;
#41 = EDGE_LOOP ( 'NONE', ( #23, #258 ) ) ;
#42 = LINE ( 'NONE', #222, #98 ) ;
#43 = EDGE_LOOP ( 'NONE', ( #167, #195, #215, #127 ) ) ;
#44 = EDGE_LOOP ( 'NONE', ( #165, #89 ) ) ;
#45 = AXIS2_PLACEMENT_3D ( 'NONE', #55, #79, #253 ) ;
#46 = COORDINATED_UNIVERSAL_TIME_OFFSET ( 9, 0, .AHEAD. ) ;
#47 = DIRECTION ( 'NONE',  ( -1.000000000000000000, -0.0000000000000000000, -0.0000000000000000000 ) ) ;
#48 = CARTESIAN_POINT ( 'NONE',  ( -52.69999999999999600, -6.363787144661038800E-015, 0.0000000000000000000 ) ) ;
#49 = ORIENTED_EDGE ( 'NONE', *, *, #242, .F. ) ;
#50 = EDGE_CURVE ( 'NONE', #4, #94, #295, .T. ) ;
#51 = DIRECTION ( 'NONE',  ( -1.000000000000000000, -0.0000000000000000000, -0.0000000000000000000 ) ) ;
#52 = LOCAL_TIME ( 9, 26, 17.00000000000000000, #122 ) ;
#53 = CARTESIAN_POINT ( 'NONE',  ( 1.000000000000000400, 1.807003620809175600E-016, 0.0000000000000000000 ) ) ;
#54 = DIRECTION ( 'NONE',  ( 1.000000000000000000, 1.185062782990882500E-016, -0.0000000000000000000 ) ) ;
#55 = CARTESIAN_POINT ( 'NONE',  ( -53.00000000000000700, -6.399339028150766200E-015, 0.0000000000000000000 ) ) ;
#56 = CARTESIAN_POINT ( 'NONE',  ( -53.00000000000000700, -6.399339028150766200E-015, 0.0000000000000000000 ) ) ;
#57 = CARTESIAN_POINT ( 'NONE',  ( 1.000000000000000700, -6.000000000000000000, 7.347880794884119700E-016 ) ) ;
#58 = APPROVAL ( #16, 'UNSPECIFIED' ) ;
#59 = CARTESIAN_POINT ( 'NONE',  ( -52.69999999999999600, 5.999999999999994700, 0.0000000000000000000 ) ) ;
#60 = EDGE_LOOP ( 'NONE', ( #21, #248, #114, #161 ) ) ;
#61 = ADVANCED_FACE ( 'NONE', ( #288 ), #298, .F. ) ;
#62 = AXIS2_PLACEMENT_3D ( 'NONE', #56, #228, #81 ) ;
#63 = DIRECTION ( 'NONE',  ( 1.000000000000000000, 0.0000000000000000000, 0.0000000000000000000 ) ) ;
#64 = SECURITY_CLASSIFICATION_LEVEL ( 'unclassified' ) ;
#65 = CALENDAR_DATE ( 2023, 8, 6 ) ;
#66 = CIRCLE ( 'NONE', #62, 5.700000000000001100 ) ;
#67 = DIRECTION ( 'NONE',  ( -1.000000000000000000, -0.0000000000000000000, -0.0000000000000000000 ) ) ;
#68 = EDGE_CURVE ( 'NONE', #94, #225, #32, .T. ) ;
#69 = DATE_AND_TIME ( #139, #198 ) ;
#70 = CC_DESIGN_APPROVAL ( #58, ( #38 ) ) ;
#71 = VECTOR ( 'NONE', #256, 1000.000000000000000 ) ;
#72 = PLANE ( 'NONE',  #249 ) ;
#73 = DIRECTION ( 'NONE',  ( 1.000000000000000000, 1.185062782990882500E-016, -0.0000000000000000000 ) ) ;
#74 = AXIS2_PLACEMENT_3D ( 'NONE', #152, #8, #179 ) ;
#75 = DIRECTION ( 'NONE',  ( 0.0000000000000000000, 0.0000000000000000000, -1.000000000000000000 ) ) ;
#76 = CARTESIAN_POINT ( 'NONE',  ( -53.00000000000000700, -6.399339028150766200E-015, 0.0000000000000000000 ) ) ;
#77 = PERSON_AND_ORGANIZATION ( #29, #230 ) ;
#78 = PRODUCT_DEFINITION_SHAPE ( 'NONE', 'NONE',  #275 ) ;
#79 = DIRECTION ( 'NONE',  ( -1.000000000000000000, -1.185062782990882500E-016, 0.0000000000000000000 ) ) ;
#80 = CONICAL_SURFACE ( 'NONE', #266, 6.000000000000000900, 0.7853981633974337400 ) ;
#81 = DIRECTION ( 'NONE',  ( 0.0000000000000000000, 1.000000000000000000, 0.0000000000000000000 ) ) ;
#82 = DIRECTION ( 'NONE',  ( -1.084202172485504400E-016, 1.000000000000000000, 0.0000000000000000000 ) ) ;
#83 = ADVANCED_FACE ( 'NONE', ( #113 ), #213, .T. ) ;
#84 = AXIS2_PLACEMENT_3D ( 'NONE', #211, #164, #19 ) ;
#85 = CIRCLE ( 'NONE', #283, 5.700000000000001100 ) ;
#86 = CARTESIAN_POINT ( 'NONE',  ( 0.9999999999999997800, 0.0000000000000000000, 0.0000000000000000000 ) ) ;
#87 = PERSON_AND_ORGANIZATION_ROLE ( 'design_owner' ) ;
#88 = DATE_TIME_ROLE ( 'classification_date' ) ;
#89 = ORIENTED_EDGE ( 'NONE', *, *, #172, .F. ) ;
#90 = CC_DESIGN_PERSON_AND_ORGANIZATION_ASSIGNMENT ( #146, #37, ( #38 ) ) ;
#91 = DIRECTION ( 'NONE',  ( 0.0000000000000000000, 0.0000000000000000000, 1.000000000000000000 ) ) ;
#92 = EDGE_LOOP ( 'NONE', ( #173, #221, #115, #49 ) ) ;
#93 = FACE_OUTER_BOUND ( 'NONE', #44, .T. ) ;
#94 = VERTEX_POINT ( 'NONE', #97 ) ;
#95 = AXIS2_PLACEMENT_3D ( 'NONE', #104, #181, #229 ) ;
#96 = CLOSED_SHELL ( 'NONE', ( #156, #302, #203, #111, #233, #182 ) ) ;
#97 = CARTESIAN_POINT ( 'NONE',  ( 0.9999999999999997800, 0.0000000000000000000, 6.000000000000000000 ) ) ;
#98 = VECTOR ( 'NONE', #51, 1000.000000000000000 ) ;
#99 = AXIS2_PLACEMENT_3D ( 'NONE', #286, #144, #142 ) ;
#100 = ORIENTED_EDGE ( 'NONE', *, *, #155, .F. ) ;
#101 = ORIENTED_EDGE ( 'NONE', *, *, #5, .T. ) ;
#102 = CARTESIAN_POINT ( 'NONE',  ( 53.00000000000000000, 0.0000000000000000000, 0.0000000000000000000 ) ) ;
#103 = PERSON_AND_ORGANIZATION ( #29, #230 ) ;
#104 = CARTESIAN_POINT ( 'NONE',  ( 1.000000000000000000, 0.0000000000000000000, 0.0000000000000000000 ) ) ;
#105 = DIRECTION ( 'NONE',  ( 0.0000000000000000000, 1.000000000000000000, 0.0000000000000000000 ) ) ;
#106 = DIRECTION ( 'NONE',  ( -0.0000000000000000000, 0.0000000000000000000, 1.000000000000000000 ) ) ;
#107 = CARTESIAN_POINT ( 'NONE',  ( 0.9999999999999988900, -1.213131950382634800E-031, 0.0000000000000000000 ) ) ;
#108 = CC_DESIGN_PERSON_AND_ORGANIZATION_ASSIGNMENT ( #77, #208, ( #38 ) ) ;
#109 = ORIENTED_EDGE ( 'NONE', *, *, #204, .T. ) ;
#110 = CARTESIAN_POINT ( 'NONE',  ( 53.00000000000000000, 0.0000000000000000000, 0.0000000000000000000 ) ) ;
#111 = ADVANCED_FACE ( 'NONE', ( #157 ), #72, .T. ) ;
#112 = ORIENTED_EDGE ( 'NONE', *, *, #155, .T. ) ;
#113 = FACE_OUTER_BOUND ( 'NONE', #39, .T. ) ;
#114 = ORIENTED_EDGE ( 'NONE', *, *, #242, .T. ) ;
#115 = ORIENTED_EDGE ( 'NONE', *, *, #259, .F. ) ;
#116 = DIRECTION ( 'NONE',  ( 0.0000000000000000000, 0.0000000000000000000, 1.000000000000000000 ) ) ;
#117 = PERSON_AND_ORGANIZATION ( #29, #230 ) ;
#118 = APPLICATION_PROTOCOL_DEFINITION ( 'international standard', 'config_control_design', 1994, #278 ) ;
#119 = APPROVAL_ROLE ( '' ) ;
#120 = CARTESIAN_POINT ( 'NONE',  ( 0.0000000000000000000, 0.0000000000000000000, 0.0000000000000000000 ) ) ;
#121 = EDGE_LOOP ( 'NONE', ( #289, #243, #175, #183 ) ) ;
#122 = COORDINATED_UNIVERSAL_TIME_OFFSET ( 9, 0, .AHEAD. ) ;
#123 = CYLINDRICAL_SURFACE ( 'NONE', #178, 6.000000000000000000 ) ;
#124 = SECURITY_CLASSIFICATION ( '', '', #64 ) ;
#125 = FACE_OUTER_BOUND ( 'NONE', #43, .T. ) ;
#126 = DIRECTION ( 'NONE',  ( 1.000000000000000000, 1.185062782990882500E-016, -0.0000000000000000000 ) ) ;
#127 = ORIENTED_EDGE ( 'NONE', *, *, #190, .F. ) ;
#128 = DIRECTION ( 'NONE',  ( 0.0000000000000000000, 0.0000000000000000000, 1.000000000000000000 ) ) ;
#129 =( GEOMETRIC_REPRESENTATION_CONTEXT ( 3 ) GLOBAL_UNCERTAINTY_ASSIGNED_CONTEXT ( ( #257 ) ) GLOBAL_UNIT_ASSIGNED_CONTEXT ( ( #238, #137, #306 ) ) REPRESENTATION_CONTEXT ( 'NONE', 'WORKASPACE' ) );
#130 = DIRECTION ( 'NONE',  ( -1.084202172485504400E-016, 1.000000000000000000, 0.0000000000000000000 ) ) ;
#131 = DIRECTION ( 'NONE',  ( 0.0000000000000000000, 1.000000000000000000, 0.0000000000000000000 ) ) ;
#132 = LOCAL_TIME ( 9, 26, 17.00000000000000000, #191 ) ;
#133 = CARTESIAN_POINT ( 'NONE',  ( 0.9999999999999983300, 6.000000000000000000, 0.0000000000000000000 ) ) ;
#134 = DIRECTION ( 'NONE',  ( -1.084202172485504400E-016, 1.000000000000000000, 0.0000000000000000000 ) ) ;
#135 = CYLINDRICAL_SURFACE ( 'NONE', #95, 6.000000000000000000 ) ;
#136 = AXIS2_PLACEMENT_3D ( 'NONE', #102, #273, #128 ) ;
#137 =( NAMED_UNIT ( * ) PLANE_ANGLE_UNIT ( ) SI_UNIT ( $, .RADIAN. ) );
#138 = APPROVAL_ROLE ( '' ) ;
#139 = CALENDAR_DATE ( 2023, 8, 6 ) ;
#140 = LINE ( 'NONE', #201, #264 ) ;
#141 = CC_DESIGN_PERSON_AND_ORGANIZATION_ASSIGNMENT ( #17, #241, ( #124 ) ) ;
#142 = DIRECTION ( 'NONE',  ( 0.0000000000000000000, 1.000000000000000000, 0.0000000000000000000 ) ) ;
#143 = ADVANCED_BREP_SHAPE_REPRESENTATION ( '03-3006', ( #197, #247, #246 ), #129 ) ;
#144 = DIRECTION ( 'NONE',  ( 1.000000000000000000, 1.185062782990882500E-016, -0.0000000000000000000 ) ) ;
#145 = AXIS2_PLACEMENT_3D ( 'NONE', #110, #255, #106 ) ;
#146 = PERSON_AND_ORGANIZATION ( #29, #230 ) ;
#147 = CIRCLE ( 'NONE', #14, 6.000000000000000000 ) ;
#148 = DIRECTION ( 'NONE',  ( -1.185062782990882500E-016, 1.000000000000000000, 0.0000000000000000000 ) ) ;
#149 = AXIS2_PLACEMENT_3D ( 'NONE', #120, #67, #91 ) ;
#150 = FACE_OUTER_BOUND ( 'NONE', #92, .T. ) ;
#151 = PRODUCT ( '03-3006', '03-3006', '', ( #239 ) ) ;
#152 = CARTESIAN_POINT ( 'NONE',  ( -52.69999999999999600, -6.363787144661038800E-015, 0.0000000000000000000 ) ) ;
#153 = CC_DESIGN_DATE_AND_TIME_ASSIGNMENT ( #69, #88, ( #124 ) ) ;
#154 = EDGE_LOOP ( 'NONE', ( #158, #101, #303, #100 ) ) ;
#155 = EDGE_CURVE ( 'NONE', #294, #285, #281, .T. ) ;
#156 = ADVANCED_FACE ( 'NONE', ( #150 ), #80, .T. ) ;
#157 = FACE_OUTER_BOUND ( 'NONE', #305, .T. ) ;
#158 = ORIENTED_EDGE ( 'NONE', *, *, #218, .F. ) ;
#159 = DATE_TIME_ROLE ( 'creation_date' ) ;
#160 = AXIS2_PLACEMENT_3D ( 'NONE', #86, #260, #116 ) ;
#161 = ORIENTED_EDGE ( 'NONE', *, *, #5, .F. ) ;
#162 = CALENDAR_DATE ( 2023, 8, 6 ) ;
#163 = DESIGN_CONTEXT ( 'detailed design', #278, 'design' ) ;
#164 = DIRECTION ( 'NONE',  ( -1.000000000000000000, -0.0000000000000000000, -0.0000000000000000000 ) ) ;
#165 = ORIENTED_EDGE ( 'NONE', *, *, #271, .F. ) ;
#166 = CYLINDRICAL_SURFACE ( 'NONE', #149, 6.000000000000005300 ) ;
#167 = ORIENTED_EDGE ( 'NONE', *, *, #259, .T. ) ;
#168 = AXIS2_PLACEMENT_3D ( 'NONE', #1, #171, #25 ) ;
#169 = DATE_AND_TIME ( #240, #299 ) ;
#170 = APPROVAL ( #261, 'UNSPECIFIED' ) ;
#171 = DIRECTION ( 'NONE',  ( -1.000000000000000000, -0.0000000000000000000, -0.0000000000000000000 ) ) ;
#172 = EDGE_CURVE ( 'NONE', #189, #174, #85, .T. ) ;
#173 = ORIENTED_EDGE ( 'NONE', *, *, #271, .T. ) ;
#174 = VERTEX_POINT ( 'NONE', #196 ) ;
#175 = ORIENTED_EDGE ( 'NONE', *, *, #68, .F. ) ;
#176 = APPROVAL_DATE_TIME ( #245, #291 ) ;
#177 = CARTESIAN_POINT ( 'NONE',  ( -52.69999999999999600, -6.363787144661038800E-015, 0.0000000000000000000 ) ) ;
#178 = AXIS2_PLACEMENT_3D ( 'NONE', #301, #231, #82 ) ;
#179 = DIRECTION ( 'NONE',  ( 0.0000000000000000000, 1.000000000000000000, 0.0000000000000000000 ) ) ;
#180 = DIRECTION ( 'NONE',  ( 0.7071067811865579000, -0.7071067811865371400, 8.659560562354807100E-017 ) ) ;
#181 = DIRECTION ( 'NONE',  ( 1.000000000000000000, 1.185062782990882500E-016, -0.0000000000000000000 ) ) ;
#182 = ADVANCED_FACE ( 'NONE', ( #26 ), #200, .T. ) ;
#183 = ORIENTED_EDGE ( 'NONE', *, *, #50, .F. ) ;
#184 = AXIS2_PLACEMENT_3D ( 'NONE', #53, #223, #75 ) ;
#185 = APPROVAL_PERSON_ORGANIZATION ( #250, #291, #138 ) ;
#186 = APPROVAL_ROLE ( '' ) ;
#187 = CC_DESIGN_APPROVAL ( #170, ( #124 ) ) ;
#188 = LINE ( 'NONE', #276, #252 ) ;
#189 = VERTEX_POINT ( 'NONE', #6 ) ;
#190 = EDGE_CURVE ( 'NONE', #296, #285, #22, .T. ) ;
#191 = COORDINATED_UNIVERSAL_TIME_OFFSET ( 9, 0, .AHEAD. ) ;
#192 = FACE_OUTER_BOUND ( 'NONE', #272, .T. ) ;
#193 = CARTESIAN_POINT ( 'NONE',  ( 0.0000000000000000000, 0.0000000000000000000, 0.0000000000000000000 ) ) ;
#194 = AXIS2_PLACEMENT_3D ( 'NONE', #219, #73, #130 ) ;
#195 = ORIENTED_EDGE ( 'NONE', *, *, #218, .T. ) ;
#196 = CARTESIAN_POINT ( 'NONE',  ( -53.00000000000000700, 5.699999999999994800, 0.0000000000000000000 ) ) ;
#197 = MANIFOLD_SOLID_BREP ( 'È¸Àü3', #34 ) ;
#198 = LOCAL_TIME ( 9, 26, 17.00000000000000000, #268 ) ;
#199 = CARTESIAN_POINT ( 'NONE',  ( -52.69999999999999600, -6.000000000000008000, 7.347880794884123700E-016 ) ) ;
#200 = CONICAL_SURFACE ( 'NONE', #297, 6.000000000000000900, 0.7853981633974337400 ) ;
#201 = CARTESIAN_POINT ( 'NONE',  ( -52.69999999999999600, 5.999999999999994700, 0.0000000000000000000 ) ) ;
#202 = CC_DESIGN_SECURITY_CLASSIFICATION ( #124, ( #38 ) ) ;
#203 = ADVANCED_FACE ( 'NONE', ( #93 ), #227, .T. ) ;
#204 = EDGE_CURVE ( 'NONE', #285, #294, #147, .T. ) ;
#205 = CARTESIAN_POINT ( 'NONE',  ( 0.0000000000000000000, 0.0000000000000000000, 0.0000000000000000000 ) ) ;
#206 = DIRECTION ( 'NONE',  ( 0.0000000000000000000, 0.0000000000000000000, 1.000000000000000000 ) ) ;
#207 = APPROVAL_DATE_TIME ( #274, #58 ) ;
#208 = PERSON_AND_ORGANIZATION_ROLE ( 'design_supplier' ) ;
#209 = ORIENTED_EDGE ( 'NONE', *, *, #3, .F. ) ;
#210 = LINE ( 'NONE', #57, #71 ) ;
#211 = CARTESIAN_POINT ( 'NONE',  ( 53.00000000000000000, 0.0000000000000000000, 0.0000000000000000000 ) ) ;
#212 = CARTESIAN_POINT ( 'NONE',  ( 53.00000000000000000, 7.347880794884130600E-016, -6.000000000000009800 ) ) ;
#213 = CYLINDRICAL_SURFACE ( 'NONE', #237, 6.000000000000005300 ) ;
#214 = CIRCLE ( 'NONE', #84, 6.000000000000009800 ) ;
#215 = ORIENTED_EDGE ( 'NONE', *, *, #204, .F. ) ;
#216 = PRODUCT_RELATED_PRODUCT_CATEGORY ( 'detail', '', ( #151 ) ) ;
#217 = DIRECTION ( 'NONE',  ( 0.0000000000000000000, 0.0000000000000000000, 1.000000000000000000 ) ) ;
#218 = EDGE_CURVE ( 'NONE', #280, #294, #210, .T. ) ;
#219 = CARTESIAN_POINT ( 'NONE',  ( 0.9999999999999988900, -1.213131950382634800E-031, 0.0000000000000000000 ) ) ;
#220 = VECTOR ( 'NONE', #28, 1000.000000000000000 ) ;
#221 = ORIENTED_EDGE ( 'NONE', *, *, #287, .T. ) ;
#222 = CARTESIAN_POINT ( 'NONE',  ( 0.0000000000000000000, 7.347880794884125700E-016, -6.000000000000005300 ) ) ;
#223 = DIRECTION ( 'NONE',  ( 1.000000000000000000, 0.0000000000000000000, 0.0000000000000000000 ) ) ;
#224 = DIRECTION ( 'NONE',  ( 1.000000000000000000, 1.185062782990882500E-016, -0.0000000000000000000 ) ) ;
#225 = VERTEX_POINT ( 'NONE', #12 ) ;
#226 = LOCAL_TIME ( 9, 26, 17.00000000000000000, #290 ) ;
#227 = PLANE ( 'NONE',  #45 ) ;
#228 = DIRECTION ( 'NONE',  ( 1.000000000000000000, 1.185062782990882500E-016, -0.0000000000000000000 ) ) ;
#229 = DIRECTION ( 'NONE',  ( -1.084202172485504400E-016, 1.000000000000000000, 0.0000000000000000000 ) ) ;
#230 = ORGANIZATION ( 'UNSPECIFIED', 'UNSPECIFIED', '' ) ;
#231 = DIRECTION ( 'NONE',  ( 1.000000000000000000, 1.185062782990882500E-016, -0.0000000000000000000 ) ) ;
#232 = PLANE ( 'NONE',  #145 ) ;
#233 = ADVANCED_FACE ( 'NONE', ( #10 ), #135, .T. ) ;
#234 = ORIENTED_EDGE ( 'NONE', *, *, #20, .F. ) ;
#235 = CIRCLE ( 'NONE', #136, 6.000000000000009800 ) ;
#236 = ORIENTED_EDGE ( 'NONE', *, *, #31, .F. ) ;
#237 = AXIS2_PLACEMENT_3D ( 'NONE', #193, #47, #217 ) ;
#238 =( LENGTH_UNIT ( ) NAMED_UNIT ( * ) SI_UNIT ( .MILLI., .METRE. ) );
#239 = MECHANICAL_CONTEXT ( 'NONE', #35, 'mechanical' ) ;
#240 = CALENDAR_DATE ( 2023, 8, 6 ) ;
#241 = PERSON_AND_ORGANIZATION_ROLE ( 'classification_officer' ) ;
#242 = EDGE_CURVE ( 'NONE', #174, #296, #140, .T. ) ;
#243 = ORIENTED_EDGE ( 'NONE', *, *, #31, .T. ) ;
#244 = ORIENTED_EDGE ( 'NONE', *, *, #304, .F. ) ;
#245 = DATE_AND_TIME ( #307, #52 ) ;
#246 = AXIS2_PLACEMENT_3D ( 'NONE', #205, #206, #63 ) ;
#247 = MANIFOLD_SOLID_BREP ( 'È¸Àü4', #96 ) ;
#248 = ORIENTED_EDGE ( 'NONE', *, *, #172, .T. ) ;
#249 = AXIS2_PLACEMENT_3D ( 'NONE', #270, #293, #148 ) ;
#250 = PERSON_AND_ORGANIZATION ( #29, #230 ) ;
#251 = DIRECTION ( 'NONE',  ( 1.000000000000000000, 1.185062782990882500E-016, -0.0000000000000000000 ) ) ;
#252 = VECTOR ( 'NONE', #180, 1000.000000000000000 ) ;
#253 = DIRECTION ( 'NONE',  ( 1.185062782990882500E-016, -1.000000000000000000, 0.0000000000000000000 ) ) ;
#254 = APPROVAL_DATE_TIME ( #312, #170 ) ;
#255 = DIRECTION ( 'NONE',  ( -1.000000000000000000, 0.0000000000000000000, -0.0000000000000000000 ) ) ;
#256 = DIRECTION ( 'NONE',  ( 1.000000000000000000, 1.185062782990882500E-016, -0.0000000000000000000 ) ) ;
#257 = UNCERTAINTY_MEASURE_WITH_UNIT (LENGTH_MEASURE( 1.000000000000000100E-005 ), #238, 'distance_accuracy_value', 'NONE');
#258 = ORIENTED_EDGE ( 'NONE', *, *, #304, .T. ) ;
#259 = EDGE_CURVE ( 'NONE', #296, #280, #269, .T. ) ;
#260 = DIRECTION ( 'NONE',  ( -1.000000000000000000, -0.0000000000000000000, -0.0000000000000000000 ) ) ;
#261 = APPROVAL_STATUS ( 'not_yet_approved' ) ;
#262 = CC_DESIGN_PERSON_AND_ORGANIZATION_ASSIGNMENT ( #313, #87, ( #151 ) ) ;
#263 = APPROVAL_PERSON_ORGANIZATION ( #7, #170, #119 ) ;
#264 = VECTOR ( 'NONE', #30, 999.9999999999998900 ) ;
#265 = CARTESIAN_POINT ( 'NONE',  ( 0.0000000000000000000, 0.0000000000000000000, 6.000000000000005300 ) ) ;
#266 = AXIS2_PLACEMENT_3D ( 'NONE', #48, #126, #2 ) ;
#267 = ORIENTED_EDGE ( 'NONE', *, *, #3, .T. ) ;
#268 = COORDINATED_UNIVERSAL_TIME_OFFSET ( 9, 0, .AHEAD. ) ;
#269 = CIRCLE ( 'NONE', #74, 6.000000000000000900 ) ;
#270 = CARTESIAN_POINT ( 'NONE',  ( 0.9999999999999986700, 6.000000000000000000, 0.0000000000000000000 ) ) ;
#271 = EDGE_CURVE ( 'NONE', #174, #189, #66, .T. ) ;
#272 = EDGE_LOOP ( 'NONE', ( #234, #209 ) ) ;
#273 = DIRECTION ( 'NONE',  ( -1.000000000000000000, -0.0000000000000000000, -0.0000000000000000000 ) ) ;
#274 = DATE_AND_TIME ( #162, #226 ) ;
#275 = PRODUCT_DEFINITION ( 'UNKNOWN', '', #38, #163 ) ;
#276 = CARTESIAN_POINT ( 'NONE',  ( -52.69999999999999600, -6.000000000000007100, 7.347880794884120700E-016 ) ) ;
#277 = DIRECTION ( 'NONE',  ( 1.000000000000000000, 1.185062782990882500E-016, -0.0000000000000000000 ) ) ;
#278 = APPLICATION_CONTEXT ( 'configuration controlled 3d designs of mechanical parts and assemblies' ) ;
#279 = ADVANCED_FACE ( 'NONE', ( #192 ), #232, .F. ) ;
#280 = VERTEX_POINT ( 'NONE', #199 ) ;
#281 = CIRCLE ( 'NONE', #194, 6.000000000000000000 ) ;
#282 = FACE_OUTER_BOUND ( 'NONE', #121, .T. ) ;
#283 = AXIS2_PLACEMENT_3D ( 'NONE', #76, #251, #105 ) ;
#284 = APPROVAL_STATUS ( 'not_yet_approved' ) ;
#285 = VERTEX_POINT ( 'NONE', #133 ) ;
#286 = CARTESIAN_POINT ( 'NONE',  ( -52.69999999999999600, -6.363787144661038800E-015, 0.0000000000000000000 ) ) ;
#287 = EDGE_CURVE ( 'NONE', #189, #280, #188, .T. ) ;
#288 = FACE_OUTER_BOUND ( 'NONE', #41, .T. ) ;
#289 = ORIENTED_EDGE ( 'NONE', *, *, #20, .T. ) ;
#290 = COORDINATED_UNIVERSAL_TIME_OFFSET ( 9, 0, .AHEAD. ) ;
#291 = APPROVAL ( #284, 'UNSPECIFIED' ) ;
#292 = SHAPE_DEFINITION_REPRESENTATION ( #78, #143 ) ;
#293 = DIRECTION ( 'NONE',  ( 1.000000000000000000, 1.185062782990882500E-016, -0.0000000000000000000 ) ) ;
#294 = VERTEX_POINT ( 'NONE', #11 ) ;
#295 = LINE ( 'NONE', #265, #220 ) ;
#296 = VERTEX_POINT ( 'NONE', #59 ) ;
#297 = AXIS2_PLACEMENT_3D ( 'NONE', #177, #54, #131 ) ;
#298 = PLANE ( 'NONE',  #184 ) ;
#299 = LOCAL_TIME ( 9, 26, 17.00000000000000000, #46 ) ;
#300 = CARTESIAN_POINT ( 'NONE',  ( 0.9999999999999993300, 6.000000000000000000, 0.0000000000000000000 ) ) ;
#301 = CARTESIAN_POINT ( 'NONE',  ( 1.000000000000000000, 0.0000000000000000000, 0.0000000000000000000 ) ) ;
#302 = ADVANCED_FACE ( 'NONE', ( #125 ), #123, .T. ) ;
#303 = ORIENTED_EDGE ( 'NONE', *, *, #190, .T. ) ;
#304 = EDGE_CURVE ( 'NONE', #225, #94, #311, .T. ) ;
#305 = EDGE_LOOP ( 'NONE', ( #109, #112 ) ) ;
#306 =( NAMED_UNIT ( * ) SI_UNIT ( $, .STERADIAN. ) SOLID_ANGLE_UNIT ( ) );
#307 = CALENDAR_DATE ( 2023, 8, 6 ) ;
#308 = PERSON_AND_ORGANIZATION_ROLE ( 'creator' ) ;
#309 = CC_DESIGN_APPROVAL ( #291, ( #275 ) ) ;
#310 = ORIENTED_EDGE ( 'NONE', *, *, #50, .T. ) ;
#311 = CIRCLE ( 'NONE', #160, 6.000000000000000000 ) ;
#312 = DATE_AND_TIME ( #65, #132 ) ;
#313 = PERSON_AND_ORGANIZATION ( #29, #230 ) ;
ENDSEC;
END-ISO-10303-21;
