ISO-10303-21;
HEADER;
FILE_DESCRIPTION (( 'STEP AP203' ),
    '1' );
FILE_NAME ('03-3007.STEP',
    '2023-06-08T00:26:30',
    ( 'USER' ),
    ( 'Hewlett-Packard Company' ),
    'SwSTEP 2.0',
    'SolidWorks 2014',
    '' );
FILE_SCHEMA (( 'CONFIG_CONTROL_DESIGN' ));
ENDSEC;

DATA;
#1 = ADVANCED_FACE ( 'NONE', ( #98 ), #57, .F. ) ;
#2 = FACE_OUTER_BOUND ( 'NONE', #290, .T. ) ;
#3 = EDGE_LOOP ( 'NONE', ( #308, #120, #94, #118 ) ) ;
#4 = APPLICATION_PROTOCOL_DEFINITION ( 'international standard', 'config_control_design', 1994, #147 ) ;
#5 = APPROVAL_ROLE ( '' ) ;
#6 = CC_DESIGN_APPROVAL ( #307, ( #291 ) ) ;
#7 = CARTESIAN_POINT ( 'NONE',  ( -53.69999999999998200, -8.000000000000007100, 9.797174393178825700E-016 ) ) ;
#8 = CARTESIAN_POINT ( 'NONE',  ( 1.000000000000001100, -8.000000000000000000, 9.797174393178825700E-016 ) ) ;
#9 = AXIS2_PLACEMENT_3D ( 'NONE', #294, #284, #264 ) ;
#10 = DIRECTION ( 'NONE',  ( 0.0000000000000000000, 1.000000000000000000, 0.0000000000000000000 ) ) ;
#11 = CYLINDRICAL_SURFACE ( 'NONE', #157, 8.000000000000000000 ) ;
#12 = EDGE_LOOP ( 'NONE', ( #40, #220 ) ) ;
#13 = PLANE ( 'NONE',  #161 ) ;
#14 = ADVANCED_BREP_SHAPE_REPRESENTATION ( '03-3007', ( #183, #139, #260 ), #196 ) ;
#15 = DIRECTION ( 'NONE',  ( 1.000000000000000000, 1.242367254026357900E-016, -0.0000000000000000000 ) ) ;
#16 = LOCAL_TIME ( 9, 26, 30.00000000000000000, #83 ) ;
#17 = CALENDAR_DATE ( 2023, 8, 6 ) ;
#18 = ORIENTED_EDGE ( 'NONE', *, *, #70, .F. ) ;
#19 = SHAPE_DEFINITION_REPRESENTATION ( #207, #14 ) ;
#20 = CC_DESIGN_PERSON_AND_ORGANIZATION_ASSIGNMENT ( #287, #204, ( #291 ) ) ;
#21 = CARTESIAN_POINT ( 'NONE',  ( 66.00000000000000000, 0.0000000000000000000, 0.0000000000000000000 ) ) ;
#22 = ADVANCED_FACE ( 'NONE', ( #36 ), #49, .T. ) ;
#23 = CARTESIAN_POINT ( 'NONE',  ( 1.000000000000000000, 0.0000000000000000000, 0.0000000000000000000 ) ) ;
#24 = AXIS2_PLACEMENT_3D ( 'NONE', #201, #58, #225 ) ;
#25 = CALENDAR_DATE ( 2023, 8, 6 ) ;
#26 = CARTESIAN_POINT ( 'NONE',  ( -53.99999999999998600, -6.833019897144966400E-015, 0.0000000000000000000 ) ) ;
#27 = DATE_AND_TIME ( #91, #159 ) ;
#28 = APPROVAL_ROLE ( '' ) ;
#29 = LINE ( 'NONE', #270, #280 ) ;
#30 = DIRECTION ( 'NONE',  ( 1.000000000000000000, 1.242367254026357900E-016, -0.0000000000000000000 ) ) ;
#31 = EDGE_LOOP ( 'NONE', ( #65, #18 ) ) ;
#32 = PERSON ( 'UNSPECIFIED', 'UNSPECIFIED', 'UNSPECIFIED', ('UNSPECIFIED'), ('UNSPECIFIED'), ('UNSPECIFIED') ) ;
#33 = DIRECTION ( 'NONE',  ( 1.000000000000000000, 1.242367254026357900E-016, -0.0000000000000000000 ) ) ;
#34 = EDGE_CURVE ( 'NONE', #45, #243, #116, .T. ) ;
#35 = DIRECTION ( 'NONE',  ( -1.355252715606880500E-016, 1.000000000000000000, 0.0000000000000000000 ) ) ;
#36 = FACE_OUTER_BOUND ( 'NONE', #107, .T. ) ;
#37 = PERSON_AND_ORGANIZATION ( #32, #123 ) ;
#38 = DIRECTION ( 'NONE',  ( 1.000000000000000000, 1.242367254026357900E-016, -0.0000000000000000000 ) ) ;
#39 = APPROVAL_DATE_TIME ( #101, #307 ) ;
#40 = ORIENTED_EDGE ( 'NONE', *, *, #97, .T. ) ;
#41 = FACE_OUTER_BOUND ( 'NONE', #3, .T. ) ;
#42 = VERTEX_POINT ( 'NONE', #217 ) ;
#43 = CC_DESIGN_DATE_AND_TIME_ASSIGNMENT ( #27, #62, ( #291 ) ) ;
#44 = DIRECTION ( 'NONE',  ( -1.242367254026357900E-016, 1.000000000000000000, 0.0000000000000000000 ) ) ;
#45 = VERTEX_POINT ( 'NONE', #216 ) ;
#46 = AXIS2_PLACEMENT_3D ( 'NONE', #127, #296, #144 ) ;
#47 = APPROVAL_PERSON_ORGANIZATION ( #114, #307, #28 ) ;
#48 = ORIENTED_EDGE ( 'NONE', *, *, #275, .T. ) ;
#49 = CONICAL_SURFACE ( 'NONE', #310, 8.000000000000000000, 0.7853981633974453900 ) ;
#50 = AXIS2_PLACEMENT_3D ( 'NONE', #21, #198, #56 ) ;
#51 = VECTOR ( 'NONE', #156, 1000.000000000000000 ) ;
#52 = ORIENTED_EDGE ( 'NONE', *, *, #134, .F. ) ;
#53 = PLANE ( 'NONE',  #119 ) ;
#54 = EDGE_CURVE ( 'NONE', #180, #42, #244, .T. ) ;
#55 = ORIENTED_EDGE ( 'NONE', *, *, #189, .T. ) ;
#56 = DIRECTION ( 'NONE',  ( 0.0000000000000000000, 0.0000000000000000000, 1.000000000000000000 ) ) ;
#57 = PLANE ( 'NONE',  #9 ) ;
#58 = DIRECTION ( 'NONE',  ( 1.000000000000000000, 1.242367254026357900E-016, -0.0000000000000000000 ) ) ;
#59 = DIRECTION ( 'NONE',  ( 0.0000000000000000000, 1.000000000000000000, 0.0000000000000000000 ) ) ;
#60 = FACE_OUTER_BOUND ( 'NONE', #293, .T. ) ;
#61 = CIRCLE ( 'NONE', #92, 8.000000000000012400 ) ;
#62 = DATE_TIME_ROLE ( 'creation_date' ) ;
#63 = DIRECTION ( 'NONE',  ( -1.000000000000000000, -0.0000000000000000000, -0.0000000000000000000 ) ) ;
#64 = DIRECTION ( 'NONE',  ( 1.000000000000000000, 1.242367254026357900E-016, -0.0000000000000000000 ) ) ;
#65 = ORIENTED_EDGE ( 'NONE', *, *, #164, .F. ) ;
#66 = PRODUCT_DEFINITION_FORMATION_WITH_SPECIFIED_SOURCE ( 'ANY', '', #148, .NOT_KNOWN. ) ;
#67 = AXIS2_PLACEMENT_3D ( 'NONE', #26, #202, #59 ) ;
#68 = VECTOR ( 'NONE', #312, 1000.000000000000000 ) ;
#69 = AXIS2_PLACEMENT_3D ( 'NONE', #197, #96, #267 ) ;
#70 = EDGE_CURVE ( 'NONE', #303, #266, #305, .T. ) ;
#71 = CARTESIAN_POINT ( 'NONE',  ( 0.0000000000000000000, 0.0000000000000000000, 8.000000000000007100 ) ) ;
#72 = DIRECTION ( 'NONE',  ( 0.0000000000000000000, 1.000000000000000000, 0.0000000000000000000 ) ) ;
#73 = CIRCLE ( 'NONE', #128, 7.700000000000000200 ) ;
#74 = DIRECTION ( 'NONE',  ( -1.000000000000000000, -0.0000000000000000000, -0.0000000000000000000 ) ) ;
#75 = APPROVAL ( #229, 'UNSPECIFIED' ) ;
#76 = DIRECTION ( 'NONE',  ( 1.242367254026357900E-016, -1.000000000000000000, 0.0000000000000000000 ) ) ;
#77 = ADVANCED_FACE ( 'NONE', ( #60 ), #104, .T. ) ;
#78 = AXIS2_PLACEMENT_3D ( 'NONE', #182, #30, #205 ) ;
#79 = APPROVAL_ROLE ( '' ) ;
#80 = CARTESIAN_POINT ( 'NONE',  ( -53.99999999999998600, -6.833019897144966400E-015, 0.0000000000000000000 ) ) ;
#81 = CARTESIAN_POINT ( 'NONE',  ( 0.9999999999999988900, -1.459173436578861200E-031, 0.0000000000000000000 ) ) ;
#82 = EDGE_CURVE ( 'NONE', #243, #42, #299, .T. ) ;
#83 = COORDINATED_UNIVERSAL_TIME_OFFSET ( 9, 0, .AHEAD. ) ;
#84 =( LENGTH_UNIT ( ) NAMED_UNIT ( * ) SI_UNIT ( .MILLI., .METRE. ) );
#85 = LOCAL_TIME ( 9, 26, 30.00000000000000000, #146 ) ;
#86 = ORIENTED_EDGE ( 'NONE', *, *, #250, .F. ) ;
#87 = CC_DESIGN_APPROVAL ( #75, ( #66 ) ) ;
#88 = CARTESIAN_POINT ( 'NONE',  ( 0.0000000000000000000, 9.797174393178835500E-016, -8.000000000000007100 ) ) ;
#89 = LOCAL_TIME ( 9, 26, 30.00000000000000000, #155 ) ;
#90 = AXIS2_PLACEMENT_3D ( 'NONE', #81, #256, #109 ) ;
#91 = CALENDAR_DATE ( 2023, 8, 6 ) ;
#92 = AXIS2_PLACEMENT_3D ( 'NONE', #137, #309, #163 ) ;
#93 = CYLINDRICAL_SURFACE ( 'NONE', #140, 8.000000000000000000 ) ;
#94 = ORIENTED_EDGE ( 'NONE', *, *, #97, .F. ) ;
#95 = ORIENTED_EDGE ( 'NONE', *, *, #82, .T. ) ;
#96 = DIRECTION ( 'NONE',  ( 1.000000000000000000, 0.0000000000000000000, 0.0000000000000000000 ) ) ;
#97 = EDGE_CURVE ( 'NONE', #42, #180, #178, .T. ) ;
#98 = FACE_OUTER_BOUND ( 'NONE', #151, .T. ) ;
#99 = ADVANCED_FACE ( 'NONE', ( #41 ), #93, .T. ) ;
#100 = APPROVAL_DATE_TIME ( #166, #75 ) ;
#101 = DATE_AND_TIME ( #167, #238 ) ;
#102 = DIRECTION ( 'NONE',  ( 1.000000000000000000, 0.0000000000000000000, 0.0000000000000000000 ) ) ;
#103 = EDGE_LOOP ( 'NONE', ( #165, #115, #95, #111 ) ) ;
#104 = CYLINDRICAL_SURFACE ( 'NONE', #113, 8.000000000000007100 ) ;
#105 = ORIENTED_EDGE ( 'NONE', *, *, #263, .F. ) ;
#106 = PERSON_AND_ORGANIZATION_ROLE ( 'design_supplier' ) ;
#107 = EDGE_LOOP ( 'NONE', ( #172, #170, #304, #242 ) ) ;
#108 = DIRECTION ( 'NONE',  ( 0.0000000000000000000, 1.000000000000000000, 0.0000000000000000000 ) ) ;
#109 = DIRECTION ( 'NONE',  ( -1.355252715606880500E-016, 1.000000000000000000, 0.0000000000000000000 ) ) ;
#110 = CC_DESIGN_PERSON_AND_ORGANIZATION_ASSIGNMENT ( #37, #254, ( #66 ) ) ;
#111 = ORIENTED_EDGE ( 'NONE', *, *, #54, .F. ) ;
#112 = DIRECTION ( 'NONE',  ( -1.000000000000000000, -0.0000000000000000000, -0.0000000000000000000 ) ) ;
#113 = AXIS2_PLACEMENT_3D ( 'NONE', #176, #251, #227 ) ;
#114 = PERSON_AND_ORGANIZATION ( #32, #123 ) ;
#115 = ORIENTED_EDGE ( 'NONE', *, *, #34, .T. ) ;
#116 = CIRCLE ( 'NONE', #24, 8.000000000000000000 ) ;
#117 = LINE ( 'NONE', #71, #51 ) ;
#118 = ORIENTED_EDGE ( 'NONE', *, *, #82, .F. ) ;
#119 = AXIS2_PLACEMENT_3D ( 'NONE', #171, #222, #76 ) ;
#120 = ORIENTED_EDGE ( 'NONE', *, *, #121, .T. ) ;
#121 = EDGE_CURVE ( 'NONE', #45, #180, #230, .T. ) ;
#122 = CARTESIAN_POINT ( 'NONE',  ( -53.69999999999998200, -6.795748879524175900E-015, 0.0000000000000000000 ) ) ;
#123 = ORGANIZATION ( 'UNSPECIFIED', 'UNSPECIFIED', '' ) ;
#124 = DESIGN_CONTEXT ( 'detailed design', #147, 'design' ) ;
#125 = CC_DESIGN_PERSON_AND_ORGANIZATION_ASSIGNMENT ( #286, #106, ( #66 ) ) ;
#126 = ADVANCED_FACE ( 'NONE', ( #168 ), #11, .T. ) ;
#127 = CARTESIAN_POINT ( 'NONE',  ( 0.9999999999999988900, -1.459173436578861200E-031, 0.0000000000000000000 ) ) ;
#128 = AXIS2_PLACEMENT_3D ( 'NONE', #80, #255, #108 ) ;
#129 = CYLINDRICAL_SURFACE ( 'NONE', #211, 8.000000000000007100 ) ;
#130 = MECHANICAL_CONTEXT ( 'NONE', #158, 'mechanical' ) ;
#131 = DIRECTION ( 'NONE',  ( 0.7071067811865493500, 0.7071067811865455700, 0.0000000000000000000 ) ) ;
#132 = PERSON_AND_ORGANIZATION_ROLE ( 'classification_officer' ) ;
#133 = PLANE ( 'NONE',  #69 ) ;
#134 = EDGE_CURVE ( 'NONE', #266, #243, #29, .T. ) ;
#135 =( NAMED_UNIT ( * ) SI_UNIT ( $, .STERADIAN. ) SOLID_ANGLE_UNIT ( ) );
#136 = FACE_OUTER_BOUND ( 'NONE', #248, .T. ) ;
#137 = CARTESIAN_POINT ( 'NONE',  ( 66.00000000000000000, 0.0000000000000000000, 0.0000000000000000000 ) ) ;
#138 = SECURITY_CLASSIFICATION ( '', '', #271 ) ;
#139 = MANIFOLD_SOLID_BREP ( 'È¸Àü4', #281 ) ;
#140 = AXIS2_PLACEMENT_3D ( 'NONE', #23, #64, #206 ) ;
#141 = APPROVAL_DATE_TIME ( #210, #193 ) ;
#142 = AXIS2_PLACEMENT_3D ( 'NONE', #257, #112, #276 ) ;
#143 = EDGE_CURVE ( 'NONE', #243, #45, #203, .T. ) ;
#144 = DIRECTION ( 'NONE',  ( -1.355252715606880500E-016, 1.000000000000000000, 0.0000000000000000000 ) ) ;
#145 = APPROVAL_PERSON_ORGANIZATION ( #215, #193, #5 ) ;
#146 = COORDINATED_UNIVERSAL_TIME_OFFSET ( 9, 0, .AHEAD. ) ;
#147 = APPLICATION_CONTEXT ( 'configuration controlled 3d designs of mechanical parts and assemblies' ) ;
#148 = PRODUCT ( '03-3007', '03-3007', '', ( #130 ) ) ;
#149 = CARTESIAN_POINT ( 'NONE',  ( 66.00000000000000000, 0.0000000000000000000, 8.000000000000012400 ) ) ;
#150 = APPROVAL_STATUS ( 'not_yet_approved' ) ;
#151 = EDGE_LOOP ( 'NONE', ( #162, #173 ) ) ;
#152 = CARTESIAN_POINT ( 'NONE',  ( 1.000000000000000000, -8.000000000000000000, 9.797174393178825700E-016 ) ) ;
#153 = DIRECTION ( 'NONE',  ( 1.000000000000000000, 1.242367254026357900E-016, -0.0000000000000000000 ) ) ;
#154 = CC_DESIGN_PERSON_AND_ORGANIZATION_ASSIGNMENT ( #226, #132, ( #138 ) ) ;
#155 = COORDINATED_UNIVERSAL_TIME_OFFSET ( 9, 0, .AHEAD. ) ;
#156 = DIRECTION ( 'NONE',  ( -1.000000000000000000, -0.0000000000000000000, -0.0000000000000000000 ) ) ;
#157 = AXIS2_PLACEMENT_3D ( 'NONE', #274, #188, #35 ) ;
#158 = APPLICATION_CONTEXT ( 'configuration controlled 3d designs of mechanical parts and assemblies' ) ;
#159 = LOCAL_TIME ( 9, 26, 30.00000000000000000, #228 ) ;
#160 = PERSON_AND_ORGANIZATION ( #32, #123 ) ;
#161 = AXIS2_PLACEMENT_3D ( 'NONE', #261, #192, #44 ) ;
#162 = ORIENTED_EDGE ( 'NONE', *, *, #235, .F. ) ;
#163 = DIRECTION ( 'NONE',  ( 0.0000000000000000000, 0.0000000000000000000, 1.000000000000000000 ) ) ;
#164 = EDGE_CURVE ( 'NONE', #266, #303, #73, .T. ) ;
#165 = ORIENTED_EDGE ( 'NONE', *, *, #121, .F. ) ;
#166 = DATE_AND_TIME ( #17, #85 ) ;
#167 = CALENDAR_DATE ( 2023, 8, 6 ) ;
#168 = FACE_OUTER_BOUND ( 'NONE', #103, .T. ) ;
#169 = VERTEX_POINT ( 'NONE', #149 ) ;
#170 = ORIENTED_EDGE ( 'NONE', *, *, #70, .T. ) ;
#171 = CARTESIAN_POINT ( 'NONE',  ( -53.99999999999999300, -6.833019897144967200E-015, 0.0000000000000000000 ) ) ;
#172 = ORIENTED_EDGE ( 'NONE', *, *, #189, .F. ) ;
#173 = ORIENTED_EDGE ( 'NONE', *, *, #214, .F. ) ;
#174 = CC_DESIGN_DATE_AND_TIME_ASSIGNMENT ( #277, #302, ( #138 ) ) ;
#175 = ADVANCED_FACE ( 'NONE', ( #2 ), #129, .T. ) ;
#176 = CARTESIAN_POINT ( 'NONE',  ( 0.0000000000000000000, 0.0000000000000000000, 0.0000000000000000000 ) ) ;
#177 = ORIENTED_EDGE ( 'NONE', *, *, #199, .T. ) ;
#178 = CIRCLE ( 'NONE', #90, 8.000000000000000000 ) ;
#179 = APPROVAL_STATUS ( 'not_yet_approved' ) ;
#180 = VERTEX_POINT ( 'NONE', #152 ) ;
#181 = AXIS2_PLACEMENT_3D ( 'NONE', #122, #38, #10 ) ;
#182 = CARTESIAN_POINT ( 'NONE',  ( -53.69999999999998200, -6.795748879524175900E-015, 0.0000000000000000000 ) ) ;
#183 = MANIFOLD_SOLID_BREP ( 'È¸Àü3', #231 ) ;
#184 = CARTESIAN_POINT ( 'NONE',  ( 0.9999999999999988900, 8.000000000000000000, 0.0000000000000000000 ) ) ;
#185 = CARTESIAN_POINT ( 'NONE',  ( 0.9999999999999997800, 0.0000000000000000000, 8.000000000000000000 ) ) ;
#186 = VERTEX_POINT ( 'NONE', #185 ) ;
#187 = ORIENTED_EDGE ( 'NONE', *, *, #235, .T. ) ;
#188 = DIRECTION ( 'NONE',  ( 1.000000000000000000, 1.242367254026357900E-016, -0.0000000000000000000 ) ) ;
#189 = EDGE_CURVE ( 'NONE', #303, #45, #259, .T. ) ;
#190 = CARTESIAN_POINT ( 'NONE',  ( 66.00000000000000000, 9.797174393178841400E-016, -8.000000000000012400 ) ) ;
#191 = CIRCLE ( 'NONE', #142, 8.000000000000000000 ) ;
#192 = DIRECTION ( 'NONE',  ( 1.000000000000000000, 1.242367254026357900E-016, -0.0000000000000000000 ) ) ;
#193 = APPROVAL ( #150, 'UNSPECIFIED' ) ;
#194 = AXIS2_PLACEMENT_3D ( 'NONE', #219, #74, #246 ) ;
#195 = FACE_OUTER_BOUND ( 'NONE', #12, .T. ) ;
#196 =( GEOMETRIC_REPRESENTATION_CONTEXT ( 3 ) GLOBAL_UNCERTAINTY_ASSIGNED_CONTEXT ( ( #236 ) ) GLOBAL_UNIT_ASSIGNED_CONTEXT ( ( #84, #278, #135 ) ) REPRESENTATION_CONTEXT ( 'NONE', 'WORKASPACE' ) );
#197 = CARTESIAN_POINT ( 'NONE',  ( 1.000000000000000400, 1.355252715606881800E-016, 0.0000000000000000000 ) ) ;
#198 = DIRECTION ( 'NONE',  ( -1.000000000000000000, -0.0000000000000000000, -0.0000000000000000000 ) ) ;
#199 = EDGE_CURVE ( 'NONE', #233, #186, #265, .T. ) ;
#200 = ADVANCED_FACE ( 'NONE', ( #136 ), #133, .F. ) ;
#201 = CARTESIAN_POINT ( 'NONE',  ( -53.69999999999998200, -6.795748879524175900E-015, 0.0000000000000000000 ) ) ;
#202 = DIRECTION ( 'NONE',  ( 1.000000000000000000, 1.242367254026357900E-016, -0.0000000000000000000 ) ) ;
#203 = CIRCLE ( 'NONE', #78, 8.000000000000000000 ) ;
#204 = PERSON_AND_ORGANIZATION_ROLE ( 'creator' ) ;
#205 = DIRECTION ( 'NONE',  ( 0.0000000000000000000, 1.000000000000000000, 0.0000000000000000000 ) ) ;
#206 = DIRECTION ( 'NONE',  ( -1.355252715606880500E-016, 1.000000000000000000, 0.0000000000000000000 ) ) ;
#207 = PRODUCT_DEFINITION_SHAPE ( 'NONE', 'NONE',  #291 ) ;
#208 = CARTESIAN_POINT ( 'NONE',  ( 0.0000000000000000000, 0.0000000000000000000, 0.0000000000000000000 ) ) ;
#209 = CC_DESIGN_APPROVAL ( #193, ( #138 ) ) ;
#210 = DATE_AND_TIME ( #268, #16 ) ;
#211 = AXIS2_PLACEMENT_3D ( 'NONE', #208, #63, #273 ) ;
#212 = ORIENTED_EDGE ( 'NONE', *, *, #275, .F. ) ;
#213 = ORIENTED_EDGE ( 'NONE', *, *, #214, .T. ) ;
#214 = EDGE_CURVE ( 'NONE', #292, #169, #311, .T. ) ;
#215 = PERSON_AND_ORGANIZATION ( #32, #123 ) ;
#216 = CARTESIAN_POINT ( 'NONE',  ( -53.69999999999998200, -8.000000000000007100, 9.797174393178829600E-016 ) ) ;
#217 = CARTESIAN_POINT ( 'NONE',  ( 0.9999999999999978900, 8.000000000000000000, 0.0000000000000000000 ) ) ;
#218 = APPROVAL_PERSON_ORGANIZATION ( #279, #75, #79 ) ;
#219 = CARTESIAN_POINT ( 'NONE',  ( 0.9999999999999997800, 0.0000000000000000000, 0.0000000000000000000 ) ) ;
#220 = ORIENTED_EDGE ( 'NONE', *, *, #54, .T. ) ;
#221 = PRODUCT_RELATED_PRODUCT_CATEGORY ( 'detail', '', ( #148 ) ) ;
#222 = DIRECTION ( 'NONE',  ( -1.000000000000000000, -1.242367254026357900E-016, 0.0000000000000000000 ) ) ;
#223 = CC_DESIGN_SECURITY_CLASSIFICATION ( #138, ( #66 ) ) ;
#224 = ADVANCED_FACE ( 'NONE', ( #253 ), #53, .T. ) ;
#225 = DIRECTION ( 'NONE',  ( 0.0000000000000000000, 1.000000000000000000, 0.0000000000000000000 ) ) ;
#226 = PERSON_AND_ORGANIZATION ( #32, #123 ) ;
#227 = DIRECTION ( 'NONE',  ( 0.0000000000000000000, 0.0000000000000000000, 1.000000000000000000 ) ) ;
#228 = COORDINATED_UNIVERSAL_TIME_OFFSET ( 9, 0, .AHEAD. ) ;
#229 = APPROVAL_STATUS ( 'not_yet_approved' ) ;
#230 = LINE ( 'NONE', #8, #288 ) ;
#231 = CLOSED_SHELL ( 'NONE', ( #175, #77, #200, #1 ) ) ;
#232 = CONICAL_SURFACE ( 'NONE', #181, 8.000000000000000000, 0.7853981633974453900 ) ;
#233 = VERTEX_POINT ( 'NONE', #313 ) ;
#234 = ORIENTED_EDGE ( 'NONE', *, *, #263, .T. ) ;
#235 = EDGE_CURVE ( 'NONE', #169, #292, #61, .T. ) ;
#236 = UNCERTAINTY_MEASURE_WITH_UNIT (LENGTH_MEASURE( 1.000000000000000100E-005 ), #84, 'distance_accuracy_value', 'NONE');
#237 = CARTESIAN_POINT ( 'NONE',  ( -53.99999999999998600, -7.700000000000007300, 9.613477373306723300E-016 ) ) ;
#238 = LOCAL_TIME ( 9, 26, 30.00000000000000000, #297 ) ;
#239 = VECTOR ( 'NONE', #33, 1000.000000000000000 ) ;
#240 = ORIENTED_EDGE ( 'NONE', *, *, #164, .T. ) ;
#241 = CARTESIAN_POINT ( 'NONE',  ( -53.69999999999998200, 7.999999999999992900, 0.0000000000000000000 ) ) ;
#242 = ORIENTED_EDGE ( 'NONE', *, *, #34, .F. ) ;
#243 = VERTEX_POINT ( 'NONE', #241 ) ;
#244 = CIRCLE ( 'NONE', #46, 8.000000000000000000 ) ;
#245 = LINE ( 'NONE', #88, #306 ) ;
#246 = DIRECTION ( 'NONE',  ( 0.0000000000000000000, 0.0000000000000000000, 1.000000000000000000 ) ) ;
#247 = EDGE_LOOP ( 'NONE', ( #240, #55, #289, #52 ) ) ;
#248 = EDGE_LOOP ( 'NONE', ( #234, #177 ) ) ;
#249 = ADVANCED_FACE ( 'NONE', ( #195 ), #13, .T. ) ;
#250 = EDGE_CURVE ( 'NONE', #292, #233, #245, .T. ) ;
#251 = DIRECTION ( 'NONE',  ( -1.000000000000000000, -0.0000000000000000000, -0.0000000000000000000 ) ) ;
#252 = DIRECTION ( 'NONE',  ( 0.0000000000000000000, 0.0000000000000000000, 1.000000000000000000 ) ) ;
#253 = FACE_OUTER_BOUND ( 'NONE', #31, .T. ) ;
#254 = PERSON_AND_ORGANIZATION_ROLE ( 'creator' ) ;
#255 = DIRECTION ( 'NONE',  ( 1.000000000000000000, 1.242367254026357900E-016, -0.0000000000000000000 ) ) ;
#256 = DIRECTION ( 'NONE',  ( 1.000000000000000000, 1.242367254026357900E-016, -0.0000000000000000000 ) ) ;
#257 = CARTESIAN_POINT ( 'NONE',  ( 0.9999999999999997800, 0.0000000000000000000, 0.0000000000000000000 ) ) ;
#258 = CARTESIAN_POINT ( 'NONE',  ( 0.0000000000000000000, 0.0000000000000000000, 0.0000000000000000000 ) ) ;
#259 = LINE ( 'NONE', #7, #68 ) ;
#260 = AXIS2_PLACEMENT_3D ( 'NONE', #258, #252, #102 ) ;
#261 = CARTESIAN_POINT ( 'NONE',  ( 0.9999999999999985600, 8.000000000000000000, 0.0000000000000000000 ) ) ;
#262 = DIRECTION ( 'NONE',  ( -1.000000000000000000, -0.0000000000000000000, -0.0000000000000000000 ) ) ;
#263 = EDGE_CURVE ( 'NONE', #186, #233, #191, .T. ) ;
#264 = DIRECTION ( 'NONE',  ( -0.0000000000000000000, 0.0000000000000000000, 1.000000000000000000 ) ) ;
#265 = CIRCLE ( 'NONE', #194, 8.000000000000000000 ) ;
#266 = VERTEX_POINT ( 'NONE', #283 ) ;
#267 = DIRECTION ( 'NONE',  ( 0.0000000000000000000, 0.0000000000000000000, -1.000000000000000000 ) ) ;
#268 = CALENDAR_DATE ( 2023, 8, 6 ) ;
#269 = APPLICATION_PROTOCOL_DEFINITION ( 'international standard', 'config_control_design', 1994, #158 ) ;
#270 = CARTESIAN_POINT ( 'NONE',  ( -53.69999999999998200, 7.999999999999992900, 0.0000000000000000000 ) ) ;
#271 = SECURITY_CLASSIFICATION_LEVEL ( 'unclassified' ) ;
#272 = CC_DESIGN_PERSON_AND_ORGANIZATION_ASSIGNMENT ( #160, #298, ( #148 ) ) ;
#273 = DIRECTION ( 'NONE',  ( 0.0000000000000000000, 0.0000000000000000000, 1.000000000000000000 ) ) ;
#274 = CARTESIAN_POINT ( 'NONE',  ( 1.000000000000000000, 0.0000000000000000000, 0.0000000000000000000 ) ) ;
#275 = EDGE_CURVE ( 'NONE', #169, #186, #117, .T. ) ;
#276 = DIRECTION ( 'NONE',  ( 0.0000000000000000000, 0.0000000000000000000, 1.000000000000000000 ) ) ;
#277 = DATE_AND_TIME ( #25, #89 ) ;
#278 =( NAMED_UNIT ( * ) PLANE_ANGLE_UNIT ( ) SI_UNIT ( $, .RADIAN. ) );
#279 = PERSON_AND_ORGANIZATION ( #32, #123 ) ;
#280 = VECTOR ( 'NONE', #131, 1000.000000000000100 ) ;
#281 = CLOSED_SHELL ( 'NONE', ( #295, #99, #224, #249, #126, #22 ) ) ;
#282 = ORIENTED_EDGE ( 'NONE', *, *, #199, .F. ) ;
#283 = CARTESIAN_POINT ( 'NONE',  ( -53.99999999999998600, 7.699999999999993100, 0.0000000000000000000 ) ) ;
#284 = DIRECTION ( 'NONE',  ( -1.000000000000000000, 0.0000000000000000000, -0.0000000000000000000 ) ) ;
#285 = CARTESIAN_POINT ( 'NONE',  ( -53.69999999999998200, -6.795748879524175900E-015, 0.0000000000000000000 ) ) ;
#286 = PERSON_AND_ORGANIZATION ( #32, #123 ) ;
#287 = PERSON_AND_ORGANIZATION ( #32, #123 ) ;
#288 = VECTOR ( 'NONE', #153, 1000.000000000000000 ) ;
#289 = ORIENTED_EDGE ( 'NONE', *, *, #143, .F. ) ;
#290 = EDGE_LOOP ( 'NONE', ( #187, #301, #105, #212 ) ) ;
#291 = PRODUCT_DEFINITION ( 'UNKNOWN', '', #66, #124 ) ;
#292 = VERTEX_POINT ( 'NONE', #190 ) ;
#293 = EDGE_LOOP ( 'NONE', ( #86, #213, #48, #282 ) ) ;
#294 = CARTESIAN_POINT ( 'NONE',  ( 66.00000000000000000, 0.0000000000000000000, 0.0000000000000000000 ) ) ;
#295 = ADVANCED_FACE ( 'NONE', ( #300 ), #232, .T. ) ;
#296 = DIRECTION ( 'NONE',  ( 1.000000000000000000, 1.242367254026357900E-016, -0.0000000000000000000 ) ) ;
#297 = COORDINATED_UNIVERSAL_TIME_OFFSET ( 9, 0, .AHEAD. ) ;
#298 = PERSON_AND_ORGANIZATION_ROLE ( 'design_owner' ) ;
#299 = LINE ( 'NONE', #184, #239 ) ;
#300 = FACE_OUTER_BOUND ( 'NONE', #247, .T. ) ;
#301 = ORIENTED_EDGE ( 'NONE', *, *, #250, .T. ) ;
#302 = DATE_TIME_ROLE ( 'classification_date' ) ;
#303 = VERTEX_POINT ( 'NONE', #237 ) ;
#304 = ORIENTED_EDGE ( 'NONE', *, *, #134, .T. ) ;
#305 = CIRCLE ( 'NONE', #67, 7.700000000000000200 ) ;
#306 = VECTOR ( 'NONE', #262, 1000.000000000000000 ) ;
#307 = APPROVAL ( #179, 'UNSPECIFIED' ) ;
#308 = ORIENTED_EDGE ( 'NONE', *, *, #143, .T. ) ;
#309 = DIRECTION ( 'NONE',  ( -1.000000000000000000, -0.0000000000000000000, -0.0000000000000000000 ) ) ;
#310 = AXIS2_PLACEMENT_3D ( 'NONE', #285, #15, #72 ) ;
#311 = CIRCLE ( 'NONE', #50, 8.000000000000012400 ) ;
#312 = DIRECTION ( 'NONE',  ( 0.7071067811865496800, -0.7071067811865453500, 8.659560562354908200E-017 ) ) ;
#313 = CARTESIAN_POINT ( 'NONE',  ( 0.9999999999999997800, 9.797174393178831600E-016, -8.000000000000000000 ) ) ;
ENDSEC;
END-ISO-10303-21;
