ISO-10303-21;
HEADER;
FILE_DESCRIPTION (( 'STEP AP203' ),
    '1' );
FILE_NAME ('03-3008.STEP',
    '2023-06-08T00:26:46',
    ( 'USER' ),
    ( 'Hewlett-Packard Company' ),
    'SwSTEP 2.0',
    'SolidWorks 2014',
    '' );
FILE_SCHEMA (( 'CONFIG_CONTROL_DESIGN' ));
ENDSEC;

DATA;
#1 = LINE ( 'NONE', #126, #249 ) ;
#2 = DIRECTION ( 'NONE',  ( 1.000000000000000000, 0.0000000000000000000, 0.0000000000000000000 ) ) ;
#3 = EDGE_CURVE ( 'NONE', #66, #309, #224, .T. ) ;
#4 = DIRECTION ( 'NONE',  ( 1.000000000000000000, 1.241997037924736800E-016, -0.0000000000000000000 ) ) ;
#5 = SECURITY_CLASSIFICATION_LEVEL ( 'unclassified' ) ;
#6 = VERTEX_POINT ( 'NONE', #289 ) ;
#7 = CARTESIAN_POINT ( 'NONE',  ( 0.0000000000000000000, 0.0000000000000000000, 0.0000000000000000000 ) ) ;
#8 = DATE_AND_TIME ( #73, #135 ) ;
#9 = AXIS2_PLACEMENT_3D ( 'NONE', #237, #161, #97 ) ;
#10 = DIRECTION ( 'NONE',  ( 0.0000000000000000000, 0.0000000000000000000, 1.000000000000000000 ) ) ;
#11 = PRODUCT_RELATED_PRODUCT_CATEGORY ( 'detail', '', ( #145 ) ) ;
#12 = DIRECTION ( 'NONE',  ( -1.000000000000000000, -0.0000000000000000000, -0.0000000000000000000 ) ) ;
#13 = EDGE_CURVE ( 'NONE', #66, #247, #1, .T. ) ;
#14 = CARTESIAN_POINT ( 'NONE',  ( 0.9999999999999997800, 0.0000000000000000000, 0.0000000000000000000 ) ) ;
#15 = PERSON_AND_ORGANIZATION ( #30, #28 ) ;
#16 = UNCERTAINTY_MEASURE_WITH_UNIT (LENGTH_MEASURE( 1.000000000000000100E-005 ), #81, 'distance_accuracy_value', 'NONE');
#17 = CIRCLE ( 'NONE', #234, 9.699999999999999300 ) ;
#18 = ORIENTED_EDGE ( 'NONE', *, *, #78, .T. ) ;
#19 = DATE_AND_TIME ( #85, #143 ) ;
#20 = ADVANCED_FACE ( 'NONE', ( #292 ), #241, .T. ) ;
#21 = EDGE_LOOP ( 'NONE', ( #125, #96 ) ) ;
#22 = PERSON_AND_ORGANIZATION_ROLE ( 'classification_officer' ) ;
#23 = PERSON_AND_ORGANIZATION ( #30, #28 ) ;
#24 = AXIS2_PLACEMENT_3D ( 'NONE', #41, #205, #67 ) ;
#25 = LINE ( 'NONE', #182, #207 ) ;
#26 = PERSON_AND_ORGANIZATION ( #30, #28 ) ;
#27 = PERSON_AND_ORGANIZATION_ROLE ( 'design_owner' ) ;
#28 = ORGANIZATION ( 'UNSPECIFIED', 'UNSPECIFIED', '' ) ;
#29 = DIRECTION ( 'NONE',  ( -1.000000000000000000, -0.0000000000000000000, -0.0000000000000000000 ) ) ;
#30 = PERSON ( 'UNSPECIFIED', 'UNSPECIFIED', 'UNSPECIFIED', ('UNSPECIFIED'), ('UNSPECIFIED'), ('UNSPECIFIED') ) ;
#31 = EDGE_CURVE ( 'NONE', #45, #309, #183, .T. ) ;
#32 = DIRECTION ( 'NONE',  ( 0.0000000000000000000, 0.0000000000000000000, 1.000000000000000000 ) ) ;
#33 = CARTESIAN_POINT ( 'NONE',  ( -60.70000000000001000, 9.999999999999994700, 0.0000000000000000000 ) ) ;
#34 = LINE ( 'NONE', #153, #93 ) ;
#35 = AXIS2_PLACEMENT_3D ( 'NONE', #7, #144, #2 ) ;
#36 = PERSON_AND_ORGANIZATION ( #30, #28 ) ;
#37 = DIRECTION ( 'NONE',  ( 0.0000000000000000000, 0.0000000000000000000, -1.000000000000000000 ) ) ;
#38 = ORIENTED_EDGE ( 'NONE', *, *, #49, .F. ) ;
#39 =( NAMED_UNIT ( * ) PLANE_ANGLE_UNIT ( ) SI_UNIT ( $, .RADIAN. ) );
#40 = CARTESIAN_POINT ( 'NONE',  ( 1.000000000000000400, 1.084202172485505400E-016, 0.0000000000000000000 ) ) ;
#41 = CARTESIAN_POINT ( 'NONE',  ( 79.00000000000000000, 0.0000000000000000000, 0.0000000000000000000 ) ) ;
#42 = VECTOR ( 'NONE', #215, 1000.000000000000100 ) ;
#43 = FACE_OUTER_BOUND ( 'NONE', #62, .T. ) ;
#44 = COORDINATED_UNIVERSAL_TIME_OFFSET ( 9, 0, .AHEAD. ) ;
#45 = VERTEX_POINT ( 'NONE', #271 ) ;
#46 = ADVANCED_FACE ( 'NONE', ( #174 ), #164, .T. ) ;
#47 = CARTESIAN_POINT ( 'NONE',  ( -60.70000000000001000, -7.663121723995628100E-015, 0.0000000000000000000 ) ) ;
#48 = ADVANCED_FACE ( 'NONE', ( #118 ), #308, .T. ) ;
#49 = EDGE_CURVE ( 'NONE', #309, #66, #53, .T. ) ;
#50 = APPROVAL_STATUS ( 'not_yet_approved' ) ;
#51 = CARTESIAN_POINT ( 'NONE',  ( -60.70000000000001000, -10.00000000000000900, 1.224646799147353500E-015 ) ) ;
#52 = ORIENTED_EDGE ( 'NONE', *, *, #130, .F. ) ;
#53 = CIRCLE ( 'NONE', #257, 10.00000000000000200 ) ;
#54 = CLOSED_SHELL ( 'NONE', ( #46, #238, #262, #162, #71, #138 ) ) ;
#55 = CC_DESIGN_PERSON_AND_ORGANIZATION_ASSIGNMENT ( #281, #27, ( #145 ) ) ;
#56 = VECTOR ( 'NONE', #150, 1000.000000000000000 ) ;
#57 = APPLICATION_PROTOCOL_DEFINITION ( 'international standard', 'config_control_design', 1994, #194 ) ;
#58 = CARTESIAN_POINT ( 'NONE',  ( -60.70000000000001000, -7.663121723995628100E-015, 0.0000000000000000000 ) ) ;
#59 = ORIENTED_EDGE ( 'NONE', *, *, #31, .F. ) ;
#60 = AXIS2_PLACEMENT_3D ( 'NONE', #189, #313, #113 ) ;
#61 = VECTOR ( 'NONE', #105, 999.9999999999998900 ) ;
#62 = EDGE_LOOP ( 'NONE', ( #52, #267 ) ) ;
#63 = DIRECTION ( 'NONE',  ( 1.000000000000000000, 1.241997037924736800E-016, -0.0000000000000000000 ) ) ;
#64 = DIRECTION ( 'NONE',  ( 1.000000000000000000, 1.241997037924736800E-016, -0.0000000000000000000 ) ) ;
#65 = EDGE_CURVE ( 'NONE', #45, #250, #123, .T. ) ;
#66 = VERTEX_POINT ( 'NONE', #186 ) ;
#67 = DIRECTION ( 'NONE',  ( 0.0000000000000000000, 0.0000000000000000000, 1.000000000000000000 ) ) ;
#68 = PRODUCT_DEFINITION ( 'UNKNOWN', '', #142, #154 ) ;
#69 = DIRECTION ( 'NONE',  ( 1.000000000000000000, 1.241997037924736800E-016, -0.0000000000000000000 ) ) ;
#70 = ORIENTED_EDGE ( 'NONE', *, *, #311, .F. ) ;
#71 = ADVANCED_FACE ( 'NONE', ( #109 ), #223, .T. ) ;
#72 = DIRECTION ( 'NONE',  ( 0.0000000000000000000, 1.000000000000000000, 0.0000000000000000000 ) ) ;
#73 = CALENDAR_DATE ( 2023, 8, 6 ) ;
#74 = AXIS2_PLACEMENT_3D ( 'NONE', #92, #256, #117 ) ;
#75 = LINE ( 'NONE', #221, #56 ) ;
#76 = EDGE_LOOP ( 'NONE', ( #99, #116, #193, #114 ) ) ;
#77 = APPROVAL_ROLE ( '' ) ;
#78 = EDGE_CURVE ( 'NONE', #250, #66, #302, .T. ) ;
#79 = CARTESIAN_POINT ( 'NONE',  ( 0.9999999999999997800, 1.224646799147353800E-015, -10.00000000000000000 ) ) ;
#80 = DATE_AND_TIME ( #140, #204 ) ;
#81 =( LENGTH_UNIT ( ) NAMED_UNIT ( * ) SI_UNIT ( .MILLI., .METRE. ) );
#82 = ADVANCED_BREP_SHAPE_REPRESENTATION ( '03-3008', ( #169, #191, #35 ), #286 ) ;
#83 = FACE_OUTER_BOUND ( 'NONE', #299, .T. ) ;
#84 = APPROVAL ( #219, 'UNSPECIFIED' ) ;
#85 = CALENDAR_DATE ( 2023, 8, 6 ) ;
#86 = DIRECTION ( 'NONE',  ( -1.301042606982605100E-016, 1.000000000000000000, 0.0000000000000000000 ) ) ;
#87 = DIRECTION ( 'NONE',  ( -1.000000000000000000, -1.241997037924736800E-016, 0.0000000000000000000 ) ) ;
#88 = DIRECTION ( 'NONE',  ( 1.000000000000000000, 1.241997037924736800E-016, -0.0000000000000000000 ) ) ;
#89 = VERTEX_POINT ( 'NONE', #163 ) ;
#90 = DIRECTION ( 'NONE',  ( -1.000000000000000000, -0.0000000000000000000, -0.0000000000000000000 ) ) ;
#91 = PERSON_AND_ORGANIZATION ( #30, #28 ) ;
#92 = CARTESIAN_POINT ( 'NONE',  ( 79.00000000000000000, 0.0000000000000000000, 0.0000000000000000000 ) ) ;
#93 = VECTOR ( 'NONE', #12, 1000.000000000000000 ) ;
#94 = DATE_AND_TIME ( #152, #218 ) ;
#95 = SHAPE_DEFINITION_REPRESENTATION ( #196, #82 ) ;
#96 = ORIENTED_EDGE ( 'NONE', *, *, #261, .T. ) ;
#97 = DIRECTION ( 'NONE',  ( -1.301042606982605100E-016, 1.000000000000000000, 0.0000000000000000000 ) ) ;
#98 = EDGE_CURVE ( 'NONE', #301, #303, #291, .T. ) ;
#99 = ORIENTED_EDGE ( 'NONE', *, *, #13, .F. ) ;
#100 = FACE_OUTER_BOUND ( 'NONE', #232, .T. ) ;
#101 = APPROVAL_DATE_TIME ( #159, #84 ) ;
#102 = CC_DESIGN_APPROVAL ( #84, ( #68 ) ) ;
#103 = ORIENTED_EDGE ( 'NONE', *, *, #172, .F. ) ;
#104 = DATE_TIME_ROLE ( 'creation_date' ) ;
#105 = DIRECTION ( 'NONE',  ( 0.7071067811865536800, 0.7071067811865414700, 0.0000000000000000000 ) ) ;
#106 = CARTESIAN_POINT ( 'NONE',  ( -61.00000000000002100, -7.700381635133370700E-015, 0.0000000000000000000 ) ) ;
#107 = DIRECTION ( 'NONE',  ( 1.000000000000000000, 1.241997037924736800E-016, -0.0000000000000000000 ) ) ;
#108 = AXIS2_PLACEMENT_3D ( 'NONE', #14, #180, #10 ) ;
#109 = FACE_OUTER_BOUND ( 'NONE', #76, .T. ) ;
#110 = ORIENTED_EDGE ( 'NONE', *, *, #283, .T. ) ;
#111 = APPROVAL_PERSON_ORGANIZATION ( #233, #84, #77 ) ;
#112 = ORIENTED_EDGE ( 'NONE', *, *, #31, .T. ) ;
#113 = DIRECTION ( 'NONE',  ( 0.0000000000000000000, 1.000000000000000000, 0.0000000000000000000 ) ) ;
#114 = ORIENTED_EDGE ( 'NONE', *, *, #261, .F. ) ;
#115 = EDGE_CURVE ( 'NONE', #6, #147, #158, .T. ) ;
#116 = ORIENTED_EDGE ( 'NONE', *, *, #3, .T. ) ;
#117 = DIRECTION ( 'NONE',  ( -0.0000000000000000000, 0.0000000000000000000, 1.000000000000000000 ) ) ;
#118 = FACE_OUTER_BOUND ( 'NONE', #187, .T. ) ;
#119 = ORIENTED_EDGE ( 'NONE', *, *, #298, .F. ) ;
#120 = CC_DESIGN_PERSON_AND_ORGANIZATION_ASSIGNMENT ( #36, #245, ( #68 ) ) ;
#121 = DIRECTION ( 'NONE',  ( 1.000000000000000000, 1.241997037924736800E-016, -0.0000000000000000000 ) ) ;
#122 = ORIENTED_EDGE ( 'NONE', *, *, #156, .F. ) ;
#123 = CIRCLE ( 'NONE', #206, 9.699999999999999300 ) ;
#124 = AXIS2_PLACEMENT_3D ( 'NONE', #229, #88, #253 ) ;
#125 = ORIENTED_EDGE ( 'NONE', *, *, #311, .T. ) ;
#126 = CARTESIAN_POINT ( 'NONE',  ( 1.000000000000001300, -10.00000000000000200, 1.224646799147353500E-015 ) ) ;
#127 = APPROVAL_ROLE ( '' ) ;
#128 = DIRECTION ( 'NONE',  ( 1.000000000000000000, 1.241997037924736800E-016, -0.0000000000000000000 ) ) ;
#129 = ORIENTED_EDGE ( 'NONE', *, *, #283, .F. ) ;
#130 = EDGE_CURVE ( 'NONE', #147, #6, #157, .T. ) ;
#131 = DIRECTION ( 'NONE',  ( 0.0000000000000000000, 1.000000000000000000, 0.0000000000000000000 ) ) ;
#132 = CC_DESIGN_DATE_AND_TIME_ASSIGNMENT ( #94, #104, ( #68 ) ) ;
#133 = CARTESIAN_POINT ( 'NONE',  ( -61.00000000000002100, -9.700000000000004600, 1.206277097160142800E-015 ) ) ;
#134 = CARTESIAN_POINT ( 'NONE',  ( 79.00000000000000000, 0.0000000000000000000, 0.0000000000000000000 ) ) ;
#135 = LOCAL_TIME ( 9, 26, 46.00000000000000000, #197 ) ;
#136 = CYLINDRICAL_SURFACE ( 'NONE', #217, 10.00000000000000200 ) ;
#137 = ADVANCED_FACE ( 'NONE', ( #43 ), #231, .F. ) ;
#138 = ADVANCED_FACE ( 'NONE', ( #100 ), #276, .T. ) ;
#139 = EDGE_CURVE ( 'NONE', #6, #301, #34, .T. ) ;
#140 = CALENDAR_DATE ( 2023, 8, 6 ) ;
#141 = CIRCLE ( 'NONE', #108, 10.00000000000000000 ) ;
#142 = PRODUCT_DEFINITION_FORMATION_WITH_SPECIFIED_SOURCE ( 'ANY', '', #145, .NOT_KNOWN. ) ;
#143 = LOCAL_TIME ( 9, 26, 46.00000000000000000, #209 ) ;
#144 = DIRECTION ( 'NONE',  ( 0.0000000000000000000, 0.0000000000000000000, 1.000000000000000000 ) ) ;
#145 = PRODUCT ( '03-3008', '03-3008', '', ( #167 ) ) ;
#146 = PERSON_AND_ORGANIZATION_ROLE ( 'design_supplier' ) ;
#147 = VERTEX_POINT ( 'NONE', #280 ) ;
#148 = DIRECTION ( 'NONE',  ( -1.000000000000000000, -0.0000000000000000000, -0.0000000000000000000 ) ) ;
#149 = PERSON_AND_ORGANIZATION ( #30, #28 ) ;
#150 = DIRECTION ( 'NONE',  ( 1.000000000000000000, 1.241997037924736800E-016, -0.0000000000000000000 ) ) ;
#151 = FACE_OUTER_BOUND ( 'NONE', #175, .T. ) ;
#152 = CALENDAR_DATE ( 2023, 8, 6 ) ;
#153 = CARTESIAN_POINT ( 'NONE',  ( 0.0000000000000000000, 1.224646799147354200E-015, -10.00000000000000700 ) ) ;
#154 = DESIGN_CONTEXT ( 'detailed design', #194, 'design' ) ;
#155 = DIRECTION ( 'NONE',  ( 0.0000000000000000000, 0.0000000000000000000, 1.000000000000000000 ) ) ;
#156 = EDGE_CURVE ( 'NONE', #147, #303, #25, .T. ) ;
#157 = CIRCLE ( 'NONE', #24, 10.00000000000001400 ) ;
#158 = CIRCLE ( 'NONE', #290, 10.00000000000001400 ) ;
#159 = DATE_AND_TIME ( #225, #293 ) ;
#160 = APPROVAL ( #270, 'UNSPECIFIED' ) ;
#161 = DIRECTION ( 'NONE',  ( 1.000000000000000000, 1.241997037924736800E-016, -0.0000000000000000000 ) ) ;
#162 = ADVANCED_FACE ( 'NONE', ( #216 ), #179, .T. ) ;
#163 = CARTESIAN_POINT ( 'NONE',  ( 0.9999999999999972200, 10.00000000000000000, 0.0000000000000000000 ) ) ;
#164 = CONICAL_SURFACE ( 'NONE', #222, 10.00000000000000200, 0.7853981633974396200 ) ;
#165 = ORIENTED_EDGE ( 'NONE', *, *, #49, .T. ) ;
#166 = ORIENTED_EDGE ( 'NONE', *, *, #13, .T. ) ;
#167 = MECHANICAL_CONTEXT ( 'NONE', #295, 'mechanical' ) ;
#168 = DIRECTION ( 'NONE',  ( 0.0000000000000000000, 0.0000000000000000000, 1.000000000000000000 ) ) ;
#169 = MANIFOLD_SOLID_BREP ( 'È¸Àü3', #171 ) ;
#170 = CARTESIAN_POINT ( 'NONE',  ( 0.0000000000000000000, 0.0000000000000000000, 0.0000000000000000000 ) ) ;
#171 = CLOSED_SHELL ( 'NONE', ( #48, #20, #236, #137 ) ) ;
#172 = EDGE_CURVE ( 'NONE', #303, #301, #141, .T. ) ;
#173 = ORIENTED_EDGE ( 'NONE', *, *, #65, .T. ) ;
#174 = FACE_OUTER_BOUND ( 'NONE', #203, .T. ) ;
#175 = EDGE_LOOP ( 'NONE', ( #282, #254 ) ) ;
#176 = CC_DESIGN_APPROVAL ( #160, ( #142 ) ) ;
#177 = DIRECTION ( 'NONE',  ( 1.000000000000000000, 0.0000000000000000000, 0.0000000000000000000 ) ) ;
#178 = PLANE ( 'NONE',  #251 ) ;
#179 = PLANE ( 'NONE',  #124 ) ;
#180 = DIRECTION ( 'NONE',  ( -1.000000000000000000, -0.0000000000000000000, -0.0000000000000000000 ) ) ;
#181 = ORIENTED_EDGE ( 'NONE', *, *, #3, .F. ) ;
#182 = CARTESIAN_POINT ( 'NONE',  ( 0.0000000000000000000, 0.0000000000000000000, 10.00000000000000700 ) ) ;
#183 = LINE ( 'NONE', #246, #61 ) ;
#184 = EDGE_LOOP ( 'NONE', ( #165, #166, #70, #119 ) ) ;
#185 = AXIS2_PLACEMENT_3D ( 'NONE', #40, #177, #37 ) ;
#186 = CARTESIAN_POINT ( 'NONE',  ( -60.70000000000001000, -10.00000000000001100, 1.224646799147354000E-015 ) ) ;
#187 = EDGE_LOOP ( 'NONE', ( #200, #306, #103, #122 ) ) ;
#188 = DATE_TIME_ROLE ( 'classification_date' ) ;
#189 = CARTESIAN_POINT ( 'NONE',  ( -60.70000000000001000, -7.663121723995628100E-015, 0.0000000000000000000 ) ) ;
#190 = AXIS2_PLACEMENT_3D ( 'NONE', #208, #69, #269 ) ;
#191 = MANIFOLD_SOLID_BREP ( 'È¸Àü4', #54 ) ;
#192 = CC_DESIGN_PERSON_AND_ORGANIZATION_ASSIGNMENT ( #149, #297, ( #142 ) ) ;
#193 = ORIENTED_EDGE ( 'NONE', *, *, #298, .T. ) ;
#194 = APPLICATION_CONTEXT ( 'configuration controlled 3d designs of mechanical parts and assemblies' ) ;
#195 = DIRECTION ( 'NONE',  ( 0.0000000000000000000, 1.000000000000000000, 0.0000000000000000000 ) ) ;
#196 = PRODUCT_DEFINITION_SHAPE ( 'NONE', 'NONE',  #68 ) ;
#197 = COORDINATED_UNIVERSAL_TIME_OFFSET ( 9, 0, .AHEAD. ) ;
#198 = AXIS2_PLACEMENT_3D ( 'NONE', #201, #64, #228 ) ;
#199 = CIRCLE ( 'NONE', #266, 10.00000000000000000 ) ;
#200 = ORIENTED_EDGE ( 'NONE', *, *, #130, .T. ) ;
#201 = CARTESIAN_POINT ( 'NONE',  ( 0.9999999999999985600, -1.958540663306439000E-031, 0.0000000000000000000 ) ) ;
#202 = DIRECTION ( 'NONE',  ( -1.000000000000000000, -0.0000000000000000000, -0.0000000000000000000 ) ) ;
#203 = EDGE_LOOP ( 'NONE', ( #173, #18, #38, #59 ) ) ;
#204 = LOCAL_TIME ( 9, 26, 46.00000000000000000, #273 ) ;
#205 = DIRECTION ( 'NONE',  ( -1.000000000000000000, -0.0000000000000000000, -0.0000000000000000000 ) ) ;
#206 = AXIS2_PLACEMENT_3D ( 'NONE', #263, #121, #288 ) ;
#207 = VECTOR ( 'NONE', #202, 1000.000000000000000 ) ;
#208 = CARTESIAN_POINT ( 'NONE',  ( -60.70000000000001000, -7.663121723995628100E-015, 0.0000000000000000000 ) ) ;
#209 = COORDINATED_UNIVERSAL_TIME_OFFSET ( 9, 0, .AHEAD. ) ;
#210 = CC_DESIGN_PERSON_AND_ORGANIZATION_ASSIGNMENT ( #91, #146, ( #142 ) ) ;
#211 = ORIENTED_EDGE ( 'NONE', *, *, #115, .T. ) ;
#212 = DIRECTION ( 'NONE',  ( 1.000000000000000000, 1.241997037924736800E-016, -0.0000000000000000000 ) ) ;
#213 = APPROVAL_ROLE ( '' ) ;
#214 = APPROVAL_DATE_TIME ( #19, #160 ) ;
#215 = DIRECTION ( 'NONE',  ( 0.7071067811865536800, -0.7071067811865412400, 8.659560562354856400E-017 ) ) ;
#216 = FACE_OUTER_BOUND ( 'NONE', #21, .T. ) ;
#217 = AXIS2_PLACEMENT_3D ( 'NONE', #227, #63, #86 ) ;
#218 = LOCAL_TIME ( 9, 26, 46.00000000000000000, #287 ) ;
#219 = APPROVAL_STATUS ( 'not_yet_approved' ) ;
#220 = ORIENTED_EDGE ( 'NONE', *, *, #65, .F. ) ;
#221 = CARTESIAN_POINT ( 'NONE',  ( 0.9999999999999986700, 10.00000000000000200, 0.0000000000000000000 ) ) ;
#222 = AXIS2_PLACEMENT_3D ( 'NONE', #58, #128, #195 ) ;
#223 = CYLINDRICAL_SURFACE ( 'NONE', #9, 10.00000000000000200 ) ;
#224 = CIRCLE ( 'NONE', #190, 10.00000000000000200 ) ;
#225 = CALENDAR_DATE ( 2023, 8, 6 ) ;
#226 = SECURITY_CLASSIFICATION ( '', '', #5 ) ;
#227 = CARTESIAN_POINT ( 'NONE',  ( 1.000000000000000000, 0.0000000000000000000, 0.0000000000000000000 ) ) ;
#228 = DIRECTION ( 'NONE',  ( -1.301042606982605300E-016, 1.000000000000000000, 0.0000000000000000000 ) ) ;
#229 = CARTESIAN_POINT ( 'NONE',  ( 0.9999999999999981100, 10.00000000000000000, 0.0000000000000000000 ) ) ;
#230 = CARTESIAN_POINT ( 'NONE',  ( 0.9999999999999997800, 0.0000000000000000000, 0.0000000000000000000 ) ) ;
#231 = PLANE ( 'NONE',  #74 ) ;
#232 = EDGE_LOOP ( 'NONE', ( #260, #110, #112, #181 ) ) ;
#233 = PERSON_AND_ORGANIZATION ( #30, #28 ) ;
#234 = AXIS2_PLACEMENT_3D ( 'NONE', #106, #272, #131 ) ;
#235 = ORIENTED_EDGE ( 'NONE', *, *, #139, .F. ) ;
#236 = ADVANCED_FACE ( 'NONE', ( #151 ), #304, .F. ) ;
#237 = CARTESIAN_POINT ( 'NONE',  ( 1.000000000000000000, 0.0000000000000000000, 0.0000000000000000000 ) ) ;
#238 = ADVANCED_FACE ( 'NONE', ( #285 ), #136, .T. ) ;
#239 = EDGE_LOOP ( 'NONE', ( #235, #211, #312, #242 ) ) ;
#240 = AXIS2_PLACEMENT_3D ( 'NONE', #296, #29, #168 ) ;
#241 = CYLINDRICAL_SURFACE ( 'NONE', #240, 10.00000000000000700 ) ;
#242 = ORIENTED_EDGE ( 'NONE', *, *, #98, .F. ) ;
#243 = CC_DESIGN_PERSON_AND_ORGANIZATION_ASSIGNMENT ( #23, #22, ( #226 ) ) ;
#244 =( NAMED_UNIT ( * ) SI_UNIT ( $, .STERADIAN. ) SOLID_ANGLE_UNIT ( ) );
#245 = PERSON_AND_ORGANIZATION_ROLE ( 'creator' ) ;
#246 = CARTESIAN_POINT ( 'NONE',  ( -60.70000000000001000, 9.999999999999994700, 0.0000000000000000000 ) ) ;
#247 = VERTEX_POINT ( 'NONE', #279 ) ;
#248 = CARTESIAN_POINT ( 'NONE',  ( 0.9999999999999985600, -1.958540663306439000E-031, 0.0000000000000000000 ) ) ;
#249 = VECTOR ( 'NONE', #4, 1000.000000000000000 ) ;
#250 = VERTEX_POINT ( 'NONE', #133 ) ;
#251 = AXIS2_PLACEMENT_3D ( 'NONE', #252, #87, #284 ) ;
#252 = CARTESIAN_POINT ( 'NONE',  ( -61.00000000000001400, -7.700381635133370700E-015, 0.0000000000000000000 ) ) ;
#253 = DIRECTION ( 'NONE',  ( -1.241997037924736800E-016, 1.000000000000000000, 0.0000000000000000000 ) ) ;
#254 = ORIENTED_EDGE ( 'NONE', *, *, #98, .T. ) ;
#255 = DIRECTION ( 'NONE',  ( 0.0000000000000000000, 0.0000000000000000000, 1.000000000000000000 ) ) ;
#256 = DIRECTION ( 'NONE',  ( -1.000000000000000000, 0.0000000000000000000, -0.0000000000000000000 ) ) ;
#257 = AXIS2_PLACEMENT_3D ( 'NONE', #47, #212, #72 ) ;
#258 = APPROVAL_DATE_TIME ( #8, #278 ) ;
#259 = CC_DESIGN_DATE_AND_TIME_ASSIGNMENT ( #80, #188, ( #226 ) ) ;
#260 = ORIENTED_EDGE ( 'NONE', *, *, #78, .F. ) ;
#261 = EDGE_CURVE ( 'NONE', #247, #89, #265, .T. ) ;
#262 = ADVANCED_FACE ( 'NONE', ( #83 ), #178, .T. ) ;
#263 = CARTESIAN_POINT ( 'NONE',  ( -61.00000000000002100, -7.700381635133370700E-015, 0.0000000000000000000 ) ) ;
#264 = APPROVAL_PERSON_ORGANIZATION ( #15, #278, #213 ) ;
#265 = CIRCLE ( 'NONE', #198, 10.00000000000000000 ) ;
#266 = AXIS2_PLACEMENT_3D ( 'NONE', #248, #107, #275 ) ;
#267 = ORIENTED_EDGE ( 'NONE', *, *, #115, .F. ) ;
#268 = APPLICATION_PROTOCOL_DEFINITION ( 'international standard', 'config_control_design', 1994, #295 ) ;
#269 = DIRECTION ( 'NONE',  ( 0.0000000000000000000, 1.000000000000000000, 0.0000000000000000000 ) ) ;
#270 = APPROVAL_STATUS ( 'not_yet_approved' ) ;
#271 = CARTESIAN_POINT ( 'NONE',  ( -61.00000000000002100, 9.699999999999992200, 0.0000000000000000000 ) ) ;
#272 = DIRECTION ( 'NONE',  ( 1.000000000000000000, 1.241997037924736800E-016, -0.0000000000000000000 ) ) ;
#273 = COORDINATED_UNIVERSAL_TIME_OFFSET ( 9, 0, .AHEAD. ) ;
#274 = AXIS2_PLACEMENT_3D ( 'NONE', #170, #148, #32 ) ;
#275 = DIRECTION ( 'NONE',  ( -1.301042606982605300E-016, 1.000000000000000000, 0.0000000000000000000 ) ) ;
#276 = CONICAL_SURFACE ( 'NONE', #60, 10.00000000000000200, 0.7853981633974396200 ) ;
#277 = APPROVAL_PERSON_ORGANIZATION ( #26, #160, #127 ) ;
#278 = APPROVAL ( #50, 'UNSPECIFIED' ) ;
#279 = CARTESIAN_POINT ( 'NONE',  ( 0.9999999999999997800, -10.00000000000000000, 1.224646799147353300E-015 ) ) ;
#280 = CARTESIAN_POINT ( 'NONE',  ( 79.00000000000000000, 0.0000000000000000000, 10.00000000000001400 ) ) ;
#281 = PERSON_AND_ORGANIZATION ( #30, #28 ) ;
#282 = ORIENTED_EDGE ( 'NONE', *, *, #172, .T. ) ;
#283 = EDGE_CURVE ( 'NONE', #250, #45, #17, .T. ) ;
#284 = DIRECTION ( 'NONE',  ( 1.241997037924736800E-016, -1.000000000000000000, 0.0000000000000000000 ) ) ;
#285 = FACE_OUTER_BOUND ( 'NONE', #184, .T. ) ;
#286 =( GEOMETRIC_REPRESENTATION_CONTEXT ( 3 ) GLOBAL_UNCERTAINTY_ASSIGNED_CONTEXT ( ( #16 ) ) GLOBAL_UNIT_ASSIGNED_CONTEXT ( ( #81, #39, #244 ) ) REPRESENTATION_CONTEXT ( 'NONE', 'WORKASPACE' ) );
#287 = COORDINATED_UNIVERSAL_TIME_OFFSET ( 9, 0, .AHEAD. ) ;
#288 = DIRECTION ( 'NONE',  ( 0.0000000000000000000, 1.000000000000000000, 0.0000000000000000000 ) ) ;
#289 = CARTESIAN_POINT ( 'NONE',  ( 79.00000000000000000, 1.224646799147354800E-015, -10.00000000000001400 ) ) ;
#290 = AXIS2_PLACEMENT_3D ( 'NONE', #134, #305, #155 ) ;
#291 = CIRCLE ( 'NONE', #307, 10.00000000000000000 ) ;
#292 = FACE_OUTER_BOUND ( 'NONE', #239, .T. ) ;
#293 = LOCAL_TIME ( 9, 26, 46.00000000000000000, #44 ) ;
#294 = CC_DESIGN_APPROVAL ( #278, ( #226 ) ) ;
#295 = APPLICATION_CONTEXT ( 'configuration controlled 3d designs of mechanical parts and assemblies' ) ;
#296 = CARTESIAN_POINT ( 'NONE',  ( 0.0000000000000000000, 0.0000000000000000000, 0.0000000000000000000 ) ) ;
#297 = PERSON_AND_ORGANIZATION_ROLE ( 'creator' ) ;
#298 = EDGE_CURVE ( 'NONE', #309, #89, #75, .T. ) ;
#299 = EDGE_LOOP ( 'NONE', ( #220, #129 ) ) ;
#300 = CARTESIAN_POINT ( 'NONE',  ( 0.9999999999999997800, 0.0000000000000000000, 10.00000000000000000 ) ) ;
#301 = VERTEX_POINT ( 'NONE', #79 ) ;
#302 = LINE ( 'NONE', #51, #42 ) ;
#303 = VERTEX_POINT ( 'NONE', #300 ) ;
#304 = PLANE ( 'NONE',  #185 ) ;
#305 = DIRECTION ( 'NONE',  ( -1.000000000000000000, -0.0000000000000000000, -0.0000000000000000000 ) ) ;
#306 = ORIENTED_EDGE ( 'NONE', *, *, #139, .T. ) ;
#307 = AXIS2_PLACEMENT_3D ( 'NONE', #230, #90, #255 ) ;
#308 = CYLINDRICAL_SURFACE ( 'NONE', #274, 10.00000000000000700 ) ;
#309 = VERTEX_POINT ( 'NONE', #33 ) ;
#310 = CC_DESIGN_SECURITY_CLASSIFICATION ( #226, ( #142 ) ) ;
#311 = EDGE_CURVE ( 'NONE', #89, #247, #199, .T. ) ;
#312 = ORIENTED_EDGE ( 'NONE', *, *, #156, .T. ) ;
#313 = DIRECTION ( 'NONE',  ( 1.000000000000000000, 1.241997037924736800E-016, -0.0000000000000000000 ) ) ;
ENDSEC;
END-ISO-10303-21;
