ISO-10303-21;
HEADER;
FILE_DESCRIPTION (( 'STEP AP203' ),
    '1' );
FILE_NAME ('03-3009.STEP',
    '2023-06-08T00:26:58',
    ( 'USER' ),
    ( 'Hewlett-Packard Company' ),
    'SwSTEP 2.0',
    'SolidWorks 2014',
    '' );
FILE_SCHEMA (( 'CONFIG_CONTROL_DESIGN' ));
ENDSEC;

DATA;
#1 = EDGE_CURVE ( 'NONE', #93, #200, #189, .T. ) ;
#2 = EDGE_LOOP ( 'NONE', ( #177, #99, #135, #198 ) ) ;
#3 =( NAMED_UNIT ( * ) SI_UNIT ( $, .STERADIAN. ) SOLID_ANGLE_UNIT ( ) );
#4 = EDGE_CURVE ( 'NONE', #10, #224, #312, .T. ) ;
#5 = APPROVAL_ROLE ( '' ) ;
#6 = PERSON_AND_ORGANIZATION_ROLE ( 'creator' ) ;
#7 = SECURITY_CLASSIFICATION ( '', '', #199 ) ;
#8 = AXIS2_PLACEMENT_3D ( 'NONE', #146, #311, #174 ) ;
#9 = DIRECTION ( 'NONE',  ( -1.000000000000000000, -0.0000000000000000000, -0.0000000000000000000 ) ) ;
#10 = VERTEX_POINT ( 'NONE', #209 ) ;
#11 = DATE_AND_TIME ( #80, #141 ) ;
#12 = DIRECTION ( 'NONE',  ( 0.7071067811865252600, -0.7071067811865698900, 8.659560562355209000E-017 ) ) ;
#13 = CARTESIAN_POINT ( 'NONE',  ( -91.40000000000003400, 12.49999999999999100, 0.0000000000000000000 ) ) ;
#14 = DIRECTION ( 'NONE',  ( 0.0000000000000000000, 0.0000000000000000000, 1.000000000000000000 ) ) ;
#15 = DIRECTION ( 'NONE',  ( -1.000000000000000000, 0.0000000000000000000, -0.0000000000000000000 ) ) ;
#16 = AXIS2_PLACEMENT_3D ( 'NONE', #264, #131, #291 ) ;
#17 = DIRECTION ( 'NONE',  ( -1.227423181195838500E-016, 1.000000000000000000, 0.0000000000000000000 ) ) ;
#18 = EDGE_LOOP ( 'NONE', ( #212, #51, #123, #151 ) ) ;
#19 = APPROVAL_DATE_TIME ( #85, #179 ) ;
#20 = EDGE_CURVE ( 'NONE', #200, #93, #249, .T. ) ;
#21 = ORIENTED_EDGE ( 'NONE', *, *, #60, .F. ) ;
#22 = CC_DESIGN_PERSON_AND_ORGANIZATION_ASSIGNMENT ( #50, #63, ( #7 ) ) ;
#23 = ADVANCED_FACE ( 'NONE', ( #67 ), #235, .T. ) ;
#24 = ORIENTED_EDGE ( 'NONE', *, *, #190, .F. ) ;
#25 = APPROVAL_PERSON_ORGANIZATION ( #227, #179, #150 ) ;
#26 = PRODUCT_DEFINITION_SHAPE ( 'NONE', 'NONE',  #308 ) ;
#27 = CARTESIAN_POINT ( 'NONE',  ( 78.29999999999998300, 1.530808498934193100E-015, -12.50000000000001200 ) ) ;
#28 = UNCERTAINTY_MEASURE_WITH_UNIT (LENGTH_MEASURE( 1.000000000000000100E-005 ), #295, 'distance_accuracy_value', 'NONE');
#29 = DATE_AND_TIME ( #96, #158 ) ;
#30 = APPLICATION_PROTOCOL_DEFINITION ( 'international standard', 'config_control_design', 1994, #62 ) ;
#31 = VECTOR ( 'NONE', #12, 999.9999999999998900 ) ;
#32 = PERSON_AND_ORGANIZATION_ROLE ( 'design_supplier' ) ;
#33 = EDGE_LOOP ( 'NONE', ( #207, #234, #155, #21 ) ) ;
#34 = PERSON ( 'UNSPECIFIED', 'UNSPECIFIED', 'UNSPECIFIED', ('UNSPECIFIED'), ('UNSPECIFIED'), ('UNSPECIFIED') ) ;
#35 = CARTESIAN_POINT ( 'NONE',  ( 0.0000000000000000000, 1.530808498934192300E-015, -12.50000000000000700 ) ) ;
#36 = CIRCLE ( 'NONE', #294, 12.20000000000000300 ) ;
#37 = EDGE_CURVE ( 'NONE', #93, #111, #300, .T. ) ;
#38 = DIRECTION ( 'NONE',  ( 1.000000000000000000, 1.227423181195838500E-016, -0.0000000000000000000 ) ) ;
#39 = PERSON_AND_ORGANIZATION ( #34, #49 ) ;
#40 = CARTESIAN_POINT ( 'NONE',  ( 0.3000000000000003800, 3.122502256758263200E-017, 0.0000000000000000000 ) ) ;
#41 = ORIENTED_EDGE ( 'NONE', *, *, #301, .T. ) ;
#42 = VECTOR ( 'NONE', #89, 1000.000000000000000 ) ;
#43 = ORIENTED_EDGE ( 'NONE', *, *, #237, .F. ) ;
#44 = CC_DESIGN_DATE_AND_TIME_ASSIGNMENT ( #106, #225, ( #7 ) ) ;
#45 = AXIS2_PLACEMENT_3D ( 'NONE', #59, #105, #197 ) ;
#46 = VERTEX_POINT ( 'NONE', #192 ) ;
#47 = CIRCLE ( 'NONE', #258, 12.50000000000000000 ) ;
#48 = PRODUCT_RELATED_PRODUCT_CATEGORY ( 'detail', '', ( #148 ) ) ;
#49 = ORGANIZATION ( 'UNSPECIFIED', 'UNSPECIFIED', '' ) ;
#50 = PERSON_AND_ORGANIZATION ( #34, #49 ) ;
#51 = ORIENTED_EDGE ( 'NONE', *, *, #1, .T. ) ;
#52 = VECTOR ( 'NONE', #38, 1000.000000000000000 ) ;
#53 = ORIENTED_EDGE ( 'NONE', *, *, #202, .F. ) ;
#54 = ADVANCED_FACE ( 'NONE', ( #184 ), #115, .T. ) ;
#55 = CARTESIAN_POINT ( 'NONE',  ( 0.2999999999999981000, 1.224646799147353200E-016, 0.0000000000000000000 ) ) ;
#56 = ORIENTED_EDGE ( 'NONE', *, *, #156, .T. ) ;
#57 = CIRCLE ( 'NONE', #165, 12.50000000000000000 ) ;
#58 = DIRECTION ( 'NONE',  ( -1.000000000000000000, -0.0000000000000000000, -0.0000000000000000000 ) ) ;
#59 = CARTESIAN_POINT ( 'NONE',  ( 0.2999999999999981000, 1.224646799147353200E-016, 0.0000000000000000000 ) ) ;
#60 = EDGE_CURVE ( 'NONE', #200, #84, #173, .T. ) ;
#61 = FACE_OUTER_BOUND ( 'NONE', #2, .T. ) ;
#62 = APPLICATION_CONTEXT ( 'configuration controlled 3d designs of mechanical parts and assemblies' ) ;
#63 = PERSON_AND_ORGANIZATION_ROLE ( 'classification_officer' ) ;
#64 = DIRECTION ( 'NONE',  ( 1.000000000000000000, 1.227423181195838500E-016, -0.0000000000000000000 ) ) ;
#65 = APPROVAL ( #82, 'UNSPECIFIED' ) ;
#66 = AXIS2_PLACEMENT_3D ( 'NONE', #205, #70, #288 ) ;
#67 = FACE_OUTER_BOUND ( 'NONE', #167, .T. ) ;
#68 = DIRECTION ( 'NONE',  ( 1.000000000000000000, 1.227423181195838500E-016, -0.0000000000000000000 ) ) ;
#69 = PLANE ( 'NONE',  #76 ) ;
#70 = DIRECTION ( 'NONE',  ( 1.000000000000000000, 1.227423181195838500E-016, -0.0000000000000000000 ) ) ;
#71 = EDGE_LOOP ( 'NONE', ( #285, #78, #142, #296 ) ) ;
#72 = LOCAL_TIME ( 9, 26, 58.00000000000000000, #136 ) ;
#73 = EDGE_CURVE ( 'NONE', #84, #111, #57, .T. ) ;
#74 = CARTESIAN_POINT ( 'NONE',  ( 0.0000000000000000000, 0.0000000000000000000, 12.50000000000000700 ) ) ;
#75 = CC_DESIGN_APPROVAL ( #65, ( #7 ) ) ;
#76 = AXIS2_PLACEMENT_3D ( 'NONE', #120, #274, #139 ) ;
#77 = DIRECTION ( 'NONE',  ( 1.000000000000000000, 1.227423181195838500E-016, -0.0000000000000000000 ) ) ;
#78 = ORIENTED_EDGE ( 'NONE', *, *, #175, .T. ) ;
#79 = CARTESIAN_POINT ( 'NONE',  ( 0.2999999999999997100, 1.530808498934191900E-015, -12.50000000000000000 ) ) ;
#80 = CALENDAR_DATE ( 2023, 8, 6 ) ;
#81 = DIRECTION ( 'NONE',  ( 1.000000000000000000, 0.0000000000000000000, 0.0000000000000000000 ) ) ;
#82 = APPROVAL_STATUS ( 'not_yet_approved' ) ;
#83 = CARTESIAN_POINT ( 'NONE',  ( -91.40000000000003400, -1.113300589165110900E-014, 0.0000000000000000000 ) ) ;
#84 = VERTEX_POINT ( 'NONE', #242 ) ;
#85 = DATE_AND_TIME ( #145, #208 ) ;
#86 = ADVANCED_BREP_SHAPE_REPRESENTATION ( '03-3009', ( #92, #153, #217 ), #154 ) ;
#87 = DIRECTION ( 'NONE',  ( 0.0000000000000000000, 0.0000000000000000000, 1.000000000000000000 ) ) ;
#88 = AXIS2_PLACEMENT_3D ( 'NONE', #181, #133, #297 ) ;
#89 = DIRECTION ( 'NONE',  ( 0.7071067811865249200, 0.7071067811865701100, 0.0000000000000000000 ) ) ;
#90 = DIRECTION ( 'NONE',  ( 1.000000000000000000, 0.0000000000000000000, 0.0000000000000000000 ) ) ;
#91 = CARTESIAN_POINT ( 'NONE',  ( 0.2999999999999981000, 1.224646799147353200E-016, 0.0000000000000000000 ) ) ;
#92 = MANIFOLD_SOLID_BREP ( 'È¸Àü3', #259 ) ;
#93 = VERTEX_POINT ( 'NONE', #27 ) ;
#94 = CC_DESIGN_SECURITY_CLASSIFICATION ( #7, ( #240 ) ) ;
#95 = AXIS2_PLACEMENT_3D ( 'NONE', #253, #159, #251 ) ;
#96 = CALENDAR_DATE ( 2023, 8, 6 ) ;
#97 = LINE ( 'NONE', #116, #31 ) ;
#98 = VERTEX_POINT ( 'NONE', #100 ) ;
#99 = ORIENTED_EDGE ( 'NONE', *, *, #4, .T. ) ;
#100 = CARTESIAN_POINT ( 'NONE',  ( -91.70000000000001700, 12.19999999999999200, 0.0000000000000000000 ) ) ;
#101 = ADVANCED_FACE ( 'NONE', ( #226 ), #310, .F. ) ;
#102 = CARTESIAN_POINT ( 'NONE',  ( -91.70000000000001700, -1.116982858708698000E-014, 0.0000000000000000000 ) ) ;
#103 = CLOSED_SHELL ( 'NONE', ( #23, #54, #241, #143, #214, #260 ) ) ;
#104 = FACE_OUTER_BOUND ( 'NONE', #108, .T. ) ;
#105 = DIRECTION ( 'NONE',  ( 1.000000000000000000, 1.227423181195838500E-016, -0.0000000000000000000 ) ) ;
#106 = DATE_AND_TIME ( #164, #229 ) ;
#107 = AXIS2_PLACEMENT_3D ( 'NONE', #83, #248, #112 ) ;
#108 = EDGE_LOOP ( 'NONE', ( #279, #56 ) ) ;
#109 = LINE ( 'NONE', #302, #42 ) ;
#110 = PERSON_AND_ORGANIZATION_ROLE ( 'design_owner' ) ;
#111 = VERTEX_POINT ( 'NONE', #79 ) ;
#112 = DIRECTION ( 'NONE',  ( 0.0000000000000000000, 1.000000000000000000, 0.0000000000000000000 ) ) ;
#113 = AXIS2_PLACEMENT_3D ( 'NONE', #203, #68, #228 ) ;
#114 = ORIENTED_EDGE ( 'NONE', *, *, #265, .F. ) ;
#115 = CYLINDRICAL_SURFACE ( 'NONE', #186, 12.50000000000000000 ) ;
#116 = CARTESIAN_POINT ( 'NONE',  ( -91.40000000000003400, -12.50000000000001100, 1.530808498934191500E-015 ) ) ;
#117 = SHAPE_DEFINITION_REPRESENTATION ( #26, #86 ) ;
#118 = CARTESIAN_POINT ( 'NONE',  ( 0.0000000000000000000, 0.0000000000000000000, 0.0000000000000000000 ) ) ;
#119 = PERSON_AND_ORGANIZATION ( #34, #49 ) ;
#120 = CARTESIAN_POINT ( 'NONE',  ( -91.70000000000003100, -1.116982858708698300E-014, 0.0000000000000000000 ) ) ;
#121 = EDGE_LOOP ( 'NONE', ( #114, #211 ) ) ;
#122 = FACE_OUTER_BOUND ( 'NONE', #121, .T. ) ;
#123 = ORIENTED_EDGE ( 'NONE', *, *, #60, .T. ) ;
#124 = VECTOR ( 'NONE', #270, 1000.000000000000000 ) ;
#125 = AXIS2_PLACEMENT_3D ( 'NONE', #152, #9, #182 ) ;
#126 = ADVANCED_FACE ( 'NONE', ( #289 ), #231, .F. ) ;
#127 = DESIGN_CONTEXT ( 'detailed design', #268, 'design' ) ;
#128 = AXIS2_PLACEMENT_3D ( 'NONE', #303, #157, #14 ) ;
#129 = DIRECTION ( 'NONE',  ( 0.0000000000000000000, 1.000000000000000000, 0.0000000000000000000 ) ) ;
#130 = VECTOR ( 'NONE', #77, 1000.000000000000000 ) ;
#131 = DIRECTION ( 'NONE',  ( 1.000000000000000000, 1.227423181195838500E-016, -0.0000000000000000000 ) ) ;
#132 = CYLINDRICAL_SURFACE ( 'NONE', #172, 12.50000000000000700 ) ;
#133 = DIRECTION ( 'NONE',  ( -1.000000000000000000, -0.0000000000000000000, -0.0000000000000000000 ) ) ;
#134 = APPLICATION_PROTOCOL_DEFINITION ( 'international standard', 'config_control_design', 1994, #268 ) ;
#135 = ORIENTED_EDGE ( 'NONE', *, *, #190, .T. ) ;
#136 = COORDINATED_UNIVERSAL_TIME_OFFSET ( 9, 0, .AHEAD. ) ;
#137 = DATE_TIME_ROLE ( 'creation_date' ) ;
#138 = AXIS2_PLACEMENT_3D ( 'NONE', #267, #64, #299 ) ;
#139 = DIRECTION ( 'NONE',  ( 1.227423181195838500E-016, -1.000000000000000000, 0.0000000000000000000 ) ) ;
#140 = ORIENTED_EDGE ( 'NONE', *, *, #252, .T. ) ;
#141 = LOCAL_TIME ( 9, 26, 58.00000000000000000, #201 ) ;
#142 = ORIENTED_EDGE ( 'NONE', *, *, #237, .T. ) ;
#143 = ADVANCED_FACE ( 'NONE', ( #104 ), #305, .T. ) ;
#144 = EDGE_LOOP ( 'NONE', ( #183, #243 ) ) ;
#145 = CALENDAR_DATE ( 2023, 8, 6 ) ;
#146 = CARTESIAN_POINT ( 'NONE',  ( 0.0000000000000000000, 0.0000000000000000000, 0.0000000000000000000 ) ) ;
#147 =( NAMED_UNIT ( * ) PLANE_ANGLE_UNIT ( ) SI_UNIT ( $, .RADIAN. ) );
#148 = PRODUCT ( '03-3009', '03-3009', '', ( #246 ) ) ;
#149 = APPROVAL_STATUS ( 'not_yet_approved' ) ;
#150 = APPROVAL_ROLE ( '' ) ;
#151 = ORIENTED_EDGE ( 'NONE', *, *, #301, .F. ) ;
#152 = CARTESIAN_POINT ( 'NONE',  ( 78.29999999999998300, 0.0000000000000000000, 0.0000000000000000000 ) ) ;
#153 = MANIFOLD_SOLID_BREP ( 'È¸Àü4', #103 ) ;
#154 =( GEOMETRIC_REPRESENTATION_CONTEXT ( 3 ) GLOBAL_UNCERTAINTY_ASSIGNED_CONTEXT ( ( #28 ) ) GLOBAL_UNIT_ASSIGNED_CONTEXT ( ( #295, #147, #3 ) ) REPRESENTATION_CONTEXT ( 'NONE', 'WORKASPACE' ) );
#155 = ORIENTED_EDGE ( 'NONE', *, *, #73, .F. ) ;
#156 = EDGE_CURVE ( 'NONE', #46, #261, #47, .T. ) ;
#157 = DIRECTION ( 'NONE',  ( -1.000000000000000000, -0.0000000000000000000, -0.0000000000000000000 ) ) ;
#158 = LOCAL_TIME ( 9, 26, 58.00000000000000000, #220 ) ;
#159 = DIRECTION ( 'NONE',  ( 1.000000000000000000, 1.227423181195838500E-016, -0.0000000000000000000 ) ) ;
#160 = DIRECTION ( 'NONE',  ( 1.000000000000000000, 1.227423181195838500E-016, -0.0000000000000000000 ) ) ;
#161 = FACE_OUTER_BOUND ( 'NONE', #71, .T. ) ;
#162 = ORIENTED_EDGE ( 'NONE', *, *, #265, .T. ) ;
#163 = CONICAL_SURFACE ( 'NONE', #95, 12.50000000000000000, 0.7853981633974801400 ) ;
#164 = CALENDAR_DATE ( 2023, 8, 6 ) ;
#165 = AXIS2_PLACEMENT_3D ( 'NONE', #194, #58, #216 ) ;
#166 = CIRCLE ( 'NONE', #66, 12.50000000000000000 ) ;
#167 = EDGE_LOOP ( 'NONE', ( #162, #195, #266, #43 ) ) ;
#168 = EDGE_LOOP ( 'NONE', ( #140, #204, #53, #24 ) ) ;
#169 = DIRECTION ( 'NONE',  ( 1.000000000000000000, 1.227423181195838500E-016, -0.0000000000000000000 ) ) ;
#170 = DIRECTION ( 'NONE',  ( 1.000000000000000000, 1.227423181195838500E-016, -0.0000000000000000000 ) ) ;
#171 = EDGE_LOOP ( 'NONE', ( #280, #41 ) ) ;
#172 = AXIS2_PLACEMENT_3D ( 'NONE', #118, #273, #87 ) ;
#173 = LINE ( 'NONE', #74, #307 ) ;
#174 = DIRECTION ( 'NONE',  ( 0.0000000000000000000, 0.0000000000000000000, 1.000000000000000000 ) ) ;
#175 = EDGE_CURVE ( 'NONE', #256, #98, #36, .T. ) ;
#176 = PERSON_AND_ORGANIZATION ( #34, #49 ) ;
#177 = ORIENTED_EDGE ( 'NONE', *, *, #219, .F. ) ;
#178 = LINE ( 'NONE', #185, #52 ) ;
#179 = APPROVAL ( #298, 'UNSPECIFIED' ) ;
#180 = PERSON_AND_ORGANIZATION_ROLE ( 'creator' ) ;
#181 = CARTESIAN_POINT ( 'NONE',  ( 78.29999999999998300, 0.0000000000000000000, 0.0000000000000000000 ) ) ;
#182 = DIRECTION ( 'NONE',  ( 0.0000000000000000000, 0.0000000000000000000, 1.000000000000000000 ) ) ;
#183 = ORIENTED_EDGE ( 'NONE', *, *, #20, .F. ) ;
#184 = FACE_OUTER_BOUND ( 'NONE', #168, .T. ) ;
#185 = CARTESIAN_POINT ( 'NONE',  ( 0.2999999999999996000, -12.50000000000000000, 1.530808498934191500E-015 ) ) ;
#186 = AXIS2_PLACEMENT_3D ( 'NONE', #55, #169, #213 ) ;
#187 = DIRECTION ( 'NONE',  ( -0.0000000000000000000, 0.0000000000000000000, 1.000000000000000000 ) ) ;
#188 = CARTESIAN_POINT ( 'NONE',  ( 0.0000000000000000000, 0.0000000000000000000, 0.0000000000000000000 ) ) ;
#189 = CIRCLE ( 'NONE', #88, 12.50000000000001400 ) ;
#190 = EDGE_CURVE ( 'NONE', #224, #261, #244, .T. ) ;
#191 = CC_DESIGN_APPROVAL ( #179, ( #308 ) ) ;
#192 = CARTESIAN_POINT ( 'NONE',  ( 0.2999999999999996000, -12.50000000000000000, 1.530808498934191500E-015 ) ) ;
#193 = ADVANCED_FACE ( 'NONE', ( #304 ), #281, .T. ) ;
#194 = CARTESIAN_POINT ( 'NONE',  ( 0.2999999999999997100, 0.0000000000000000000, 0.0000000000000000000 ) ) ;
#195 = ORIENTED_EDGE ( 'NONE', *, *, #282, .T. ) ;
#196 = APPROVAL_PERSON_ORGANIZATION ( #257, #255, #5 ) ;
#197 = DIRECTION ( 'NONE',  ( -1.214306433183765000E-016, 1.000000000000000000, 0.0000000000000000000 ) ) ;
#198 = ORIENTED_EDGE ( 'NONE', *, *, #156, .F. ) ;
#199 = SECURITY_CLASSIFICATION_LEVEL ( 'unclassified' ) ;
#200 = VERTEX_POINT ( 'NONE', #218 ) ;
#201 = COORDINATED_UNIVERSAL_TIME_OFFSET ( 9, 0, .AHEAD. ) ;
#202 = EDGE_CURVE ( 'NONE', #261, #46, #239, .T. ) ;
#203 = CARTESIAN_POINT ( 'NONE',  ( -91.70000000000001700, -1.116982858708698000E-014, 0.0000000000000000000 ) ) ;
#204 = ORIENTED_EDGE ( 'NONE', *, *, #219, .T. ) ;
#205 = CARTESIAN_POINT ( 'NONE',  ( -91.40000000000003400, -1.113300589165110900E-014, 0.0000000000000000000 ) ) ;
#206 = CC_DESIGN_PERSON_AND_ORGANIZATION_ASSIGNMENT ( #262, #6, ( #308 ) ) ;
#207 = ORIENTED_EDGE ( 'NONE', *, *, #20, .T. ) ;
#208 = LOCAL_TIME ( 9, 26, 58.00000000000000000, #271 ) ;
#209 = CARTESIAN_POINT ( 'NONE',  ( -91.40000000000003400, -12.50000000000001100, 1.530808498934192300E-015 ) ) ;
#210 = AXIS2_PLACEMENT_3D ( 'NONE', #290, #15, #187 ) ;
#211 = ORIENTED_EDGE ( 'NONE', *, *, #175, .F. ) ;
#212 = ORIENTED_EDGE ( 'NONE', *, *, #37, .F. ) ;
#213 = DIRECTION ( 'NONE',  ( -1.214306433183765000E-016, 1.000000000000000000, 0.0000000000000000000 ) ) ;
#214 = ADVANCED_FACE ( 'NONE', ( #61 ), #232, .T. ) ;
#215 = DIRECTION ( 'NONE',  ( -1.214306433183765000E-016, 1.000000000000000000, 0.0000000000000000000 ) ) ;
#216 = DIRECTION ( 'NONE',  ( 0.0000000000000000000, 0.0000000000000000000, 1.000000000000000000 ) ) ;
#217 = AXIS2_PLACEMENT_3D ( 'NONE', #188, #221, #81 ) ;
#218 = CARTESIAN_POINT ( 'NONE',  ( 78.29999999999998300, 0.0000000000000000000, 12.50000000000001400 ) ) ;
#219 = EDGE_CURVE ( 'NONE', #10, #46, #178, .T. ) ;
#220 = COORDINATED_UNIVERSAL_TIME_OFFSET ( 9, 0, .AHEAD. ) ;
#221 = DIRECTION ( 'NONE',  ( 0.0000000000000000000, 0.0000000000000000000, 1.000000000000000000 ) ) ;
#222 = CIRCLE ( 'NONE', #113, 12.20000000000000300 ) ;
#223 = CC_DESIGN_DATE_AND_TIME_ASSIGNMENT ( #11, #137, ( #308 ) ) ;
#224 = VERTEX_POINT ( 'NONE', #13 ) ;
#225 = DATE_TIME_ROLE ( 'classification_date' ) ;
#226 = FACE_OUTER_BOUND ( 'NONE', #144, .T. ) ;
#227 = PERSON_AND_ORGANIZATION ( #34, #49 ) ;
#228 = DIRECTION ( 'NONE',  ( 0.0000000000000000000, 1.000000000000000000, 0.0000000000000000000 ) ) ;
#229 = LOCAL_TIME ( 9, 26, 58.00000000000000000, #293 ) ;
#230 = CARTESIAN_POINT ( 'NONE',  ( -91.70000000000001700, -12.20000000000001400, 1.512438796946981500E-015 ) ) ;
#231 = PLANE ( 'NONE',  #245 ) ;
#232 = CYLINDRICAL_SURFACE ( 'NONE', #45, 12.50000000000000000 ) ;
#233 = CARTESIAN_POINT ( 'NONE',  ( 0.2999999999999965500, 12.50000000000000000, 0.0000000000000000000 ) ) ;
#234 = ORIENTED_EDGE ( 'NONE', *, *, #37, .T. ) ;
#235 = CONICAL_SURFACE ( 'NONE', #138, 12.50000000000000000, 0.7853981633974801400 ) ;
#236 = CC_DESIGN_PERSON_AND_ORGANIZATION_ASSIGNMENT ( #292, #110, ( #148 ) ) ;
#237 = EDGE_CURVE ( 'NONE', #98, #224, #109, .T. ) ;
#238 = APPROVAL_DATE_TIME ( #250, #255 ) ;
#239 = CIRCLE ( 'NONE', #16, 12.50000000000000000 ) ;
#240 = PRODUCT_DEFINITION_FORMATION_WITH_SPECIFIED_SOURCE ( 'ANY', '', #148, .NOT_KNOWN. ) ;
#241 = ADVANCED_FACE ( 'NONE', ( #122 ), #69, .T. ) ;
#242 = CARTESIAN_POINT ( 'NONE',  ( 0.2999999999999997100, 0.0000000000000000000, 12.50000000000000000 ) ) ;
#243 = ORIENTED_EDGE ( 'NONE', *, *, #1, .F. ) ;
#244 = LINE ( 'NONE', #233, #130 ) ;
#245 = AXIS2_PLACEMENT_3D ( 'NONE', #40, #90, #254 ) ;
#246 = MECHANICAL_CONTEXT ( 'NONE', #62, 'mechanical' ) ;
#247 = APPROVAL_ROLE ( '' ) ;
#248 = DIRECTION ( 'NONE',  ( 1.000000000000000000, 1.227423181195838500E-016, -0.0000000000000000000 ) ) ;
#249 = CIRCLE ( 'NONE', #125, 12.50000000000001400 ) ;
#250 = DATE_AND_TIME ( #313, #72 ) ;
#251 = DIRECTION ( 'NONE',  ( 0.0000000000000000000, 1.000000000000000000, 0.0000000000000000000 ) ) ;
#252 = EDGE_CURVE ( 'NONE', #224, #10, #166, .T. ) ;
#253 = CARTESIAN_POINT ( 'NONE',  ( -91.40000000000003400, -1.113300589165110900E-014, 0.0000000000000000000 ) ) ;
#254 = DIRECTION ( 'NONE',  ( 0.0000000000000000000, 0.0000000000000000000, -1.000000000000000000 ) ) ;
#255 = APPROVAL ( #149, 'UNSPECIFIED' ) ;
#256 = VERTEX_POINT ( 'NONE', #230 ) ;
#257 = PERSON_AND_ORGANIZATION ( #34, #49 ) ;
#258 = AXIS2_PLACEMENT_3D ( 'NONE', #91, #170, #215 ) ;
#259 = CLOSED_SHELL ( 'NONE', ( #193, #309, #126, #101 ) ) ;
#260 = ADVANCED_FACE ( 'NONE', ( #161 ), #163, .T. ) ;
#261 = VERTEX_POINT ( 'NONE', #272 ) ;
#262 = PERSON_AND_ORGANIZATION ( #34, #49 ) ;
#263 = DIRECTION ( 'NONE',  ( 1.000000000000000000, 1.227423181195838500E-016, -0.0000000000000000000 ) ) ;
#264 = CARTESIAN_POINT ( 'NONE',  ( 0.2999999999999981000, 1.224646799147353200E-016, 0.0000000000000000000 ) ) ;
#265 = EDGE_CURVE ( 'NONE', #98, #256, #222, .T. ) ;
#266 = ORIENTED_EDGE ( 'NONE', *, *, #252, .F. ) ;
#267 = CARTESIAN_POINT ( 'NONE',  ( -91.40000000000003400, -1.113300589165110900E-014, 0.0000000000000000000 ) ) ;
#268 = APPLICATION_CONTEXT ( 'configuration controlled 3d designs of mechanical parts and assemblies' ) ;
#269 = CC_DESIGN_APPROVAL ( #255, ( #240 ) ) ;
#270 = DIRECTION ( 'NONE',  ( -1.000000000000000000, -0.0000000000000000000, -0.0000000000000000000 ) ) ;
#271 = COORDINATED_UNIVERSAL_TIME_OFFSET ( 9, 0, .AHEAD. ) ;
#272 = CARTESIAN_POINT ( 'NONE',  ( 0.2999999999999965500, 12.50000000000000000, 0.0000000000000000000 ) ) ;
#273 = DIRECTION ( 'NONE',  ( -1.000000000000000000, -0.0000000000000000000, -0.0000000000000000000 ) ) ;
#274 = DIRECTION ( 'NONE',  ( -1.000000000000000000, -1.227423181195838500E-016, 0.0000000000000000000 ) ) ;
#275 = APPROVAL_DATE_TIME ( #29, #65 ) ;
#276 = AXIS2_PLACEMENT_3D ( 'NONE', #277, #160, #17 ) ;
#277 = CARTESIAN_POINT ( 'NONE',  ( 0.2999999999999965500, 12.50000000000000000, 0.0000000000000000000 ) ) ;
#278 = CIRCLE ( 'NONE', #128, 12.50000000000000000 ) ;
#279 = ORIENTED_EDGE ( 'NONE', *, *, #202, .T. ) ;
#280 = ORIENTED_EDGE ( 'NONE', *, *, #73, .T. ) ;
#281 = CYLINDRICAL_SURFACE ( 'NONE', #8, 12.50000000000000700 ) ;
#282 = EDGE_CURVE ( 'NONE', #256, #10, #97, .T. ) ;
#283 = APPROVAL_PERSON_ORGANIZATION ( #39, #65, #247 ) ;
#284 = FACE_OUTER_BOUND ( 'NONE', #18, .T. ) ;
#285 = ORIENTED_EDGE ( 'NONE', *, *, #282, .F. ) ;
#286 = CC_DESIGN_PERSON_AND_ORGANIZATION_ASSIGNMENT ( #176, #180, ( #240 ) ) ;
#287 = DIRECTION ( 'NONE',  ( -1.000000000000000000, -0.0000000000000000000, -0.0000000000000000000 ) ) ;
#288 = DIRECTION ( 'NONE',  ( 0.0000000000000000000, 1.000000000000000000, 0.0000000000000000000 ) ) ;
#289 = FACE_OUTER_BOUND ( 'NONE', #171, .T. ) ;
#290 = CARTESIAN_POINT ( 'NONE',  ( 78.29999999999998300, 0.0000000000000000000, 0.0000000000000000000 ) ) ;
#291 = DIRECTION ( 'NONE',  ( -1.214306433183765000E-016, 1.000000000000000000, 0.0000000000000000000 ) ) ;
#292 = PERSON_AND_ORGANIZATION ( #34, #49 ) ;
#293 = COORDINATED_UNIVERSAL_TIME_OFFSET ( 9, 0, .AHEAD. ) ;
#294 = AXIS2_PLACEMENT_3D ( 'NONE', #102, #263, #129 ) ;
#295 =( LENGTH_UNIT ( ) NAMED_UNIT ( * ) SI_UNIT ( .MILLI., .METRE. ) );
#296 = ORIENTED_EDGE ( 'NONE', *, *, #4, .F. ) ;
#297 = DIRECTION ( 'NONE',  ( 0.0000000000000000000, 0.0000000000000000000, 1.000000000000000000 ) ) ;
#298 = APPROVAL_STATUS ( 'not_yet_approved' ) ;
#299 = DIRECTION ( 'NONE',  ( 0.0000000000000000000, 1.000000000000000000, 0.0000000000000000000 ) ) ;
#300 = LINE ( 'NONE', #35, #124 ) ;
#301 = EDGE_CURVE ( 'NONE', #111, #84, #278, .T. ) ;
#302 = CARTESIAN_POINT ( 'NONE',  ( -91.40000000000003400, 12.49999999999999100, 0.0000000000000000000 ) ) ;
#303 = CARTESIAN_POINT ( 'NONE',  ( 0.2999999999999997100, 0.0000000000000000000, 0.0000000000000000000 ) ) ;
#304 = FACE_OUTER_BOUND ( 'NONE', #33, .T. ) ;
#305 = PLANE ( 'NONE',  #276 ) ;
#306 = CC_DESIGN_PERSON_AND_ORGANIZATION_ASSIGNMENT ( #119, #32, ( #240 ) ) ;
#307 = VECTOR ( 'NONE', #287, 1000.000000000000000 ) ;
#308 = PRODUCT_DEFINITION ( 'UNKNOWN', '', #240, #127 ) ;
#309 = ADVANCED_FACE ( 'NONE', ( #284 ), #132, .T. ) ;
#310 = PLANE ( 'NONE',  #210 ) ;
#311 = DIRECTION ( 'NONE',  ( -1.000000000000000000, -0.0000000000000000000, -0.0000000000000000000 ) ) ;
#312 = CIRCLE ( 'NONE', #107, 12.50000000000000000 ) ;
#313 = CALENDAR_DATE ( 2023, 8, 6 ) ;
ENDSEC;
END-ISO-10303-21;
