ISO-10303-21;
HEADER;
FILE_DESCRIPTION (( 'STEP AP203' ),
    '1' );
FILE_NAME ('03-3053.STEP',
    '2023-05-30T04:49:13',
    ( 'USER' ),
    ( 'Hewlett-Packard Company' ),
    'SwSTEP 2.0',
    'SolidWorks 2014',
    '' );
FILE_SCHEMA (( 'CONFIG_CONTROL_DESIGN' ));
ENDSEC;

DATA;
#1 = AXIS2_PLACEMENT_3D ( 'NONE', #101, #290, #128 ) ;
#2 = CALENDAR_DATE ( 2023, 30, 5 ) ;
#3 = ORIENTED_EDGE ( 'NONE', *, *, #216, .F. ) ;
#4 = ADVANCED_FACE ( 'NONE', ( #280 ), #7, .F. ) ;
#5 = CARTESIAN_POINT ( 'NONE',  ( 64.50000000000000000, -1.021473597630986900E-013, 0.0000000000000000000 ) ) ;
#6 = ORIENTED_EDGE ( 'NONE', *, *, #237, .T. ) ;
#7 = PLANE ( 'NONE',  #250 ) ;
#8 = EDGE_CURVE ( 'NONE', #246, #292, #62, .T. ) ;
#9 = DATE_AND_TIME ( #88, #160 ) ;
#10 = DIRECTION ( 'NONE',  ( 1.000000000000000000, 6.123233995736766000E-017, -0.0000000000000000000 ) ) ;
#11 = CONICAL_SURFACE ( 'NONE', #347, 9.524999999999995000, 0.7853981633974482800 ) ;
#12 = PRODUCT_DEFINITION ( 'UNKNOWN', '', #112, #47 ) ;
#13 = DIRECTION ( 'NONE',  ( 1.000000000000000000, 6.123233995736766000E-017, -0.0000000000000000000 ) ) ;
#14 = EDGE_LOOP ( 'NONE', ( #138, #103, #66, #71 ) ) ;
#15 = FACE_OUTER_BOUND ( 'NONE', #304, .T. ) ;
#16 = VERTEX_POINT ( 'NONE', #149 ) ;
#17 = CARTESIAN_POINT ( 'NONE',  ( 63.73800000000000000, 0.0000000000000000000, 0.0000000000000000000 ) ) ;
#18 = AXIS2_PLACEMENT_3D ( 'NONE', #105, #294, #133 ) ;
#19 = DIRECTION ( 'NONE',  ( 1.000000000000000000, 6.123233995736766000E-017, -0.0000000000000000000 ) ) ;
#20 = PERSON_AND_ORGANIZATION ( #33, #200 ) ;
#21 = CARTESIAN_POINT ( 'NONE',  ( -62.49999999999998600, -3.827021247335478100E-015, 0.0000000000000000000 ) ) ;
#22 = VECTOR ( 'NONE', #238, 1000.000000000000000 ) ;
#23 = VERTEX_POINT ( 'NONE', #139 ) ;
#24 = DIRECTION ( 'NONE',  ( 0.0000000000000000000, 0.0000000000000000000, -1.000000000000000000 ) ) ;
#25 = DIRECTION ( 'NONE',  ( -6.829619984160658000E-017, 1.000000000000000000, 0.0000000000000000000 ) ) ;
#26 =( NAMED_UNIT ( * ) SI_UNIT ( $, .STERADIAN. ) SOLID_ANGLE_UNIT ( ) );
#27 = ORIENTED_EDGE ( 'NONE', *, *, #316, .T. ) ;
#28 = PERSON_AND_ORGANIZATION_ROLE ( 'creator' ) ;
#29 = EDGE_CURVE ( 'NONE', #23, #323, #134, .T. ) ;
#30 = LOCAL_TIME ( 13, 49, 13.00000000000000000, #108 ) ;
#31 = CIRCLE ( 'NONE', #306, 8.762999999999999900 ) ;
#32 = ADVANCED_FACE ( 'NONE', ( #201 ), #339, .T. ) ;
#33 = PERSON ( 'UNSPECIFIED', 'UNSPECIFIED', 'UNSPECIFIED', ('UNSPECIFIED'), ('UNSPECIFIED'), ('UNSPECIFIED') ) ;
#34 = APPROVAL ( #363, 'UNSPECIFIED' ) ;
#35 = ORIENTED_EDGE ( 'NONE', *, *, #8, .T. ) ;
#36 = ADVANCED_FACE ( 'NONE', ( #270 ), #185, .T. ) ;
#37 = CALENDAR_DATE ( 2023, 30, 5 ) ;
#38 = AXIS2_PLACEMENT_3D ( 'NONE', #51, #239, #76 ) ;
#39 = FACE_OUTER_BOUND ( 'NONE', #259, .T. ) ;
#40 = ORIENTED_EDGE ( 'NONE', *, *, #145, .F. ) ;
#41 = DIRECTION ( 'NONE',  ( -6.123233995736766000E-017, 1.000000000000000000, 0.0000000000000000000 ) ) ;
#42 = CARTESIAN_POINT ( 'NONE',  ( 0.9999999999999997800, 0.0000000000000000000, 0.0000000000000000000 ) ) ;
#43 = DIRECTION ( 'NONE',  ( -1.000000000000000000, -0.0000000000000000000, -0.0000000000000000000 ) ) ;
#44 = CARTESIAN_POINT ( 'NONE',  ( 63.73800000000000000, 1.073157990092825500E-015, -8.762999999999999900 ) ) ;
#45 = VERTEX_POINT ( 'NONE', #153 ) ;
#46 = CARTESIAN_POINT ( 'NONE',  ( -61.99999999999998600, -3.796405077356794300E-015, 0.0000000000000000000 ) ) ;
#47 = DESIGN_CONTEXT ( 'detailed design', #335, 'design' ) ;
#48 = DIRECTION ( 'NONE',  ( 0.0000000000000000000, 0.0000000000000000000, 1.000000000000000000 ) ) ;
#49 = DATE_AND_TIME ( #123, #193 ) ;
#50 = EDGE_CURVE ( 'NONE', #323, #275, #52, .T. ) ;
#51 = CARTESIAN_POINT ( 'NONE',  ( -61.99999999999998600, -3.796405077356794300E-015, 0.0000000000000000000 ) ) ;
#52 = CIRCLE ( 'NONE', #271, 9.525000000000000400 ) ;
#53 = DIRECTION ( 'NONE',  ( -1.000000000000000000, -0.0000000000000000000, -0.0000000000000000000 ) ) ;
#54 = DIRECTION ( 'NONE',  ( 0.0000000000000000000, 1.000000000000000000, 0.0000000000000000000 ) ) ;
#55 = CC_DESIGN_APPROVAL ( #34, ( #12 ) ) ;
#56 = DIRECTION ( 'NONE',  ( -6.123233995736766000E-017, 1.000000000000000000, 0.0000000000000000000 ) ) ;
#57 = ORIENTED_EDGE ( 'NONE', *, *, #279, .F. ) ;
#58 = APPLICATION_PROTOCOL_DEFINITION ( 'international standard', 'config_control_design', 1994, #83 ) ;
#59 = APPROVAL_STATUS ( 'not_yet_approved' ) ;
#60 = CARTESIAN_POINT ( 'NONE',  ( 0.0000000000000000000, 0.0000000000000000000, 9.525000000000000400 ) ) ;
#61 = PERSON_AND_ORGANIZATION ( #33, #200 ) ;
#62 = CIRCLE ( 'NONE', #225, 9.524999999999995000 ) ;
#63 = AXIS2_PLACEMENT_3D ( 'NONE', #184, #19, #208 ) ;
#64 = ADVANCED_FACE ( 'NONE', ( #125 ), #346, .T. ) ;
#65 = EDGE_LOOP ( 'NONE', ( #129, #167 ) ) ;
#66 = ORIENTED_EDGE ( 'NONE', *, *, #237, .F. ) ;
#67 = EDGE_CURVE ( 'NONE', #217, #275, #117, .T. ) ;
#68 = CARTESIAN_POINT ( 'NONE',  ( 0.0000000000000000000, 0.0000000000000000000, 0.0000000000000000000 ) ) ;
#69 = CC_DESIGN_PERSON_AND_ORGANIZATION_ASSIGNMENT ( #257, #28, ( #12 ) ) ;
#70 = DIRECTION ( 'NONE',  ( 0.0000000000000000000, 0.0000000000000000000, 1.000000000000000000 ) ) ;
#71 = ORIENTED_EDGE ( 'NONE', *, *, #256, .F. ) ;
#72 = CARTESIAN_POINT ( 'NONE',  ( 0.0000000000000000000, 0.0000000000000000000, 0.0000000000000000000 ) ) ;
#73 = DIRECTION ( 'NONE',  ( 0.0000000000000000000, -1.224646799147353700E-016, 1.000000000000000000 ) ) ;
#74 = CARTESIAN_POINT ( 'NONE',  ( 64.50000000000001400, 0.0000000000000000000, 0.0000000000000000000 ) ) ;
#75 = ORIENTED_EDGE ( 'NONE', *, *, #176, .T. ) ;
#76 = DIRECTION ( 'NONE',  ( 0.0000000000000000000, 1.000000000000000000, 0.0000000000000000000 ) ) ;
#77 = AXIS2_PLACEMENT_3D ( 'NONE', #269, #182, #107 ) ;
#78 = PLANE ( 'NONE',  #186 ) ;
#79 = LOCAL_TIME ( 13, 49, 13.00000000000000000, #152 ) ;
#80 = CARTESIAN_POINT ( 'NONE',  ( 64.50000000000001400, 1.119817033140340200E-015, -8.762999999999999900 ) ) ;
#81 = ORIENTED_EDGE ( 'NONE', *, *, #29, .T. ) ;
#82 = CARTESIAN_POINT ( 'NONE',  ( 0.0000000000000000000, 0.0000000000000000000, 0.0000000000000000000 ) ) ;
#83 = APPLICATION_CONTEXT ( 'configuration controlled 3d designs of mechanical parts and assemblies' ) ;
#84 = CIRCLE ( 'NONE', #219, 9.024999999999995000 ) ;
#85 = PERSON_AND_ORGANIZATION_ROLE ( 'creator' ) ;
#86 = ORIENTED_EDGE ( 'NONE', *, *, #50, .T. ) ;
#87 = EDGE_CURVE ( 'NONE', #23, #217, #258, .T. ) ;
#88 = CALENDAR_DATE ( 2023, 30, 5 ) ;
#89 = CIRCLE ( 'NONE', #365, 9.525000000000000400 ) ;
#90 = ORIENTED_EDGE ( 'NONE', *, *, #195, .T. ) ;
#91 = CC_DESIGN_DATE_AND_TIME_ASSIGNMENT ( #324, #215, ( #12 ) ) ;
#92 = VECTOR ( 'NONE', #360, 1000.000000000000000 ) ;
#93 = ORIENTED_EDGE ( 'NONE', *, *, #354, .F. ) ;
#94 = FACE_OUTER_BOUND ( 'NONE', #329, .T. ) ;
#95 = PERSON_AND_ORGANIZATION ( #33, #200 ) ;
#96 = AXIS2_PLACEMENT_3D ( 'NONE', #187, #241, #330 ) ;
#97 = CONICAL_SURFACE ( 'NONE', #96, 9.524999999999995000, 0.7853981633974482800 ) ;
#98 = FACE_OUTER_BOUND ( 'NONE', #254, .T. ) ;
#99 = DIRECTION ( 'NONE',  ( -1.000000000000000000, -0.0000000000000000000, -0.0000000000000000000 ) ) ;
#100 = CARTESIAN_POINT ( 'NONE',  ( 0.0000000000000000000, 1.166476076187854000E-015, -9.525000000000000400 ) ) ;
#101 = CARTESIAN_POINT ( 'NONE',  ( 64.50000000000001400, 0.0000000000000000000, 0.0000000000000000000 ) ) ;
#102 = CARTESIAN_POINT ( 'NONE',  ( -62.49999999999998600, -3.827021247335478100E-015, 0.0000000000000000000 ) ) ;
#103 = ORIENTED_EDGE ( 'NONE', *, *, #199, .T. ) ;
#104 = DIRECTION ( 'NONE',  ( 0.0000000000000000000, 0.0000000000000000000, 1.000000000000000000 ) ) ;
#105 = CARTESIAN_POINT ( 'NONE',  ( 0.9999999999999997800, 0.0000000000000000000, 0.0000000000000000000 ) ) ;
#106 = EDGE_CURVE ( 'NONE', #207, #283, #251, .T. ) ;
#107 = DIRECTION ( 'NONE',  ( 0.0000000000000000000, 0.0000000000000000000, 1.000000000000000000 ) ) ;
#108 = COORDINATED_UNIVERSAL_TIME_OFFSET ( 9, 0, .AHEAD. ) ;
#109 = CARTESIAN_POINT ( 'NONE',  ( 0.9999999999999997800, 1.166476076187854000E-015, -9.525000000000000400 ) ) ;
#110 = FACE_OUTER_BOUND ( 'NONE', #230, .T. ) ;
#111 = CARTESIAN_POINT ( 'NONE',  ( 1.000000000000000400, 1.138269997360110700E-016, 0.0000000000000000000 ) ) ;
#112 = PRODUCT_DEFINITION_FORMATION_WITH_SPECIFIED_SOURCE ( 'ANY', '', #284, .NOT_KNOWN. ) ;
#113 = EDGE_LOOP ( 'NONE', ( #86, #90 ) ) ;
#114 = DIRECTION ( 'NONE',  ( 1.000000000000000000, 0.0000000000000000000, 0.0000000000000000000 ) ) ;
#115 = SECURITY_CLASSIFICATION_LEVEL ( 'unclassified' ) ;
#116 = LOCAL_TIME ( 13, 49, 13.00000000000000000, #183 ) ;
#117 = LINE ( 'NONE', #100, #327 ) ;
#118 = AXIS2_PLACEMENT_3D ( 'NONE', #21, #209, #54 ) ;
#119 = CLOSED_SHELL ( 'NONE', ( #255, #64, #222, #36, #310, #4 ) ) ;
#120 = ADVANCED_BREP_SHAPE_REPRESENTATION ( '03-3053', ( #179, #313, #340 ), #260 ) ;
#121 = ORIENTED_EDGE ( 'NONE', *, *, #316, .F. ) ;
#122 = ADVANCED_FACE ( 'NONE', ( #39 ), #242, .T. ) ;
#123 = CALENDAR_DATE ( 2023, 30, 5 ) ;
#124 = EDGE_CURVE ( 'NONE', #283, #217, #319, .T. ) ;
#125 = FACE_OUTER_BOUND ( 'NONE', #155, .T. ) ;
#126 = CARTESIAN_POINT ( 'NONE',  ( -61.99999999999998600, -3.796405077356794300E-015, 0.0000000000000000000 ) ) ;
#127 = APPROVAL ( #59, 'UNSPECIFIED' ) ;
#128 = DIRECTION ( 'NONE',  ( 0.0000000000000000000, 0.0000000000000000000, 1.000000000000000000 ) ) ;
#129 = ORIENTED_EDGE ( 'NONE', *, *, #106, .F. ) ;
#130 = DIRECTION ( 'NONE',  ( 0.0000000000000000000, -1.000000000000000000, 0.0000000000000000000 ) ) ;
#131 = CARTESIAN_POINT ( 'NONE',  ( 0.9999999999999988900, -9.525000000000000400, 1.166476076187854000E-015 ) ) ;
#132 = PERSON_AND_ORGANIZATION ( #33, #200 ) ;
#133 = DIRECTION ( 'NONE',  ( 0.0000000000000000000, 0.0000000000000000000, 1.000000000000000000 ) ) ;
#134 = LINE ( 'NONE', #60, #194 ) ;
#135 = AXIS2_PLACEMENT_3D ( 'NONE', #357, #53, #326 ) ;
#136 = DIRECTION ( 'NONE',  ( 1.000000000000000000, 6.123233995736766000E-017, -0.0000000000000000000 ) ) ;
#137 = CARTESIAN_POINT ( 'NONE',  ( 0.9999999999999985600, 9.525000000000000400, 0.0000000000000000000 ) ) ;
#138 = ORIENTED_EDGE ( 'NONE', *, *, #216, .T. ) ;
#139 = CARTESIAN_POINT ( 'NONE',  ( 63.73800000000000000, 0.0000000000000000000, 9.525000000000002100 ) ) ;
#140 = CARTESIAN_POINT ( 'NONE',  ( -62.49999999999998600, -3.827021247335478100E-015, 0.0000000000000000000 ) ) ;
#141 = PERSON_AND_ORGANIZATION_ROLE ( 'design_owner' ) ;
#142 = DATE_TIME_ROLE ( 'classification_date' ) ;
#143 = PRODUCT_DEFINITION_SHAPE ( 'NONE', 'NONE',  #12 ) ;
#144 = ORIENTED_EDGE ( 'NONE', *, *, #145, .T. ) ;
#145 = EDGE_CURVE ( 'NONE', #207, #23, #177, .T. ) ;
#146 = CC_DESIGN_APPROVAL ( #127, ( #112 ) ) ;
#147 = ORIENTED_EDGE ( 'NONE', *, *, #176, .F. ) ;
#148 = ADVANCED_FACE ( 'NONE', ( #110 ), #321, .T. ) ;
#149 = CARTESIAN_POINT ( 'NONE',  ( 0.9999999999999976700, 9.525000000000000400, 0.0000000000000000000 ) ) ;
#150 = ORIENTED_EDGE ( 'NONE', *, *, #67, .T. ) ;
#151 = DIRECTION ( 'NONE',  ( 0.0000000000000000000, 1.000000000000000000, 0.0000000000000000000 ) ) ;
#152 = COORDINATED_UNIVERSAL_TIME_OFFSET ( 9, 0, .AHEAD. ) ;
#153 = CARTESIAN_POINT ( 'NONE',  ( -62.49999999999998600, 9.024999999999991500, 0.0000000000000000000 ) ) ;
#154 = FACE_OUTER_BOUND ( 'NONE', #157, .T. ) ;
#155 = EDGE_LOOP ( 'NONE', ( #162, #197, #236, #40 ) ) ;
#156 = DIRECTION ( 'NONE',  ( -1.000000000000000000, -6.123233995736766000E-017, 0.0000000000000000000 ) ) ;
#157 = EDGE_LOOP ( 'NONE', ( #221, #150, #342, #223 ) ) ;
#158 = ORIENTED_EDGE ( 'NONE', *, *, #293, .F. ) ;
#159 = EDGE_CURVE ( 'NONE', #283, #207, #31, .T. ) ;
#160 = LOCAL_TIME ( 13, 49, 13.00000000000000000, #226 ) ;
#161 = FACE_OUTER_BOUND ( 'NONE', #315, .T. ) ;
#162 = ORIENTED_EDGE ( 'NONE', *, *, #106, .T. ) ;
#163 = CARTESIAN_POINT ( 'NONE',  ( -62.49999999999998600, -9.024999999999998600, 1.135859906209169400E-015 ) ) ;
#164 = CC_DESIGN_PERSON_AND_ORGANIZATION_ASSIGNMENT ( #95, #85, ( #112 ) ) ;
#165 = DIRECTION ( 'NONE',  ( 0.0000000000000000000, 1.000000000000000000, 0.0000000000000000000 ) ) ;
#166 = APPLICATION_PROTOCOL_DEFINITION ( 'international standard', 'config_control_design', 1994, #335 ) ;
#167 = ORIENTED_EDGE ( 'NONE', *, *, #159, .F. ) ;
#168 = APPROVAL_ROLE ( '' ) ;
#169 = CIRCLE ( 'NONE', #118, 9.024999999999995000 ) ;
#170 = APPROVAL_DATE_TIME ( #240, #127 ) ;
#171 = AXIS2_PLACEMENT_3D ( 'NONE', #362, #189, #25 ) ;
#172 = ADVANCED_FACE ( 'NONE', ( #98 ), #11, .T. ) ;
#173 = CIRCLE ( 'NONE', #18, 9.525000000000000400 ) ;
#174 = ORIENTED_EDGE ( 'NONE', *, *, #159, .T. ) ;
#175 = APPROVAL_PERSON_ORGANIZATION ( #249, #127, #247 ) ;
#176 = EDGE_CURVE ( 'NONE', #217, #23, #89, .T. ) ;
#177 = CIRCLE ( 'NONE', #268, 0.7620000000000057800 ) ;
#178 = CARTESIAN_POINT ( 'NONE',  ( 0.0000000000000000000, 0.0000000000000000000, 0.0000000000000000000 ) ) ;
#179 = MANIFOLD_SOLID_BREP ( 'È¸Àü3', #119 ) ;
#180 = CC_DESIGN_PERSON_AND_ORGANIZATION_ASSIGNMENT ( #20, #277, ( #112 ) ) ;
#181 = ORIENTED_EDGE ( 'NONE', *, *, #279, .T. ) ;
#182 = DIRECTION ( 'NONE',  ( -1.000000000000000000, -0.0000000000000000000, -0.0000000000000000000 ) ) ;
#183 = COORDINATED_UNIVERSAL_TIME_OFFSET ( 9, 0, .AHEAD. ) ;
#184 = CARTESIAN_POINT ( 'NONE',  ( 0.9999999999999983300, 6.123233995736756200E-017, 0.0000000000000000000 ) ) ;
#185 = CYLINDRICAL_SURFACE ( 'NONE', #328, 9.525000000000000400 ) ;
#186 = AXIS2_PLACEMENT_3D ( 'NONE', #111, #188, #24 ) ;
#187 = CARTESIAN_POINT ( 'NONE',  ( -61.99999999999998600, -3.796405077356794300E-015, 0.0000000000000000000 ) ) ;
#188 = DIRECTION ( 'NONE',  ( 1.000000000000000000, 0.0000000000000000000, 0.0000000000000000000 ) ) ;
#189 = DIRECTION ( 'NONE',  ( 1.000000000000000000, 6.123233995736766000E-017, -0.0000000000000000000 ) ) ;
#190 = VERTEX_POINT ( 'NONE', #131 ) ;
#191 =( NAMED_UNIT ( * ) PLANE_ANGLE_UNIT ( ) SI_UNIT ( $, .RADIAN. ) );
#192 = APPROVAL_ROLE ( '' ) ;
#193 = LOCAL_TIME ( 13, 49, 13.00000000000000000, #267 ) ;
#194 = VECTOR ( 'NONE', #202, 1000.000000000000000 ) ;
#195 = EDGE_CURVE ( 'NONE', #275, #323, #173, .T. ) ;
#196 = SECURITY_CLASSIFICATION ( '', '', #115 ) ;
#197 = ORIENTED_EDGE ( 'NONE', *, *, #124, .T. ) ;
#198 = DIRECTION ( 'NONE',  ( -1.000000000000000000, 0.0000000000000000000, -0.0000000000000000000 ) ) ;
#199 = EDGE_CURVE ( 'NONE', #246, #190, #229, .T. ) ;
#200 = ORGANIZATION ( 'UNSPECIFIED', 'UNSPECIFIED', '' ) ;
#201 = FACE_OUTER_BOUND ( 'NONE', #14, .T. ) ;
#202 = DIRECTION ( 'NONE',  ( -1.000000000000000000, -0.0000000000000000000, -0.0000000000000000000 ) ) ;
#203 = DIRECTION ( 'NONE',  ( -1.000000000000000000, -0.0000000000000000000, -0.0000000000000000000 ) ) ;
#204 = CARTESIAN_POINT ( 'NONE',  ( 63.73800000000000000, 0.0000000000000000000, 0.0000000000000000000 ) ) ;
#205 = ORIENTED_EDGE ( 'NONE', *, *, #124, .F. ) ;
#206 = DIRECTION ( 'NONE',  ( -1.000000000000000000, -0.0000000000000000000, -0.0000000000000000000 ) ) ;
#207 = VERTEX_POINT ( 'NONE', #355 ) ;
#208 = DIRECTION ( 'NONE',  ( -6.829619984160658000E-017, 1.000000000000000000, 0.0000000000000000000 ) ) ;
#209 = DIRECTION ( 'NONE',  ( 1.000000000000000000, 6.123233995736766000E-017, -0.0000000000000000000 ) ) ;
#210 = APPROVAL_DATE_TIME ( #287, #253 ) ;
#211 = CARTESIAN_POINT ( 'NONE',  ( -61.99999999999998600, 9.524999999999991500, 0.0000000000000000000 ) ) ;
#212 = EDGE_LOOP ( 'NONE', ( #334, #75, #81, #263 ) ) ;
#213 = CC_DESIGN_PERSON_AND_ORGANIZATION_ASSIGNMENT ( #308, #305, ( #196 ) ) ;
#214 = DIRECTION ( 'NONE',  ( 1.000000000000000000, 6.123233995736766000E-017, -0.0000000000000000000 ) ) ;
#215 = DATE_TIME_ROLE ( 'creation_date' ) ;
#216 = EDGE_CURVE ( 'NONE', #292, #246, #311, .T. ) ;
#217 = VERTEX_POINT ( 'NONE', #353 ) ;
#218 = APPROVAL_PERSON_ORGANIZATION ( #297, #253, #168 ) ;
#219 = AXIS2_PLACEMENT_3D ( 'NONE', #140, #333, #165 ) ;
#220 = TOROIDAL_SURFACE ( 'NONE', #77, 8.762999999999999900, 0.7620000000000065600 ) ;
#221 = ORIENTED_EDGE ( 'NONE', *, *, #87, .T. ) ;
#222 = ADVANCED_FACE ( 'NONE', ( #161 ), #220, .T. ) ;
#223 = ORIENTED_EDGE ( 'NONE', *, *, #29, .F. ) ;
#224 = AXIS2_PLACEMENT_3D ( 'NONE', #44, #234, #73 ) ;
#225 = AXIS2_PLACEMENT_3D ( 'NONE', #126, #318, #151 ) ;
#226 = COORDINATED_UNIVERSAL_TIME_OFFSET ( 9, 0, .AHEAD. ) ;
#227 = LINE ( 'NONE', #211, #92 ) ;
#228 = DIRECTION ( 'NONE',  ( 0.0000000000000000000, 0.0000000000000000000, 1.000000000000000000 ) ) ;
#229 = LINE ( 'NONE', #266, #22 ) ;
#230 = EDGE_LOOP ( 'NONE', ( #57, #93 ) ) ;
#231 = DIRECTION ( 'NONE',  ( -1.000000000000000000, -0.0000000000000000000, -0.0000000000000000000 ) ) ;
#232 = CC_DESIGN_DATE_AND_TIME_ASSIGNMENT ( #9, #142, ( #196 ) ) ;
#233 = DIRECTION ( 'NONE',  ( 0.0000000000000000000, 0.0000000000000000000, 1.000000000000000000 ) ) ;
#234 = DIRECTION ( 'NONE',  ( -0.0000000000000000000, 1.000000000000000000, 1.224646799147353200E-016 ) ) ;
#235 = DIRECTION ( 'NONE',  ( 0.0000000000000000000, 1.000000000000000000, 0.0000000000000000000 ) ) ;
#236 = ORIENTED_EDGE ( 'NONE', *, *, #87, .F. ) ;
#237 = EDGE_CURVE ( 'NONE', #16, #190, #299, .T. ) ;
#238 = DIRECTION ( 'NONE',  ( 1.000000000000000000, 6.123233995736766000E-017, -0.0000000000000000000 ) ) ;
#239 = DIRECTION ( 'NONE',  ( 1.000000000000000000, 6.123233995736766000E-017, -0.0000000000000000000 ) ) ;
#240 = DATE_AND_TIME ( #317, #30 ) ;
#241 = DIRECTION ( 'NONE',  ( 1.000000000000000000, 6.123233995736766000E-017, -0.0000000000000000000 ) ) ;
#242 = CYLINDRICAL_SURFACE ( 'NONE', #248, 9.525000000000000400 ) ;
#243 = AXIS2_PLACEMENT_3D ( 'NONE', #137, #214, #56 ) ;
#244 = UNCERTAINTY_MEASURE_WITH_UNIT (LENGTH_MEASURE( 1.000000000000000100E-005 ), #301, 'distance_accuracy_value', 'NONE');
#245 = PLANE ( 'NONE',  #243 ) ;
#246 = VERTEX_POINT ( 'NONE', #295 ) ;
#247 = APPROVAL_ROLE ( '' ) ;
#248 = AXIS2_PLACEMENT_3D ( 'NONE', #72, #13, #262 ) ;
#249 = PERSON_AND_ORGANIZATION ( #33, #200 ) ;
#250 = AXIS2_PLACEMENT_3D ( 'NONE', #5, #198, #349 ) ;
#251 = CIRCLE ( 'NONE', #1, 8.762999999999999900 ) ;
#252 = CLOSED_SHELL ( 'NONE', ( #32, #281, #343, #148, #172, #122 ) ) ;
#253 = APPROVAL ( #336, 'UNSPECIFIED' ) ;
#254 = EDGE_LOOP ( 'NONE', ( #158, #351, #27, #356 ) ) ;
#255 = ADVANCED_FACE ( 'NONE', ( #154 ), #358, .T. ) ;
#256 = EDGE_CURVE ( 'NONE', #292, #16, #332, .T. ) ;
#257 = PERSON_AND_ORGANIZATION ( #33, #200 ) ;
#258 = CIRCLE ( 'NONE', #286, 9.525000000000000400 ) ;
#259 = EDGE_LOOP ( 'NONE', ( #361, #35, #285, #288 ) ) ;
#260 =( GEOMETRIC_REPRESENTATION_CONTEXT ( 3 ) GLOBAL_UNCERTAINTY_ASSIGNED_CONTEXT ( ( #244 ) ) GLOBAL_UNIT_ASSIGNED_CONTEXT ( ( #301, #191, #26 ) ) REPRESENTATION_CONTEXT ( 'NONE', 'WORKASPACE' ) );
#261 = DIRECTION ( 'NONE',  ( 0.0000000000000000000, 0.0000000000000000000, 1.000000000000000000 ) ) ;
#262 = DIRECTION ( 'NONE',  ( -6.123233995736766000E-017, 1.000000000000000000, 0.0000000000000000000 ) ) ;
#263 = ORIENTED_EDGE ( 'NONE', *, *, #195, .F. ) ;
#264 = DIRECTION ( 'NONE',  ( 1.000000000000000000, 6.123233995736766000E-017, -0.0000000000000000000 ) ) ;
#265 = DIRECTION ( 'NONE',  ( -1.000000000000000000, -0.0000000000000000000, -0.0000000000000000000 ) ) ;
#266 = CARTESIAN_POINT ( 'NONE',  ( 5.832380380939270100E-016, -9.525000000000000400, 1.166476076187854000E-015 ) ) ;
#267 = COORDINATED_UNIVERSAL_TIME_OFFSET ( 9, 0, .AHEAD. ) ;
#268 = AXIS2_PLACEMENT_3D ( 'NONE', #291, #130, #322 ) ;
#269 = CARTESIAN_POINT ( 'NONE',  ( 63.73800000000000000, 0.0000000000000000000, 0.0000000000000000000 ) ) ;
#270 = FACE_OUTER_BOUND ( 'NONE', #212, .T. ) ;
#271 = AXIS2_PLACEMENT_3D ( 'NONE', #42, #231, #70 ) ;
#272 = CARTESIAN_POINT ( 'NONE',  ( -61.99999999999998600, -9.524999999999998600, 1.166476076187853200E-015 ) ) ;
#273 = CARTESIAN_POINT ( 'NONE',  ( 0.9999999999999997800, 0.0000000000000000000, 9.525000000000000400 ) ) ;
#274 = CC_DESIGN_APPROVAL ( #253, ( #196 ) ) ;
#275 = VERTEX_POINT ( 'NONE', #109 ) ;
#276 = DIRECTION ( 'NONE',  ( 0.0000000000000000000, 0.0000000000000000000, 1.000000000000000000 ) ) ;
#277 = PERSON_AND_ORGANIZATION_ROLE ( 'design_supplier' ) ;
#278 = SHAPE_DEFINITION_REPRESENTATION ( #143, #120 ) ;
#279 = EDGE_CURVE ( 'NONE', #45, #312, #169, .T. ) ;
#280 = FACE_OUTER_BOUND ( 'NONE', #65, .T. ) ;
#281 = ADVANCED_FACE ( 'NONE', ( #94 ), #97, .T. ) ;
#282 = VECTOR ( 'NONE', #331, 1000.000000000000000 ) ;
#283 = VERTEX_POINT ( 'NONE', #80 ) ;
#284 = PRODUCT ( '03-3053', '03-3053', '', ( #303 ) ) ;
#285 = ORIENTED_EDGE ( 'NONE', *, *, #256, .T. ) ;
#286 = AXIS2_PLACEMENT_3D ( 'NONE', #204, #43, #233 ) ;
#287 = DATE_AND_TIME ( #2, #79 ) ;
#288 = ORIENTED_EDGE ( 'NONE', *, *, #337, .F. ) ;
#289 = CC_DESIGN_SECURITY_CLASSIFICATION ( #196, ( #112 ) ) ;
#290 = DIRECTION ( 'NONE',  ( -1.000000000000000000, -0.0000000000000000000, -0.0000000000000000000 ) ) ;
#291 = CARTESIAN_POINT ( 'NONE',  ( 63.73800000000000000, 0.0000000000000000000, 8.762999999999999900 ) ) ;
#292 = VERTEX_POINT ( 'NONE', #298 ) ;
#293 = EDGE_CURVE ( 'NONE', #312, #246, #307, .T. ) ;
#294 = DIRECTION ( 'NONE',  ( -1.000000000000000000, -0.0000000000000000000, -0.0000000000000000000 ) ) ;
#295 = CARTESIAN_POINT ( 'NONE',  ( -61.99999999999998600, -9.524999999999998600, 1.166476076187853200E-015 ) ) ;
#296 = CARTESIAN_POINT ( 'NONE',  ( -5.832380380939270100E-016, 9.525000000000000400, 0.0000000000000000000 ) ) ;
#297 = PERSON_AND_ORGANIZATION ( #33, #200 ) ;
#298 = CARTESIAN_POINT ( 'NONE',  ( -61.99999999999998600, 9.524999999999991500, 0.0000000000000000000 ) ) ;
#299 = CIRCLE ( 'NONE', #63, 9.525000000000000400 ) ;
#300 = ORIENTED_EDGE ( 'NONE', *, *, #337, .T. ) ;
#301 =( LENGTH_UNIT ( ) NAMED_UNIT ( * ) SI_UNIT ( .MILLI., .METRE. ) );
#302 = CIRCLE ( 'NONE', #171, 9.525000000000000400 ) ;
#303 = MECHANICAL_CONTEXT ( 'NONE', #83, 'mechanical' ) ;
#304 = EDGE_LOOP ( 'NONE', ( #6, #300 ) ) ;
#305 = PERSON_AND_ORGANIZATION_ROLE ( 'classification_officer' ) ;
#306 = AXIS2_PLACEMENT_3D ( 'NONE', #74, #265, #104 ) ;
#307 = LINE ( 'NONE', #272, #282 ) ;
#308 = PERSON_AND_ORGANIZATION ( #33, #200 ) ;
#309 = AXIS2_PLACEMENT_3D ( 'NONE', #178, #10, #41 ) ;
#310 = ADVANCED_FACE ( 'NONE', ( #341 ), #78, .F. ) ;
#311 = CIRCLE ( 'NONE', #38, 9.524999999999995000 ) ;
#312 = VERTEX_POINT ( 'NONE', #163 ) ;
#313 = MANIFOLD_SOLID_BREP ( 'È¸Àü4', #252 ) ;
#314 = PRODUCT_RELATED_PRODUCT_CATEGORY ( 'detail', '', ( #284 ) ) ;
#315 = EDGE_LOOP ( 'NONE', ( #205, #174, #144, #147 ) ) ;
#316 = EDGE_CURVE ( 'NONE', #45, #292, #227, .T. ) ;
#317 = CALENDAR_DATE ( 2023, 30, 5 ) ;
#318 = DIRECTION ( 'NONE',  ( 1.000000000000000000, 6.123233995736766000E-017, -0.0000000000000000000 ) ) ;
#319 = CIRCLE ( 'NONE', #224, 0.7620000000000057800 ) ;
#320 = CARTESIAN_POINT ( 'NONE',  ( 63.73800000000000000, 0.0000000000000000000, 0.0000000000000000000 ) ) ;
#321 = PLANE ( 'NONE',  #325 ) ;
#322 = DIRECTION ( 'NONE',  ( 0.0000000000000000000, 0.0000000000000000000, -1.000000000000000000 ) ) ;
#323 = VERTEX_POINT ( 'NONE', #273 ) ;
#324 = DATE_AND_TIME ( #37, #116 ) ;
#325 = AXIS2_PLACEMENT_3D ( 'NONE', #102, #156, #352 ) ;
#326 = DIRECTION ( 'NONE',  ( 0.0000000000000000000, 0.0000000000000000000, 1.000000000000000000 ) ) ;
#327 = VECTOR ( 'NONE', #350, 1000.000000000000000 ) ;
#328 = AXIS2_PLACEMENT_3D ( 'NONE', #68, #99, #228 ) ;
#329 = EDGE_LOOP ( 'NONE', ( #181, #364, #3, #121 ) ) ;
#330 = DIRECTION ( 'NONE',  ( 0.0000000000000000000, 1.000000000000000000, 0.0000000000000000000 ) ) ;
#331 = DIRECTION ( 'NONE',  ( 0.7071067811865475700, -0.7071067811865474600, 8.659560562354931600E-017 ) ) ;
#332 = LINE ( 'NONE', #296, #344 ) ;
#333 = DIRECTION ( 'NONE',  ( 1.000000000000000000, 6.123233995736766000E-017, -0.0000000000000000000 ) ) ;
#334 = ORIENTED_EDGE ( 'NONE', *, *, #67, .F. ) ;
#335 = APPLICATION_CONTEXT ( 'configuration controlled 3d designs of mechanical parts and assemblies' ) ;
#336 = APPROVAL_STATUS ( 'not_yet_approved' ) ;
#337 = EDGE_CURVE ( 'NONE', #190, #16, #302, .T. ) ;
#338 = APPROVAL_DATE_TIME ( #49, #34 ) ;
#339 = CYLINDRICAL_SURFACE ( 'NONE', #309, 9.525000000000000400 ) ;
#340 = AXIS2_PLACEMENT_3D ( 'NONE', #82, #276, #114 ) ;
#341 = FACE_OUTER_BOUND ( 'NONE', #113, .T. ) ;
#342 = ORIENTED_EDGE ( 'NONE', *, *, #50, .F. ) ;
#343 = ADVANCED_FACE ( 'NONE', ( #15 ), #245, .T. ) ;
#344 = VECTOR ( 'NONE', #136, 1000.000000000000000 ) ;
#345 = APPROVAL_PERSON_ORGANIZATION ( #61, #34, #192 ) ;
#346 = TOROIDAL_SURFACE ( 'NONE', #348, 8.762999999999999900, 0.7620000000000065600 ) ;
#347 = AXIS2_PLACEMENT_3D ( 'NONE', #46, #264, #235 ) ;
#348 = AXIS2_PLACEMENT_3D ( 'NONE', #320, #203, #261 ) ;
#349 = DIRECTION ( 'NONE',  ( -0.0000000000000000000, 0.0000000000000000000, 1.000000000000000000 ) ) ;
#350 = DIRECTION ( 'NONE',  ( -1.000000000000000000, -0.0000000000000000000, -0.0000000000000000000 ) ) ;
#351 = ORIENTED_EDGE ( 'NONE', *, *, #354, .T. ) ;
#352 = DIRECTION ( 'NONE',  ( 6.123233995736766000E-017, -1.000000000000000000, 0.0000000000000000000 ) ) ;
#353 = CARTESIAN_POINT ( 'NONE',  ( 63.73800000000000000, 1.166476076187854200E-015, -9.525000000000002100 ) ) ;
#354 = EDGE_CURVE ( 'NONE', #312, #45, #84, .T. ) ;
#355 = CARTESIAN_POINT ( 'NONE',  ( 64.50000000000001400, 0.0000000000000000000, 8.762999999999999900 ) ) ;
#356 = ORIENTED_EDGE ( 'NONE', *, *, #8, .F. ) ;
#357 = CARTESIAN_POINT ( 'NONE',  ( 0.0000000000000000000, 0.0000000000000000000, 0.0000000000000000000 ) ) ;
#358 = CYLINDRICAL_SURFACE ( 'NONE', #135, 9.525000000000000400 ) ;
#359 = CC_DESIGN_PERSON_AND_ORGANIZATION_ASSIGNMENT ( #132, #141, ( #284 ) ) ;
#360 = DIRECTION ( 'NONE',  ( 0.7071067811865475700, 0.7071067811865474600, 0.0000000000000000000 ) ) ;
#361 = ORIENTED_EDGE ( 'NONE', *, *, #199, .F. ) ;
#362 = CARTESIAN_POINT ( 'NONE',  ( 0.9999999999999983300, 6.123233995736756200E-017, 0.0000000000000000000 ) ) ;
#363 = APPROVAL_STATUS ( 'not_yet_approved' ) ;
#364 = ORIENTED_EDGE ( 'NONE', *, *, #293, .T. ) ;
#365 = AXIS2_PLACEMENT_3D ( 'NONE', #17, #206, #48 ) ;
ENDSEC;
END-ISO-10303-21;
