ISO-10303-21;
HEADER;
FILE_DESCRIPTION (( 'STEP AP203' ),
    '1' );
FILE_NAME ('03-3055.STEP',
    '2023-05-30T04:48:35',
    ( 'USER' ),
    ( 'Hewlett-Packard Company' ),
    'SwSTEP 2.0',
    'SolidWorks 2014',
    '' );
FILE_SCHEMA (( 'CONFIG_CONTROL_DESIGN' ));
ENDSEC;

DATA;
#1 = CYLINDRICAL_SURFACE ( 'NONE', #44, 6.349999999999999600 ) ;
#2 = CYLINDRICAL_SURFACE ( 'NONE', #41, 6.349999999999999600 ) ;
#3 = AXIS2_PLACEMENT_3D ( 'NONE', #46, #276, #299 ) ;
#4 = DIRECTION ( 'NONE',  ( -6.123233995736766000E-017, 1.000000000000000000, 0.0000000000000000000 ) ) ;
#5 = PERSON_AND_ORGANIZATION ( #132, #149 ) ;
#6 = ORIENTED_EDGE ( 'NONE', *, *, #78, .F. ) ;
#7 = CC_DESIGN_PERSON_AND_ORGANIZATION_ASSIGNMENT ( #241, #288, ( #355 ) ) ;
#8 = CIRCLE ( 'NONE', #58, 6.349999999999999600 ) ;
#9 = DIRECTION ( 'NONE',  ( 0.0000000000000000000, -1.000000000000000000, 0.0000000000000000000 ) ) ;
#10 = AXIS2_PLACEMENT_3D ( 'NONE', #12, #228, #48 ) ;
#11 = ADVANCED_FACE ( 'NONE', ( #251 ), #218, .F. ) ;
#12 = CARTESIAN_POINT ( 'NONE',  ( 50.27600000000000300, 0.0000000000000000000, 0.0000000000000000000 ) ) ;
#13 = CARTESIAN_POINT ( 'NONE',  ( 50.27600000000000300, 0.0000000000000000000, 0.0000000000000000000 ) ) ;
#14 = AXIS2_PLACEMENT_3D ( 'NONE', #77, #277, #111 ) ;
#15 = FACE_OUTER_BOUND ( 'NONE', #79, .T. ) ;
#16 = DIRECTION ( 'NONE',  ( 1.000000000000000000, 6.123233995736766000E-017, -0.0000000000000000000 ) ) ;
#17 = COORDINATED_UNIVERSAL_TIME_OFFSET ( 9, 0, .AHEAD. ) ;
#18 = AXIS2_PLACEMENT_3D ( 'NONE', #236, #91, #24 ) ;
#19 = CARTESIAN_POINT ( 'NONE',  ( -49.79999999999999700, -3.049370529876909300E-015, 0.0000000000000000000 ) ) ;
#20 = ORIENTED_EDGE ( 'NONE', *, *, #102, .T. ) ;
#21 = CARTESIAN_POINT ( 'NONE',  ( -49.29999999999999700, -3.018754359898225500E-015, 0.0000000000000000000 ) ) ;
#22 = ORIENTED_EDGE ( 'NONE', *, *, #142, .T. ) ;
#23 = CARTESIAN_POINT ( 'NONE',  ( 0.9999999999999988900, 6.349999999999999600, 0.0000000000000000000 ) ) ;
#24 = DIRECTION ( 'NONE',  ( 0.0000000000000000000, 1.000000000000000000, 0.0000000000000000000 ) ) ;
#25 = APPLICATION_PROTOCOL_DEFINITION ( 'international standard', 'config_control_design', 1994, #60 ) ;
#26 = VECTOR ( 'NONE', #121, 1000.000000000000000 ) ;
#27 = APPROVAL_STATUS ( 'not_yet_approved' ) ;
#28 = AXIS2_PLACEMENT_3D ( 'NONE', #186, #353, #211 ) ;
#29 = LOCAL_TIME ( 13, 48, 35.00000000000000000, #117 ) ;
#30 = AXIS2_PLACEMENT_3D ( 'NONE', #203, #9, #226 ) ;
#31 = ORIENTED_EDGE ( 'NONE', *, *, #136, .F. ) ;
#32 = ADVANCED_BREP_SHAPE_REPRESENTATION ( '03-3055', ( #240, #105, #151 ), #65 ) ;
#33 = ORIENTED_EDGE ( 'NONE', *, *, #109, .F. ) ;
#34 = CC_DESIGN_DATE_AND_TIME_ASSIGNMENT ( #294, #129, ( #355 ) ) ;
#35 = AXIS2_PLACEMENT_3D ( 'NONE', #296, #138, #325 ) ;
#36 = VECTOR ( 'NONE', #53, 1000.000000000000000 ) ;
#37 = AXIS2_PLACEMENT_3D ( 'NONE', #45, #252, #74 ) ;
#38 = CALENDAR_DATE ( 2023, 30, 5 ) ;
#39 = CARTESIAN_POINT ( 'NONE',  ( 0.0000000000000000000, 0.0000000000000000000, 0.0000000000000000000 ) ) ;
#40 = EDGE_LOOP ( 'NONE', ( #217, #82, #31, #239 ) ) ;
#41 = AXIS2_PLACEMENT_3D ( 'NONE', #262, #336, #359 ) ;
#42 = DIRECTION ( 'NONE',  ( -0.0000000000000000000, 0.0000000000000000000, 1.000000000000000000 ) ) ;
#43 = CARTESIAN_POINT ( 'NONE',  ( 1.000000000000000000, 0.0000000000000000000, 0.0000000000000000000 ) ) ;
#44 = AXIS2_PLACEMENT_3D ( 'NONE', #107, #137, #4 ) ;
#45 = CARTESIAN_POINT ( 'NONE',  ( 51.79999999999999700, 0.0000000000000000000, 0.0000000000000000000 ) ) ;
#46 = CARTESIAN_POINT ( 'NONE',  ( 50.27600000000000300, 0.0000000000000000000, 0.0000000000000000000 ) ) ;
#47 = ADVANCED_FACE ( 'NONE', ( #310 ), #174, .T. ) ;
#48 = DIRECTION ( 'NONE',  ( 0.0000000000000000000, 0.0000000000000000000, 1.000000000000000000 ) ) ;
#49 = VECTOR ( 'NONE', #255, 1000.000000000000000 ) ;
#50 = AXIS2_PLACEMENT_3D ( 'NONE', #118, #258, #84 ) ;
#51 = CARTESIAN_POINT ( 'NONE',  ( 51.79999999999999700, 0.0000000000000000000, 4.825999999999999600 ) ) ;
#52 = EDGE_LOOP ( 'NONE', ( #185, #245, #302, #194 ) ) ;
#53 = DIRECTION ( 'NONE',  ( 0.7071067811865487900, 0.7071067811865463500, 0.0000000000000000000 ) ) ;
#54 = AXIS2_PLACEMENT_3D ( 'NONE', #39, #221, #69 ) ;
#55 = DIRECTION ( 'NONE',  ( 0.0000000000000000000, 1.000000000000000000, 0.0000000000000000000 ) ) ;
#56 = APPROVAL ( #314, 'UNSPECIFIED' ) ;
#57 = DIRECTION ( 'NONE',  ( -6.123233995736766000E-017, 1.000000000000000000, 0.0000000000000000000 ) ) ;
#58 = AXIS2_PLACEMENT_3D ( 'NONE', #172, #345, #202 ) ;
#59 = CIRCLE ( 'NONE', #272, 6.349999999999996100 ) ;
#60 = APPLICATION_CONTEXT ( 'configuration controlled 3d designs of mechanical parts and assemblies' ) ;
#61 = AXIS2_PLACEMENT_3D ( 'NONE', #135, #248, #42 ) ;
#62 = PERSON_AND_ORGANIZATION_ROLE ( 'creator' ) ;
#63 = ORIENTED_EDGE ( 'NONE', *, *, #184, .F. ) ;
#64 = PERSON_AND_ORGANIZATION ( #132, #149 ) ;
#65 =( GEOMETRIC_REPRESENTATION_CONTEXT ( 3 ) GLOBAL_UNCERTAINTY_ASSIGNED_CONTEXT ( ( #181 ) ) GLOBAL_UNIT_ASSIGNED_CONTEXT ( ( #312, #189, #361 ) ) REPRESENTATION_CONTEXT ( 'NONE', 'WORKASPACE' ) );
#66 = AXIS2_PLACEMENT_3D ( 'NONE', #43, #250, #71 ) ;
#67 = LINE ( 'NONE', #253, #216 ) ;
#68 = ORIENTED_EDGE ( 'NONE', *, *, #190, .F. ) ;
#69 = DIRECTION ( 'NONE',  ( -6.123233995736766000E-017, 1.000000000000000000, 0.0000000000000000000 ) ) ;
#70 = COORDINATED_UNIVERSAL_TIME_OFFSET ( 9, 0, .AHEAD. ) ;
#71 = DIRECTION ( 'NONE',  ( 0.0000000000000000000, 0.0000000000000000000, 1.000000000000000000 ) ) ;
#72 = EDGE_LOOP ( 'NONE', ( #295, #323 ) ) ;
#73 = CC_DESIGN_APPROVAL ( #56, ( #355 ) ) ;
#74 = DIRECTION ( 'NONE',  ( 0.0000000000000000000, 0.0000000000000000000, 1.000000000000000000 ) ) ;
#75 = ADVANCED_FACE ( 'NONE', ( #187 ), #1, .T. ) ;
#76 = CIRCLE ( 'NONE', #14, 4.825999999999999600 ) ;
#77 = CARTESIAN_POINT ( 'NONE',  ( 51.79999999999999700, 0.0000000000000000000, 0.0000000000000000000 ) ) ;
#78 = EDGE_CURVE ( 'NONE', #274, #308, #89, .T. ) ;
#79 = EDGE_LOOP ( 'NONE', ( #22, #268 ) ) ;
#80 = DIRECTION ( 'NONE',  ( 1.000000000000000000, 6.123233995736766000E-017, -0.0000000000000000000 ) ) ;
#81 = EDGE_CURVE ( 'NONE', #120, #308, #244, .T. ) ;
#82 = ORIENTED_EDGE ( 'NONE', *, *, #161, .T. ) ;
#83 = CONICAL_SURFACE ( 'NONE', #18, 6.349999999999996100, 0.7853981633974466100 ) ;
#84 = DIRECTION ( 'NONE',  ( 0.0000000000000000000, 0.0000000000000000000, -1.000000000000000000 ) ) ;
#85 = LOCAL_TIME ( 13, 48, 35.00000000000000000, #168 ) ;
#86 = EDGE_LOOP ( 'NONE', ( #215, #20, #280, #201 ) ) ;
#87 = DIRECTION ( 'NONE',  ( 6.123233995736766000E-017, -1.000000000000000000, 0.0000000000000000000 ) ) ;
#88 = EDGE_CURVE ( 'NONE', #318, #120, #8, .T. ) ;
#89 = CIRCLE ( 'NONE', #66, 6.349999999999999600 ) ;
#90 = DIRECTION ( 'NONE',  ( 0.0000000000000000000, 0.0000000000000000000, 1.000000000000000000 ) ) ;
#91 = DIRECTION ( 'NONE',  ( 1.000000000000000000, 6.123233995736766000E-017, -0.0000000000000000000 ) ) ;
#92 = DIRECTION ( 'NONE',  ( 1.000000000000000000, 0.0000000000000000000, 0.0000000000000000000 ) ) ;
#93 = ORIENTED_EDGE ( 'NONE', *, *, #145, .T. ) ;
#94 = SECURITY_CLASSIFICATION_LEVEL ( 'unclassified' ) ;
#95 = AXIS2_PLACEMENT_3D ( 'NONE', #21, #154, #123 ) ;
#96 = FACE_OUTER_BOUND ( 'NONE', #122, .T. ) ;
#97 = EDGE_CURVE ( 'NONE', #163, #144, #235, .T. ) ;
#98 = APPROVAL_DATE_TIME ( #183, #290 ) ;
#99 = ORIENTED_EDGE ( 'NONE', *, *, #173, .T. ) ;
#100 = CIRCLE ( 'NONE', #35, 1.523999999999998900 ) ;
#101 = CC_DESIGN_SECURITY_CLASSIFICATION ( #355, ( #275 ) ) ;
#102 = EDGE_CURVE ( 'NONE', #144, #120, #100, .T. ) ;
#103 = EDGE_CURVE ( 'NONE', #163, #318, #164, .T. ) ;
#104 = APPROVAL_PERSON_ORGANIZATION ( #193, #290, #238 ) ;
#105 = MANIFOLD_SOLID_BREP ( 'È¸Àü4', #219 ) ;
#106 = ORIENTED_EDGE ( 'NONE', *, *, #128, .F. ) ;
#107 = CARTESIAN_POINT ( 'NONE',  ( 0.0000000000000000000, 0.0000000000000000000, 0.0000000000000000000 ) ) ;
#108 = ORIENTED_EDGE ( 'NONE', *, *, #78, .T. ) ;
#109 = EDGE_CURVE ( 'NONE', #144, #163, #76, .T. ) ;
#110 = ADVANCED_FACE ( 'NONE', ( #292 ), #358, .T. ) ;
#111 = DIRECTION ( 'NONE',  ( 0.0000000000000000000, 0.0000000000000000000, 1.000000000000000000 ) ) ;
#112 = CARTESIAN_POINT ( 'NONE',  ( 1.000000000000000000, 0.0000000000000000000, 0.0000000000000000000 ) ) ;
#113 = FACE_OUTER_BOUND ( 'NONE', #166, .T. ) ;
#114 = DIRECTION ( 'NONE',  ( 0.0000000000000000000, 0.0000000000000000000, 1.000000000000000000 ) ) ;
#115 = AXIS2_PLACEMENT_3D ( 'NONE', #152, #261, #87 ) ;
#116 = CARTESIAN_POINT ( 'NONE',  ( -49.29999999999999700, -6.349999999999998800, 7.776507174585689200E-016 ) ) ;
#117 = COORDINATED_UNIVERSAL_TIME_OFFSET ( 9, 0, .AHEAD. ) ;
#118 = CARTESIAN_POINT ( 'NONE',  ( 1.000000000000000400, 1.365923996832132800E-016, 0.0000000000000000000 ) ) ;
#119 = EDGE_CURVE ( 'NONE', #120, #318, #156, .T. ) ;
#120 = VERTEX_POINT ( 'NONE', #348 ) ;
#121 = DIRECTION ( 'NONE',  ( -1.000000000000000000, -0.0000000000000000000, -0.0000000000000000000 ) ) ;
#122 = EDGE_LOOP ( 'NONE', ( #341, #99, #315, #63 ) ) ;
#123 = DIRECTION ( 'NONE',  ( 0.0000000000000000000, 1.000000000000000000, 0.0000000000000000000 ) ) ;
#124 = PRODUCT_RELATED_PRODUCT_CATEGORY ( 'detail', '', ( #270 ) ) ;
#125 = EDGE_CURVE ( 'NONE', #308, #274, #227, .T. ) ;
#126 = LINE ( 'NONE', #334, #26 ) ;
#127 = PERSON_AND_ORGANIZATION_ROLE ( 'design_owner' ) ;
#128 = EDGE_CURVE ( 'NONE', #344, #131, #67, .T. ) ;
#129 = DATE_TIME_ROLE ( 'classification_date' ) ;
#130 = LOCAL_TIME ( 13, 48, 35.00000000000000000, #207 ) ;
#131 = VERTEX_POINT ( 'NONE', #327 ) ;
#132 = PERSON ( 'UNSPECIFIED', 'UNSPECIFIED', 'UNSPECIFIED', ('UNSPECIFIED'), ('UNSPECIFIED'), ('UNSPECIFIED') ) ;
#133 = LINE ( 'NONE', #352, #49 ) ;
#134 = VERTEX_POINT ( 'NONE', #350 ) ;
#135 = CARTESIAN_POINT ( 'NONE',  ( 51.79999999999999700, 0.0000000000000000000, 0.0000000000000000000 ) ) ;
#136 = EDGE_CURVE ( 'NONE', #171, #344, #59, .T. ) ;
#137 = DIRECTION ( 'NONE',  ( 1.000000000000000000, 6.123233995736766000E-017, -0.0000000000000000000 ) ) ;
#138 = DIRECTION ( 'NONE',  ( -0.0000000000000000000, 1.000000000000000000, 1.224646799147353200E-016 ) ) ;
#139 = DIRECTION ( 'NONE',  ( -1.000000000000000000, -0.0000000000000000000, -0.0000000000000000000 ) ) ;
#140 = ADVANCED_FACE ( 'NONE', ( #141 ), #285, .T. ) ;
#141 = FACE_OUTER_BOUND ( 'NONE', #237, .T. ) ;
#142 = EDGE_CURVE ( 'NONE', #134, #131, #343, .T. ) ;
#143 = DIRECTION ( 'NONE',  ( 0.0000000000000000000, 0.0000000000000000000, 1.000000000000000000 ) ) ;
#144 = VERTEX_POINT ( 'NONE', #177 ) ;
#145 = EDGE_CURVE ( 'NONE', #171, #134, #133, .T. ) ;
#146 = CLOSED_SHELL ( 'NONE', ( #326, #110, #140, #298, #175, #11 ) ) ;
#147 = PRODUCT_DEFINITION_SHAPE ( 'NONE', 'NONE',  #195 ) ;
#148 = CARTESIAN_POINT ( 'NONE',  ( -49.79999999999999700, -3.049370529876909300E-015, 0.0000000000000000000 ) ) ;
#149 = ORGANIZATION ( 'UNSPECIFIED', 'UNSPECIFIED', '' ) ;
#150 = DIRECTION ( 'NONE',  ( 1.000000000000000000, 6.123233995736766000E-017, -0.0000000000000000000 ) ) ;
#151 = AXIS2_PLACEMENT_3D ( 'NONE', #157, #264, #92 ) ;
#152 = CARTESIAN_POINT ( 'NONE',  ( -49.79999999999999700, -3.049370529876909700E-015, 0.0000000000000000000 ) ) ;
#153 = APPROVAL_DATE_TIME ( #224, #56 ) ;
#154 = DIRECTION ( 'NONE',  ( 1.000000000000000000, 6.123233995736766000E-017, -0.0000000000000000000 ) ) ;
#155 = EDGE_CURVE ( 'NONE', #269, #291, #213, .T. ) ;
#156 = CIRCLE ( 'NONE', #10, 6.349999999999999600 ) ;
#157 = CARTESIAN_POINT ( 'NONE',  ( 0.0000000000000000000, 0.0000000000000000000, 0.0000000000000000000 ) ) ;
#158 = ORIENTED_EDGE ( 'NONE', *, *, #184, .T. ) ;
#159 = APPLICATION_PROTOCOL_DEFINITION ( 'international standard', 'config_control_design', 1994, #313 ) ;
#160 = APPROVAL_ROLE ( '' ) ;
#161 = EDGE_CURVE ( 'NONE', #291, #344, #279, .T. ) ;
#162 = APPROVAL_PERSON_ORGANIZATION ( #231, #56, #160 ) ;
#163 = VERTEX_POINT ( 'NONE', #51 ) ;
#164 = CIRCLE ( 'NONE', #30, 1.523999999999998900 ) ;
#165 = EDGE_CURVE ( 'NONE', #269, #171, #337, .T. ) ;
#166 = EDGE_LOOP ( 'NONE', ( #209, #260, #6, #68 ) ) ;
#167 = EDGE_CURVE ( 'NONE', #131, #134, #347, .T. ) ;
#168 = COORDINATED_UNIVERSAL_TIME_OFFSET ( 9, 0, .AHEAD. ) ;
#169 = CC_DESIGN_PERSON_AND_ORGANIZATION_ASSIGNMENT ( #64, #127, ( #270 ) ) ;
#170 = DIRECTION ( 'NONE',  ( -1.000000000000000000, -0.0000000000000000000, -0.0000000000000000000 ) ) ;
#171 = VERTEX_POINT ( 'NONE', #329 ) ;
#172 = CARTESIAN_POINT ( 'NONE',  ( 50.27600000000000300, 0.0000000000000000000, 0.0000000000000000000 ) ) ;
#173 = EDGE_CURVE ( 'NONE', #291, #269, #205, .T. ) ;
#174 = CYLINDRICAL_SURFACE ( 'NONE', #54, 6.349999999999999600 ) ;
#175 = ADVANCED_FACE ( 'NONE', ( #328 ), #182, .F. ) ;
#176 = DIRECTION ( 'NONE',  ( 1.000000000000000000, 6.123233995736766000E-017, -0.0000000000000000000 ) ) ;
#177 = CARTESIAN_POINT ( 'NONE',  ( 51.79999999999999700, 6.843326313635407900E-016, -4.825999999999999600 ) ) ;
#178 = CYLINDRICAL_SURFACE ( 'NONE', #363, 6.349999999999999600 ) ;
#179 = AXIS2_PLACEMENT_3D ( 'NONE', #23, #234, #57 ) ;
#180 = DIRECTION ( 'NONE',  ( 0.0000000000000000000, 1.000000000000000000, 0.0000000000000000000 ) ) ;
#181 = UNCERTAINTY_MEASURE_WITH_UNIT (LENGTH_MEASURE( 1.000000000000000100E-005 ), #312, 'distance_accuracy_value', 'NONE');
#182 = PLANE ( 'NONE',  #50 ) ;
#183 = DATE_AND_TIME ( #247, #316 ) ;
#184 = EDGE_CURVE ( 'NONE', #344, #171, #198, .T. ) ;
#185 = ORIENTED_EDGE ( 'NONE', *, *, #136, .T. ) ;
#186 = CARTESIAN_POINT ( 'NONE',  ( -49.29999999999999700, -3.018754359898225500E-015, 0.0000000000000000000 ) ) ;
#187 = FACE_OUTER_BOUND ( 'NONE', #52, .T. ) ;
#188 = CARTESIAN_POINT ( 'NONE',  ( 1.000000000000000000, 7.776507174585692200E-016, -6.349999999999999600 ) ) ;
#189 =( NAMED_UNIT ( * ) PLANE_ANGLE_UNIT ( ) SI_UNIT ( $, .RADIAN. ) );
#190 = EDGE_CURVE ( 'NONE', #318, #274, #126, .T. ) ;
#191 = APPROVAL_ROLE ( '' ) ;
#192 = FACE_OUTER_BOUND ( 'NONE', #40, .T. ) ;
#193 = PERSON_AND_ORGANIZATION ( #132, #149 ) ;
#194 = ORIENTED_EDGE ( 'NONE', *, *, #145, .F. ) ;
#195 = PRODUCT_DEFINITION ( 'UNKNOWN', '', #275, #293 ) ;
#196 = EDGE_LOOP ( 'NONE', ( #282, #200, #360, #356 ) ) ;
#197 = AXIS2_PLACEMENT_3D ( 'NONE', #112, #300, #143 ) ;
#198 = CIRCLE ( 'NONE', #28, 6.349999999999996100 ) ;
#199 = PERSON_AND_ORGANIZATION ( #132, #149 ) ;
#200 = ORIENTED_EDGE ( 'NONE', *, *, #119, .T. ) ;
#201 = ORIENTED_EDGE ( 'NONE', *, *, #103, .F. ) ;
#202 = DIRECTION ( 'NONE',  ( 0.0000000000000000000, 0.0000000000000000000, 1.000000000000000000 ) ) ;
#203 = CARTESIAN_POINT ( 'NONE',  ( 50.27600000000000300, 0.0000000000000000000, 4.825999999999999600 ) ) ;
#204 = ADVANCED_FACE ( 'NONE', ( #320 ), #232, .T. ) ;
#205 = CIRCLE ( 'NONE', #351, 5.849999999999997900 ) ;
#206 = CARTESIAN_POINT ( 'NONE',  ( 0.9999999999999988900, 6.123233995736759900E-017, 0.0000000000000000000 ) ) ;
#207 = COORDINATED_UNIVERSAL_TIME_OFFSET ( 9, 0, .AHEAD. ) ;
#208 = CARTESIAN_POINT ( 'NONE',  ( -49.29999999999999700, 6.349999999999993400, 0.0000000000000000000 ) ) ;
#209 = ORIENTED_EDGE ( 'NONE', *, *, #88, .T. ) ;
#210 = APPROVAL ( #338, 'UNSPECIFIED' ) ;
#211 = DIRECTION ( 'NONE',  ( 0.0000000000000000000, 1.000000000000000000, 0.0000000000000000000 ) ) ;
#212 = CARTESIAN_POINT ( 'NONE',  ( -49.79999999999999700, 5.849999999999994300, 0.0000000000000000000 ) ) ;
#213 = CIRCLE ( 'NONE', #319, 5.849999999999997900 ) ;
#214 = DATE_TIME_ROLE ( 'creation_date' ) ;
#215 = ORIENTED_EDGE ( 'NONE', *, *, #97, .T. ) ;
#216 = VECTOR ( 'NONE', #176, 1000.000000000000000 ) ;
#217 = ORIENTED_EDGE ( 'NONE', *, *, #155, .T. ) ;
#218 = PLANE ( 'NONE',  #61 ) ;
#219 = CLOSED_SHELL ( 'NONE', ( #75, #225, #278, #204, #346, #47 ) ) ;
#220 = SHAPE_DEFINITION_REPRESENTATION ( #147, #32 ) ;
#221 = DIRECTION ( 'NONE',  ( 1.000000000000000000, 6.123233995736766000E-017, -0.0000000000000000000 ) ) ;
#222 = CC_DESIGN_APPROVAL ( #210, ( #195 ) ) ;
#223 = CARTESIAN_POINT ( 'NONE',  ( 0.0000000000000000000, 7.776507174585692200E-016, -6.349999999999999600 ) ) ;
#224 = DATE_AND_TIME ( #289, #354 ) ;
#225 = ADVANCED_FACE ( 'NONE', ( #192 ), #246, .T. ) ;
#226 = DIRECTION ( 'NONE',  ( 0.0000000000000000000, 0.0000000000000000000, -1.000000000000000000 ) ) ;
#227 = CIRCLE ( 'NONE', #197, 6.349999999999999600 ) ;
#228 = DIRECTION ( 'NONE',  ( -1.000000000000000000, -0.0000000000000000000, -0.0000000000000000000 ) ) ;
#229 = DIRECTION ( 'NONE',  ( -6.829619984160658000E-017, 1.000000000000000000, 0.0000000000000000000 ) ) ;
#230 = DIRECTION ( 'NONE',  ( 1.000000000000000000, 6.123233995736766000E-017, -0.0000000000000000000 ) ) ;
#231 = PERSON_AND_ORGANIZATION ( #132, #149 ) ;
#232 = PLANE ( 'NONE',  #115 ) ;
#233 = ORIENTED_EDGE ( 'NONE', *, *, #119, .F. ) ;
#234 = DIRECTION ( 'NONE',  ( 1.000000000000000000, 6.123233995736766000E-017, -0.0000000000000000000 ) ) ;
#235 = CIRCLE ( 'NONE', #37, 4.825999999999999600 ) ;
#236 = CARTESIAN_POINT ( 'NONE',  ( -49.29999999999999700, -3.018754359898225500E-015, 0.0000000000000000000 ) ) ;
#237 = EDGE_LOOP ( 'NONE', ( #304, #243, #257, #233 ) ) ;
#238 = APPROVAL_ROLE ( '' ) ;
#239 = ORIENTED_EDGE ( 'NONE', *, *, #165, .F. ) ;
#240 = MANIFOLD_SOLID_BREP ( 'È¸Àü3', #146 ) ;
#241 = PERSON_AND_ORGANIZATION ( #132, #149 ) ;
#242 = CC_DESIGN_PERSON_AND_ORGANIZATION_ASSIGNMENT ( #199, #362, ( #195 ) ) ;
#243 = ORIENTED_EDGE ( 'NONE', *, *, #109, .T. ) ;
#244 = LINE ( 'NONE', #223, #297 ) ;
#245 = ORIENTED_EDGE ( 'NONE', *, *, #128, .T. ) ;
#246 = CONICAL_SURFACE ( 'NONE', #95, 6.349999999999996100, 0.7853981633974466100 ) ;
#247 = CALENDAR_DATE ( 2023, 30, 5 ) ;
#248 = DIRECTION ( 'NONE',  ( -1.000000000000000000, 0.0000000000000000000, -0.0000000000000000000 ) ) ;
#249 = EDGE_LOOP ( 'NONE', ( #106, #158, #93, #322 ) ) ;
#250 = DIRECTION ( 'NONE',  ( -1.000000000000000000, -0.0000000000000000000, -0.0000000000000000000 ) ) ;
#251 = FACE_OUTER_BOUND ( 'NONE', #317, .T. ) ;
#252 = DIRECTION ( 'NONE',  ( -1.000000000000000000, -0.0000000000000000000, -0.0000000000000000000 ) ) ;
#253 = CARTESIAN_POINT ( 'NONE',  ( 3.888253587292846100E-016, -6.349999999999999600, 7.776507174585692200E-016 ) ) ;
#254 = CARTESIAN_POINT ( 'NONE',  ( -49.29999999999999700, -3.018754359898225500E-015, 0.0000000000000000000 ) ) ;
#255 = DIRECTION ( 'NONE',  ( 1.000000000000000000, 6.123233995736766000E-017, -0.0000000000000000000 ) ) ;
#256 = DATE_AND_TIME ( #321, #29 ) ;
#257 = ORIENTED_EDGE ( 'NONE', *, *, #103, .T. ) ;
#258 = DIRECTION ( 'NONE',  ( 1.000000000000000000, 0.0000000000000000000, 0.0000000000000000000 ) ) ;
#259 = CC_DESIGN_DATE_AND_TIME_ASSIGNMENT ( #256, #214, ( #195 ) ) ;
#260 = ORIENTED_EDGE ( 'NONE', *, *, #81, .T. ) ;
#261 = DIRECTION ( 'NONE',  ( -1.000000000000000000, -6.123233995736766000E-017, 0.0000000000000000000 ) ) ;
#262 = CARTESIAN_POINT ( 'NONE',  ( 0.0000000000000000000, 0.0000000000000000000, 0.0000000000000000000 ) ) ;
#263 = CARTESIAN_POINT ( 'NONE',  ( -49.29999999999999700, -6.349999999999998800, 7.776507174585689200E-016 ) ) ;
#264 = DIRECTION ( 'NONE',  ( 0.0000000000000000000, 0.0000000000000000000, 1.000000000000000000 ) ) ;
#265 = FACE_OUTER_BOUND ( 'NONE', #196, .T. ) ;
#266 = PERSON_AND_ORGANIZATION_ROLE ( 'design_supplier' ) ;
#267 = APPROVAL_DATE_TIME ( #331, #210 ) ;
#268 = ORIENTED_EDGE ( 'NONE', *, *, #167, .T. ) ;
#269 = VERTEX_POINT ( 'NONE', #212 ) ;
#270 = PRODUCT ( '03-3055', '03-3055', '', ( #286 ) ) ;
#271 = VECTOR ( 'NONE', #303, 1000.000000000000000 ) ;
#272 = AXIS2_PLACEMENT_3D ( 'NONE', #254, #80, #281 ) ;
#273 = APPROVAL_PERSON_ORGANIZATION ( #340, #210, #191 ) ;
#274 = VERTEX_POINT ( 'NONE', #307 ) ;
#275 = PRODUCT_DEFINITION_FORMATION_WITH_SPECIFIED_SOURCE ( 'ANY', '', #270, .NOT_KNOWN. ) ;
#276 = DIRECTION ( 'NONE',  ( -1.000000000000000000, -0.0000000000000000000, -0.0000000000000000000 ) ) ;
#277 = DIRECTION ( 'NONE',  ( -1.000000000000000000, -0.0000000000000000000, -0.0000000000000000000 ) ) ;
#278 = ADVANCED_FACE ( 'NONE', ( #15 ), #283, .T. ) ;
#279 = LINE ( 'NONE', #116, #271 ) ;
#280 = ORIENTED_EDGE ( 'NONE', *, *, #88, .F. ) ;
#281 = DIRECTION ( 'NONE',  ( 0.0000000000000000000, 1.000000000000000000, 0.0000000000000000000 ) ) ;
#282 = ORIENTED_EDGE ( 'NONE', *, *, #81, .F. ) ;
#283 = PLANE ( 'NONE',  #179 ) ;
#284 = CARTESIAN_POINT ( 'NONE',  ( -49.79999999999999700, -5.850000000000001400, 7.470345474798851300E-016 ) ) ;
#285 = TOROIDAL_SURFACE ( 'NONE', #301, 4.825999999999999600, 1.523999999999998900 ) ;
#286 = MECHANICAL_CONTEXT ( 'NONE', #60, 'mechanical' ) ;
#287 = AXIS2_PLACEMENT_3D ( 'NONE', #206, #16, #229 ) ;
#288 = PERSON_AND_ORGANIZATION_ROLE ( 'classification_officer' ) ;
#289 = CALENDAR_DATE ( 2023, 30, 5 ) ;
#290 = APPROVAL ( #27, 'UNSPECIFIED' ) ;
#291 = VERTEX_POINT ( 'NONE', #284 ) ;
#292 = FACE_OUTER_BOUND ( 'NONE', #86, .T. ) ;
#293 = DESIGN_CONTEXT ( 'detailed design', #313, 'design' ) ;
#294 = DATE_AND_TIME ( #364, #85 ) ;
#295 = ORIENTED_EDGE ( 'NONE', *, *, #155, .F. ) ;
#296 = CARTESIAN_POINT ( 'NONE',  ( 50.27600000000000300, 5.910145452685125600E-016, -4.825999999999999600 ) ) ;
#297 = VECTOR ( 'NONE', #170, 1000.000000000000000 ) ;
#298 = ADVANCED_FACE ( 'NONE', ( #265 ), #178, .T. ) ;
#299 = DIRECTION ( 'NONE',  ( 0.0000000000000000000, 0.0000000000000000000, 1.000000000000000000 ) ) ;
#300 = DIRECTION ( 'NONE',  ( -1.000000000000000000, -0.0000000000000000000, -0.0000000000000000000 ) ) ;
#301 = AXIS2_PLACEMENT_3D ( 'NONE', #13, #139, #114 ) ;
#302 = ORIENTED_EDGE ( 'NONE', *, *, #142, .F. ) ;
#303 = DIRECTION ( 'NONE',  ( 0.7071067811865487900, -0.7071067811865463500, 8.659560562354918100E-017 ) ) ;
#304 = ORIENTED_EDGE ( 'NONE', *, *, #102, .F. ) ;
#305 = CARTESIAN_POINT ( 'NONE',  ( 0.9999999999999988900, 6.123233995736759900E-017, 0.0000000000000000000 ) ) ;
#306 = PERSON_AND_ORGANIZATION ( #132, #149 ) ;
#307 = CARTESIAN_POINT ( 'NONE',  ( 1.000000000000000000, 0.0000000000000000000, 6.349999999999999600 ) ) ;
#308 = VERTEX_POINT ( 'NONE', #188 ) ;
#309 = CC_DESIGN_APPROVAL ( #290, ( #275 ) ) ;
#310 = FACE_OUTER_BOUND ( 'NONE', #249, .T. ) ;
#311 = CARTESIAN_POINT ( 'NONE',  ( 50.27600000000000300, 0.0000000000000000000, 6.349999999999998800 ) ) ;
#312 =( LENGTH_UNIT ( ) NAMED_UNIT ( * ) SI_UNIT ( .MILLI., .METRE. ) );
#313 = APPLICATION_CONTEXT ( 'configuration controlled 3d designs of mechanical parts and assemblies' ) ;
#314 = APPROVAL_STATUS ( 'not_yet_approved' ) ;
#315 = ORIENTED_EDGE ( 'NONE', *, *, #165, .T. ) ;
#316 = LOCAL_TIME ( 13, 48, 35.00000000000000000, #17 ) ;
#317 = EDGE_LOOP ( 'NONE', ( #365, #33 ) ) ;
#318 = VERTEX_POINT ( 'NONE', #311 ) ;
#319 = AXIS2_PLACEMENT_3D ( 'NONE', #148, #330, #180 ) ;
#320 = FACE_OUTER_BOUND ( 'NONE', #72, .T. ) ;
#321 = CALENDAR_DATE ( 2023, 30, 5 ) ;
#322 = ORIENTED_EDGE ( 'NONE', *, *, #167, .F. ) ;
#323 = ORIENTED_EDGE ( 'NONE', *, *, #173, .F. ) ;
#324 = CC_DESIGN_PERSON_AND_ORGANIZATION_ASSIGNMENT ( #5, #62, ( #275 ) ) ;
#325 = DIRECTION ( 'NONE',  ( 0.0000000000000000000, -1.224646799147353200E-016, 1.000000000000000000 ) ) ;
#326 = ADVANCED_FACE ( 'NONE', ( #113 ), #2, .T. ) ;
#327 = CARTESIAN_POINT ( 'NONE',  ( 0.9999999999999993300, -6.349999999999999600, 7.776507174585692200E-016 ) ) ;
#328 = FACE_OUTER_BOUND ( 'NONE', #349, .T. ) ;
#329 = CARTESIAN_POINT ( 'NONE',  ( -49.29999999999999700, 6.349999999999993400, 0.0000000000000000000 ) ) ;
#330 = DIRECTION ( 'NONE',  ( 1.000000000000000000, 6.123233995736766000E-017, -0.0000000000000000000 ) ) ;
#331 = DATE_AND_TIME ( #38, #130 ) ;
#332 = ORIENTED_EDGE ( 'NONE', *, *, #125, .T. ) ;
#333 = DIRECTION ( 'NONE',  ( -6.829619984160658000E-017, 1.000000000000000000, 0.0000000000000000000 ) ) ;
#334 = CARTESIAN_POINT ( 'NONE',  ( 0.0000000000000000000, 0.0000000000000000000, 6.349999999999999600 ) ) ;
#335 = DIRECTION ( 'NONE',  ( -1.000000000000000000, -0.0000000000000000000, -0.0000000000000000000 ) ) ;
#336 = DIRECTION ( 'NONE',  ( -1.000000000000000000, -0.0000000000000000000, -0.0000000000000000000 ) ) ;
#337 = LINE ( 'NONE', #208, #36 ) ;
#338 = APPROVAL_STATUS ( 'not_yet_approved' ) ;
#339 = AXIS2_PLACEMENT_3D ( 'NONE', #305, #150, #333 ) ;
#340 = PERSON_AND_ORGANIZATION ( #132, #149 ) ;
#341 = ORIENTED_EDGE ( 'NONE', *, *, #161, .F. ) ;
#342 = CC_DESIGN_PERSON_AND_ORGANIZATION_ASSIGNMENT ( #306, #266, ( #275 ) ) ;
#343 = CIRCLE ( 'NONE', #287, 6.349999999999999600 ) ;
#344 = VERTEX_POINT ( 'NONE', #263 ) ;
#345 = DIRECTION ( 'NONE',  ( -1.000000000000000000, -0.0000000000000000000, -0.0000000000000000000 ) ) ;
#346 = ADVANCED_FACE ( 'NONE', ( #96 ), #83, .T. ) ;
#347 = CIRCLE ( 'NONE', #339, 6.349999999999999600 ) ;
#348 = CARTESIAN_POINT ( 'NONE',  ( 50.27600000000000300, 7.776507174585691200E-016, -6.349999999999998800 ) ) ;
#349 = EDGE_LOOP ( 'NONE', ( #108, #332 ) ) ;
#350 = CARTESIAN_POINT ( 'NONE',  ( 0.9999999999999985600, 6.349999999999999600, 0.0000000000000000000 ) ) ;
#351 = AXIS2_PLACEMENT_3D ( 'NONE', #19, #230, #55 ) ;
#352 = CARTESIAN_POINT ( 'NONE',  ( -3.888253587292846100E-016, 6.349999999999999600, 0.0000000000000000000 ) ) ;
#353 = DIRECTION ( 'NONE',  ( 1.000000000000000000, 6.123233995736766000E-017, -0.0000000000000000000 ) ) ;
#354 = LOCAL_TIME ( 13, 48, 35.00000000000000000, #70 ) ;
#355 = SECURITY_CLASSIFICATION ( '', '', #94 ) ;
#356 = ORIENTED_EDGE ( 'NONE', *, *, #125, .F. ) ;
#357 = CARTESIAN_POINT ( 'NONE',  ( 0.0000000000000000000, 0.0000000000000000000, 0.0000000000000000000 ) ) ;
#358 = TOROIDAL_SURFACE ( 'NONE', #3, 4.825999999999999600, 1.523999999999998900 ) ;
#359 = DIRECTION ( 'NONE',  ( 0.0000000000000000000, 0.0000000000000000000, 1.000000000000000000 ) ) ;
#360 = ORIENTED_EDGE ( 'NONE', *, *, #190, .T. ) ;
#361 =( NAMED_UNIT ( * ) SI_UNIT ( $, .STERADIAN. ) SOLID_ANGLE_UNIT ( ) );
#362 = PERSON_AND_ORGANIZATION_ROLE ( 'creator' ) ;
#363 = AXIS2_PLACEMENT_3D ( 'NONE', #357, #335, #90 ) ;
#364 = CALENDAR_DATE ( 2023, 30, 5 ) ;
#365 = ORIENTED_EDGE ( 'NONE', *, *, #97, .F. ) ;
ENDSEC;
END-ISO-10303-21;
