ISO-10303-21;
HEADER;
FILE_DESCRIPTION (( 'STEP AP203' ),
    '1' );
FILE_NAME ('03-3056.STEP',
    '2023-05-30T04:48:13',
    ( 'USER' ),
    ( 'Hewlett-Packard Company' ),
    'SwSTEP 2.0',
    'SolidWorks 2014',
    '' );
FILE_SCHEMA (( 'CONFIG_CONTROL_DESIGN' ));
ENDSEC;

DATA;
#1 = DIRECTION ( 'NONE',  ( -6.123233995736766000E-017, 1.000000000000000000, 0.0000000000000000000 ) ) ;
#2 = VECTOR ( 'NONE', #20, 1000.000000000000000 ) ;
#3 = DIRECTION ( 'NONE',  ( 1.000000000000000000, 0.0000000000000000000, 0.0000000000000000000 ) ) ;
#4 = SECURITY_CLASSIFICATION_LEVEL ( 'unclassified' ) ;
#5 = FACE_OUTER_BOUND ( 'NONE', #279, .T. ) ;
#6 = ORIENTED_EDGE ( 'NONE', *, *, #125, .F. ) ;
#7 = ORIENTED_EDGE ( 'NONE', *, *, #342, .T. ) ;
#8 = AXIS2_PLACEMENT_3D ( 'NONE', #39, #243, #67 ) ;
#9 = LOCAL_TIME ( 13, 48, 13.00000000000000000, #84 ) ;
#10 = CYLINDRICAL_SURFACE ( 'NONE', #138, 6.349999999999999600 ) ;
#11 = CC_DESIGN_DATE_AND_TIME_ASSIGNMENT ( #312, #118, ( #305 ) ) ;
#12 = DIRECTION ( 'NONE',  ( -1.000000000000000000, -0.0000000000000000000, -0.0000000000000000000 ) ) ;
#13 = EDGE_CURVE ( 'NONE', #338, #52, #103, .T. ) ;
#14 = VERTEX_POINT ( 'NONE', #349 ) ;
#15 = ORIENTED_EDGE ( 'NONE', *, *, #278, .T. ) ;
#16 = EDGE_LOOP ( 'NONE', ( #6, #188, #167, #236 ) ) ;
#17 = CARTESIAN_POINT ( 'NONE',  ( 51.03799999999999700, 0.0000000000000000000, 0.0000000000000000000 ) ) ;
#18 = DIRECTION ( 'NONE',  ( 0.0000000000000000000, 0.0000000000000000000, 1.000000000000000000 ) ) ;
#19 = CALENDAR_DATE ( 2023, 30, 5 ) ;
#20 = DIRECTION ( 'NONE',  ( 1.000000000000000000, 6.123233995736766000E-017, -0.0000000000000000000 ) ) ;
#21 = FACE_OUTER_BOUND ( 'NONE', #330, .T. ) ;
#22 = DIRECTION ( 'NONE',  ( 0.0000000000000000000, 0.0000000000000000000, 1.000000000000000000 ) ) ;
#23 = DIRECTION ( 'NONE',  ( -1.000000000000000000, -6.123233995736766000E-017, 0.0000000000000000000 ) ) ;
#24 = CARTESIAN_POINT ( 'NONE',  ( -49.29999999999999700, 6.349999999999993400, 0.0000000000000000000 ) ) ;
#25 = ORIENTED_EDGE ( 'NONE', *, *, #260, .T. ) ;
#26 = DIRECTION ( 'NONE',  ( 0.0000000000000000000, 1.000000000000000000, 0.0000000000000000000 ) ) ;
#27 = AXIS2_PLACEMENT_3D ( 'NONE', #241, #265, #322 ) ;
#28 = DATE_AND_TIME ( #101, #178 ) ;
#29 = FACE_OUTER_BOUND ( 'NONE', #82, .T. ) ;
#30 = ADVANCED_FACE ( 'NONE', ( #29 ), #180, .T. ) ;
#31 = PRODUCT_DEFINITION_FORMATION_WITH_SPECIFIED_SOURCE ( 'ANY', '', #46, .NOT_KNOWN. ) ;
#32 = PERSON_AND_ORGANIZATION_ROLE ( 'design_owner' ) ;
#33 = DATE_TIME_ROLE ( 'classification_date' ) ;
#34 = EDGE_CURVE ( 'NONE', #52, #293, #320, .T. ) ;
#35 = PRODUCT_DEFINITION_SHAPE ( 'NONE', 'NONE',  #305 ) ;
#36 = PERSON_AND_ORGANIZATION ( #163, #185 ) ;
#37 = ORIENTED_EDGE ( 'NONE', *, *, #125, .T. ) ;
#38 = AXIS2_PLACEMENT_3D ( 'NONE', #80, #277, #112 ) ;
#39 = CARTESIAN_POINT ( 'NONE',  ( 51.03799999999999700, 6.843326313635409900E-016, -5.588000000000000100 ) ) ;
#40 = CARTESIAN_POINT ( 'NONE',  ( 0.0000000000000000000, 0.0000000000000000000, 0.0000000000000000000 ) ) ;
#41 = AXIS2_PLACEMENT_3D ( 'NONE', #295, #126, #323 ) ;
#42 = DIRECTION ( 'NONE',  ( 0.0000000000000000000, 0.0000000000000000000, 1.000000000000000000 ) ) ;
#43 = ORIENTED_EDGE ( 'NONE', *, *, #342, .F. ) ;
#44 = CARTESIAN_POINT ( 'NONE',  ( 0.9999999999999988900, 6.123233995736759900E-017, 0.0000000000000000000 ) ) ;
#45 = APPROVAL ( #315, 'UNSPECIFIED' ) ;
#46 = PRODUCT ( '03-3056', '03-3056', '', ( #201 ) ) ;
#47 = FACE_OUTER_BOUND ( 'NONE', #197, .T. ) ;
#48 = DIRECTION ( 'NONE',  ( 1.000000000000000000, 6.123233995736766000E-017, -0.0000000000000000000 ) ) ;
#49 = CARTESIAN_POINT ( 'NONE',  ( 0.9999999999999988900, 6.123233995736759900E-017, 0.0000000000000000000 ) ) ;
#50 = EDGE_CURVE ( 'NONE', #338, #121, #256, .T. ) ;
#51 = PLANE ( 'NONE',  #150 ) ;
#52 = VERTEX_POINT ( 'NONE', #211 ) ;
#53 = ADVANCED_FACE ( 'NONE', ( #250 ), #239, .T. ) ;
#54 = AXIS2_PLACEMENT_3D ( 'NONE', #135, #331, #168 ) ;
#55 = DIRECTION ( 'NONE',  ( -1.000000000000000000, -0.0000000000000000000, -0.0000000000000000000 ) ) ;
#56 = LOCAL_TIME ( 13, 48, 13.00000000000000000, #131 ) ;
#57 = CIRCLE ( 'NONE', #363, 6.349999999999999600 ) ;
#58 = APPLICATION_PROTOCOL_DEFINITION ( 'international standard', 'config_control_design', 1994, #233 ) ;
#59 = APPROVAL_ROLE ( '' ) ;
#60 = AXIS2_PLACEMENT_3D ( 'NONE', #269, #102, #300 ) ;
#61 = ORIENTED_EDGE ( 'NONE', *, *, #205, .F. ) ;
#62 = CALENDAR_DATE ( 2023, 30, 5 ) ;
#63 = CIRCLE ( 'NONE', #158, 6.349999999999996100 ) ;
#64 = CC_DESIGN_APPROVAL ( #45, ( #31 ) ) ;
#65 = CARTESIAN_POINT ( 'NONE',  ( 51.79999999999999700, 0.0000000000000000000, 0.0000000000000000000 ) ) ;
#66 = EDGE_CURVE ( 'NONE', #52, #338, #313, .T. ) ;
#67 = DIRECTION ( 'NONE',  ( 0.0000000000000000000, -1.224646799147352200E-016, 1.000000000000000000 ) ) ;
#68 = ORIENTED_EDGE ( 'NONE', *, *, #34, .F. ) ;
#69 = CARTESIAN_POINT ( 'NONE',  ( 51.79999999999999700, 0.0000000000000000000, 0.0000000000000000000 ) ) ;
#70 = DIRECTION ( 'NONE',  ( 0.0000000000000000000, 0.0000000000000000000, 1.000000000000000000 ) ) ;
#71 = CARTESIAN_POINT ( 'NONE',  ( 0.9999999999999988900, 6.349999999999999600, 0.0000000000000000000 ) ) ;
#72 = PERSON_AND_ORGANIZATION ( #163, #185 ) ;
#73 = AXIS2_PLACEMENT_3D ( 'NONE', #361, #195, #26 ) ;
#74 = DIRECTION ( 'NONE',  ( -6.829619984160658000E-017, 1.000000000000000000, 0.0000000000000000000 ) ) ;
#75 = CYLINDRICAL_SURFACE ( 'NONE', #196, 6.349999999999999600 ) ;
#76 = DIRECTION ( 'NONE',  ( 0.7071067811865487900, -0.7071067811865463500, 8.659560562354918100E-017 ) ) ;
#77 = CARTESIAN_POINT ( 'NONE',  ( -49.79999999999999700, -5.850000000000001400, 7.470345474798851300E-016 ) ) ;
#78 = CONICAL_SURFACE ( 'NONE', #326, 6.349999999999996100, 0.7853981633974466100 ) ;
#79 = DIRECTION ( 'NONE',  ( -6.829619984160658000E-017, 1.000000000000000000, 0.0000000000000000000 ) ) ;
#80 = CARTESIAN_POINT ( 'NONE',  ( -49.79999999999999700, -3.049370529876909300E-015, 0.0000000000000000000 ) ) ;
#81 = ORIENTED_EDGE ( 'NONE', *, *, #183, .F. ) ;
#82 = EDGE_LOOP ( 'NONE', ( #317, #213, #182, #360 ) ) ;
#83 = AXIS2_PLACEMENT_3D ( 'NONE', #69, #266, #98 ) ;
#84 = COORDINATED_UNIVERSAL_TIME_OFFSET ( 9, 0, .AHEAD. ) ;
#85 = CIRCLE ( 'NONE', #120, 6.349999999999999600 ) ;
#86 = ADVANCED_FACE ( 'NONE', ( #95 ), #10, .T. ) ;
#87 =( LENGTH_UNIT ( ) NAMED_UNIT ( * ) SI_UNIT ( .MILLI., .METRE. ) );
#88 = CC_DESIGN_PERSON_AND_ORGANIZATION_ASSIGNMENT ( #72, #340, ( #31 ) ) ;
#89 = APPROVAL_ROLE ( '' ) ;
#90 = EDGE_CURVE ( 'NONE', #293, #121, #85, .T. ) ;
#91 = ORIENTED_EDGE ( 'NONE', *, *, #357, .T. ) ;
#92 = ORIENTED_EDGE ( 'NONE', *, *, #225, .F. ) ;
#93 = LOCAL_TIME ( 13, 48, 13.00000000000000000, #172 ) ;
#94 = AXIS2_PLACEMENT_3D ( 'NONE', #299, #187, #18 ) ;
#95 = FACE_OUTER_BOUND ( 'NONE', #16, .T. ) ;
#96 = ORIENTED_EDGE ( 'NONE', *, *, #111, .T. ) ;
#97 = CARTESIAN_POINT ( 'NONE',  ( 0.0000000000000000000, 0.0000000000000000000, 0.0000000000000000000 ) ) ;
#98 = DIRECTION ( 'NONE',  ( 0.0000000000000000000, 0.0000000000000000000, 1.000000000000000000 ) ) ;
#99 = AXIS2_PLACEMENT_3D ( 'NONE', #97, #156, #153 ) ;
#100 = CARTESIAN_POINT ( 'NONE',  ( 51.79999999999999700, 0.0000000000000000000, 0.0000000000000000000 ) ) ;
#101 = CALENDAR_DATE ( 2023, 30, 5 ) ;
#102 = DIRECTION ( 'NONE',  ( -1.000000000000000000, -0.0000000000000000000, -0.0000000000000000000 ) ) ;
#103 = CIRCLE ( 'NONE', #351, 5.588000000000001000 ) ;
#104 = PLANE ( 'NONE',  #270 ) ;
#105 = DIRECTION ( 'NONE',  ( -6.123233995736766000E-017, 1.000000000000000000, 0.0000000000000000000 ) ) ;
#106 = CARTESIAN_POINT ( 'NONE',  ( -49.79999999999999700, -3.049370529876909300E-015, 0.0000000000000000000 ) ) ;
#107 = CC_DESIGN_PERSON_AND_ORGANIZATION_ASSIGNMENT ( #364, #177, ( #31 ) ) ;
#108 = DIRECTION ( 'NONE',  ( 0.7071067811865487900, 0.7071067811865463500, 0.0000000000000000000 ) ) ;
#109 = DIRECTION ( 'NONE',  ( -1.000000000000000000, -0.0000000000000000000, -0.0000000000000000000 ) ) ;
#110 = EDGE_LOOP ( 'NONE', ( #91, #7, #207, #311 ) ) ;
#111 = EDGE_CURVE ( 'NONE', #14, #316, #174, .T. ) ;
#112 = DIRECTION ( 'NONE',  ( 0.0000000000000000000, 1.000000000000000000, 0.0000000000000000000 ) ) ;
#113 = PERSON_AND_ORGANIZATION ( #163, #185 ) ;
#114 = ORIENTED_EDGE ( 'NONE', *, *, #66, .T. ) ;
#115 = ADVANCED_FACE ( 'NONE', ( #21 ), #75, .T. ) ;
#116 = CARTESIAN_POINT ( 'NONE',  ( 0.0000000000000000000, 0.0000000000000000000, 0.0000000000000000000 ) ) ;
#117 =( NAMED_UNIT ( * ) SI_UNIT ( $, .STERADIAN. ) SOLID_ANGLE_UNIT ( ) );
#118 = DATE_TIME_ROLE ( 'creation_date' ) ;
#119 = ORIENTED_EDGE ( 'NONE', *, *, #296, .F. ) ;
#120 = AXIS2_PLACEMENT_3D ( 'NONE', #17, #214, #42 ) ;
#121 = VERTEX_POINT ( 'NONE', #159 ) ;
#122 = SECURITY_CLASSIFICATION ( '', '', #4 ) ;
#123 = FACE_OUTER_BOUND ( 'NONE', #343, .T. ) ;
#124 = MANIFOLD_SOLID_BREP ( 'È¸Àü3', #287 ) ;
#125 = EDGE_CURVE ( 'NONE', #154, #297, #232, .T. ) ;
#126 = DIRECTION ( 'NONE',  ( 0.0000000000000000000, -1.000000000000000000, 0.0000000000000000000 ) ) ;
#127 = DIRECTION ( 'NONE',  ( -1.000000000000000000, -0.0000000000000000000, -0.0000000000000000000 ) ) ;
#128 = ORIENTED_EDGE ( 'NONE', *, *, #111, .F. ) ;
#129 = DIRECTION ( 'NONE',  ( -0.0000000000000000000, 0.0000000000000000000, 1.000000000000000000 ) ) ;
#130 = AXIS2_PLACEMENT_3D ( 'NONE', #141, #336, #175 ) ;
#131 = COORDINATED_UNIVERSAL_TIME_OFFSET ( 9, 0, .AHEAD. ) ;
#132 = DIRECTION ( 'NONE',  ( -1.000000000000000000, -0.0000000000000000000, -0.0000000000000000000 ) ) ;
#133 = CIRCLE ( 'NONE', #255, 5.849999999999997900 ) ;
#134 = DIRECTION ( 'NONE',  ( 0.0000000000000000000, 1.000000000000000000, 0.0000000000000000000 ) ) ;
#135 = CARTESIAN_POINT ( 'NONE',  ( 1.000000000000000400, 1.365923996832132800E-016, 0.0000000000000000000 ) ) ;
#136 = CIRCLE ( 'NONE', #130, 6.349999999999999600 ) ;
#137 = ORIENTED_EDGE ( 'NONE', *, *, #13, .F. ) ;
#138 = AXIS2_PLACEMENT_3D ( 'NONE', #40, #184, #246 ) ;
#139 = ADVANCED_FACE ( 'NONE', ( #292 ), #356, .T. ) ;
#140 = LOCAL_TIME ( 13, 48, 13.00000000000000000, #217 ) ;
#141 = CARTESIAN_POINT ( 'NONE',  ( 51.03799999999999700, 0.0000000000000000000, 0.0000000000000000000 ) ) ;
#142 = FACE_OUTER_BOUND ( 'NONE', #341, .T. ) ;
#143 = APPLICATION_PROTOCOL_DEFINITION ( 'international standard', 'config_control_design', 1994, #176 ) ;
#144 = CC_DESIGN_PERSON_AND_ORGANIZATION_ASSIGNMENT ( #291, #204, ( #122 ) ) ;
#145 = APPROVAL_ROLE ( '' ) ;
#146 = FACE_OUTER_BOUND ( 'NONE', #171, .T. ) ;
#147 = EDGE_CURVE ( 'NONE', #262, #154, #63, .T. ) ;
#148 = EDGE_LOOP ( 'NONE', ( #68, #114, #350, #155 ) ) ;
#149 = APPROVAL_DATE_TIME ( #230, #45 ) ;
#150 = AXIS2_PLACEMENT_3D ( 'NONE', #100, #267, #129 ) ;
#151 = CIRCLE ( 'NONE', #215, 6.349999999999999600 ) ;
#152 = CIRCLE ( 'NONE', #38, 5.849999999999997900 ) ;
#153 = DIRECTION ( 'NONE',  ( 0.0000000000000000000, 0.0000000000000000000, 1.000000000000000000 ) ) ;
#154 = VERTEX_POINT ( 'NONE', #302 ) ;
#155 = ORIENTED_EDGE ( 'NONE', *, *, #90, .F. ) ;
#156 = DIRECTION ( 'NONE',  ( -1.000000000000000000, -0.0000000000000000000, -0.0000000000000000000 ) ) ;
#157 = ORIENTED_EDGE ( 'NONE', *, *, #169, .T. ) ;
#158 = AXIS2_PLACEMENT_3D ( 'NONE', #328, #161, #353 ) ;
#159 = CARTESIAN_POINT ( 'NONE',  ( 51.03799999999999700, 0.0000000000000000000, 6.349999999999999600 ) ) ;
#160 = APPROVAL_PERSON_ORGANIZATION ( #238, #45, #145 ) ;
#161 = DIRECTION ( 'NONE',  ( 1.000000000000000000, 6.123233995736766000E-017, -0.0000000000000000000 ) ) ;
#162 = LINE ( 'NONE', #220, #274 ) ;
#163 = PERSON ( 'UNSPECIFIED', 'UNSPECIFIED', 'UNSPECIFIED', ('UNSPECIFIED'), ('UNSPECIFIED'), ('UNSPECIFIED') ) ;
#164 = CARTESIAN_POINT ( 'NONE',  ( -49.79999999999999700, -3.049370529876909700E-015, 0.0000000000000000000 ) ) ;
#165 = CC_DESIGN_DATE_AND_TIME_ASSIGNMENT ( #354, #33, ( #122 ) ) ;
#166 = CARTESIAN_POINT ( 'NONE',  ( 0.0000000000000000000, 0.0000000000000000000, 6.349999999999999600 ) ) ;
#167 = ORIENTED_EDGE ( 'NONE', *, *, #183, .T. ) ;
#168 = DIRECTION ( 'NONE',  ( 0.0000000000000000000, 0.0000000000000000000, -1.000000000000000000 ) ) ;
#169 = EDGE_CURVE ( 'NONE', #226, #297, #151, .T. ) ;
#170 = EDGE_LOOP ( 'NONE', ( #92, #289, #327, #347 ) ) ;
#171 = EDGE_LOOP ( 'NONE', ( #137, #244 ) ) ;
#172 = COORDINATED_UNIVERSAL_TIME_OFFSET ( 9, 0, .AHEAD. ) ;
#173 = ADVANCED_FACE ( 'NONE', ( #142 ), #104, .T. ) ;
#174 = CIRCLE ( 'NONE', #60, 6.349999999999999600 ) ;
#175 = DIRECTION ( 'NONE',  ( 0.0000000000000000000, 0.0000000000000000000, 1.000000000000000000 ) ) ;
#176 = APPLICATION_CONTEXT ( 'configuration controlled 3d designs of mechanical parts and assemblies' ) ;
#177 = PERSON_AND_ORGANIZATION_ROLE ( 'design_supplier' ) ;
#178 = LOCAL_TIME ( 13, 48, 13.00000000000000000, #254 ) ;
#179 = AXIS2_PLACEMENT_3D ( 'NONE', #186, #216, #189 ) ;
#180 = TOROIDAL_SURFACE ( 'NONE', #27, 5.588000000000000100, 0.7619999999999992300 ) ;
#181 = APPROVAL ( #234, 'UNSPECIFIED' ) ;
#182 = ORIENTED_EDGE ( 'NONE', *, *, #357, .F. ) ;
#183 = EDGE_CURVE ( 'NONE', #262, #226, #303, .T. ) ;
#184 = DIRECTION ( 'NONE',  ( 1.000000000000000000, 6.123233995736766000E-017, -0.0000000000000000000 ) ) ;
#185 = ORGANIZATION ( 'UNSPECIFIED', 'UNSPECIFIED', '' ) ;
#186 = CARTESIAN_POINT ( 'NONE',  ( -49.29999999999999700, -3.018754359898225500E-015, 0.0000000000000000000 ) ) ;
#187 = DIRECTION ( 'NONE',  ( -1.000000000000000000, -0.0000000000000000000, -0.0000000000000000000 ) ) ;
#188 = ORIENTED_EDGE ( 'NONE', *, *, #318, .T. ) ;
#189 = DIRECTION ( 'NONE',  ( 0.0000000000000000000, 1.000000000000000000, 0.0000000000000000000 ) ) ;
#190 =( GEOMETRIC_REPRESENTATION_CONTEXT ( 3 ) GLOBAL_UNCERTAINTY_ASSIGNED_CONTEXT ( ( #288 ) ) GLOBAL_UNIT_ASSIGNED_CONTEXT ( ( #87, #284, #117 ) ) REPRESENTATION_CONTEXT ( 'NONE', 'WORKASPACE' ) );
#191 = CARTESIAN_POINT ( 'NONE',  ( 51.03799999999999700, 0.0000000000000000000, 0.0000000000000000000 ) ) ;
#192 = PLANE ( 'NONE',  #54 ) ;
#193 = DESIGN_CONTEXT ( 'detailed design', #233, 'design' ) ;
#194 = CARTESIAN_POINT ( 'NONE',  ( 0.0000000000000000000, 7.776507174585692200E-016, -6.349999999999999600 ) ) ;
#195 = DIRECTION ( 'NONE',  ( 1.000000000000000000, 6.123233995736766000E-017, -0.0000000000000000000 ) ) ;
#196 = AXIS2_PLACEMENT_3D ( 'NONE', #247, #127, #70 ) ;
#197 = EDGE_LOOP ( 'NONE', ( #334, #228, #310, #344 ) ) ;
#198 = ADVANCED_FACE ( 'NONE', ( #285 ), #210, .T. ) ;
#199 = APPROVAL_DATE_TIME ( #272, #181 ) ;
#200 = CARTESIAN_POINT ( 'NONE',  ( 0.0000000000000000000, 0.0000000000000000000, 0.0000000000000000000 ) ) ;
#201 = MECHANICAL_CONTEXT ( 'NONE', #176, 'mechanical' ) ;
#202 = LINE ( 'NONE', #218, #339 ) ;
#203 = CC_DESIGN_APPROVAL ( #181, ( #122 ) ) ;
#204 = PERSON_AND_ORGANIZATION_ROLE ( 'classification_officer' ) ;
#205 = EDGE_CURVE ( 'NONE', #352, #242, #133, .T. ) ;
#206 = MANIFOLD_SOLID_BREP ( 'È¸Àü4', #268 ) ;
#207 = ORIENTED_EDGE ( 'NONE', *, *, #332, .F. ) ;
#208 = APPROVAL_PERSON_ORGANIZATION ( #281, #181, #59 ) ;
#209 = AXIS2_PLACEMENT_3D ( 'NONE', #116, #314, #1 ) ;
#210 = TOROIDAL_SURFACE ( 'NONE', #290, 5.588000000000000100, 0.7619999999999992300 ) ;
#211 = CARTESIAN_POINT ( 'NONE',  ( 51.79999999999999700, 7.309916744110551500E-016, -5.588000000000001000 ) ) ;
#212 = VECTOR ( 'NONE', #55, 1000.000000000000000 ) ;
#213 = ORIENTED_EDGE ( 'NONE', *, *, #34, .T. ) ;
#214 = DIRECTION ( 'NONE',  ( -1.000000000000000000, -0.0000000000000000000, -0.0000000000000000000 ) ) ;
#215 = AXIS2_PLACEMENT_3D ( 'NONE', #44, #251, #74 ) ;
#216 = DIRECTION ( 'NONE',  ( 1.000000000000000000, 6.123233995736766000E-017, -0.0000000000000000000 ) ) ;
#217 = COORDINATED_UNIVERSAL_TIME_OFFSET ( 9, 0, .AHEAD. ) ;
#218 = CARTESIAN_POINT ( 'NONE',  ( -49.29999999999999700, 6.349999999999993400, 0.0000000000000000000 ) ) ;
#219 = VECTOR ( 'NONE', #249, 1000.000000000000000 ) ;
#220 = CARTESIAN_POINT ( 'NONE',  ( -49.29999999999999700, -6.349999999999998800, 7.776507174585689200E-016 ) ) ;
#221 = DIRECTION ( 'NONE',  ( 6.123233995736766000E-017, -1.000000000000000000, 0.0000000000000000000 ) ) ;
#222 = CC_DESIGN_SECURITY_CLASSIFICATION ( #122, ( #31 ) ) ;
#223 = CARTESIAN_POINT ( 'NONE',  ( 51.03799999999999700, 7.776507174585692200E-016, -6.349999999999999600 ) ) ;
#224 = CIRCLE ( 'NONE', #73, 6.349999999999996100 ) ;
#225 = EDGE_CURVE ( 'NONE', #242, #154, #162, .T. ) ;
#226 = VERTEX_POINT ( 'NONE', #273 ) ;
#227 = CARTESIAN_POINT ( 'NONE',  ( 51.79999999999999700, 0.0000000000000000000, 5.588000000000001000 ) ) ;
#228 = ORIENTED_EDGE ( 'NONE', *, *, #225, .T. ) ;
#229 = ADVANCED_BREP_SHAPE_REPRESENTATION ( '03-3056', ( #124, #206, #263 ), #190 ) ;
#230 = DATE_AND_TIME ( #301, #9 ) ;
#231 = ADVANCED_FACE ( 'NONE', ( #348 ), #329, .T. ) ;
#232 = LINE ( 'NONE', #325, #2 ) ;
#233 = APPLICATION_CONTEXT ( 'configuration controlled 3d designs of mechanical parts and assemblies' ) ;
#234 = APPROVAL_STATUS ( 'not_yet_approved' ) ;
#235 = LINE ( 'NONE', #166, #308 ) ;
#236 = ORIENTED_EDGE ( 'NONE', *, *, #260, .F. ) ;
#237 = ORIENTED_EDGE ( 'NONE', *, *, #332, .T. ) ;
#238 = PERSON_AND_ORGANIZATION ( #163, #185 ) ;
#239 = CYLINDRICAL_SURFACE ( 'NONE', #99, 6.349999999999999600 ) ;
#240 = PRODUCT_RELATED_PRODUCT_CATEGORY ( 'detail', '', ( #46 ) ) ;
#241 = CARTESIAN_POINT ( 'NONE',  ( 51.03799999999999700, 0.0000000000000000000, 0.0000000000000000000 ) ) ;
#242 = VERTEX_POINT ( 'NONE', #77 ) ;
#243 = DIRECTION ( 'NONE',  ( -0.0000000000000000000, 1.000000000000000000, 1.224646799147353200E-016 ) ) ;
#244 = ORIENTED_EDGE ( 'NONE', *, *, #66, .F. ) ;
#245 = EDGE_CURVE ( 'NONE', #352, #262, #202, .T. ) ;
#246 = DIRECTION ( 'NONE',  ( -6.123233995736766000E-017, 1.000000000000000000, 0.0000000000000000000 ) ) ;
#247 = CARTESIAN_POINT ( 'NONE',  ( 0.0000000000000000000, 0.0000000000000000000, 0.0000000000000000000 ) ) ;
#248 = PERSON_AND_ORGANIZATION ( #163, #185 ) ;
#249 = DIRECTION ( 'NONE',  ( 1.000000000000000000, 6.123233995736766000E-017, -0.0000000000000000000 ) ) ;
#250 = FACE_OUTER_BOUND ( 'NONE', #110, .T. ) ;
#251 = DIRECTION ( 'NONE',  ( 1.000000000000000000, 6.123233995736766000E-017, -0.0000000000000000000 ) ) ;
#252 = DIRECTION ( 'NONE',  ( 1.000000000000000000, 6.123233995736766000E-017, -0.0000000000000000000 ) ) ;
#253 = CARTESIAN_POINT ( 'NONE',  ( 1.000000000000000000, 0.0000000000000000000, 6.349999999999999600 ) ) ;
#254 = COORDINATED_UNIVERSAL_TIME_OFFSET ( 9, 0, .AHEAD. ) ;
#255 = AXIS2_PLACEMENT_3D ( 'NONE', #106, #306, #134 ) ;
#256 = CIRCLE ( 'NONE', #41, 0.7619999999999996800 ) ;
#257 = ADVANCED_FACE ( 'NONE', ( #47 ), #78, .T. ) ;
#258 = CARTESIAN_POINT ( 'NONE',  ( -49.79999999999999700, 5.849999999999994300, 0.0000000000000000000 ) ) ;
#259 = APPROVAL_STATUS ( 'not_yet_approved' ) ;
#260 = EDGE_CURVE ( 'NONE', #297, #226, #57, .T. ) ;
#261 = SHAPE_DEFINITION_REPRESENTATION ( #35, #229 ) ;
#262 = VERTEX_POINT ( 'NONE', #24 ) ;
#263 = AXIS2_PLACEMENT_3D ( 'NONE', #200, #282, #3 ) ;
#264 = DIRECTION ( 'NONE',  ( 0.0000000000000000000, 0.0000000000000000000, 1.000000000000000000 ) ) ;
#265 = DIRECTION ( 'NONE',  ( -1.000000000000000000, -0.0000000000000000000, -0.0000000000000000000 ) ) ;
#266 = DIRECTION ( 'NONE',  ( -1.000000000000000000, -0.0000000000000000000, -0.0000000000000000000 ) ) ;
#267 = DIRECTION ( 'NONE',  ( -1.000000000000000000, 0.0000000000000000000, -0.0000000000000000000 ) ) ;
#268 = CLOSED_SHELL ( 'NONE', ( #365, #257, #173, #231, #139, #86 ) ) ;
#269 = CARTESIAN_POINT ( 'NONE',  ( 1.000000000000000000, 0.0000000000000000000, 0.0000000000000000000 ) ) ;
#270 = AXIS2_PLACEMENT_3D ( 'NONE', #71, #271, #105 ) ;
#271 = DIRECTION ( 'NONE',  ( 1.000000000000000000, 6.123233995736766000E-017, -0.0000000000000000000 ) ) ;
#272 = DATE_AND_TIME ( #346, #56 ) ;
#273 = CARTESIAN_POINT ( 'NONE',  ( 0.9999999999999985600, 6.349999999999999600, 0.0000000000000000000 ) ) ;
#274 = VECTOR ( 'NONE', #76, 1000.000000000000000 ) ;
#275 = CARTESIAN_POINT ( 'NONE',  ( -49.29999999999999700, -3.018754359898225500E-015, 0.0000000000000000000 ) ) ;
#276 = CYLINDRICAL_SURFACE ( 'NONE', #209, 6.349999999999999600 ) ;
#277 = DIRECTION ( 'NONE',  ( 1.000000000000000000, 6.123233995736766000E-017, -0.0000000000000000000 ) ) ;
#278 = EDGE_CURVE ( 'NONE', #121, #316, #235, .T. ) ;
#279 = EDGE_LOOP ( 'NONE', ( #362, #37, #333, #81 ) ) ;
#280 = ADVANCED_FACE ( 'NONE', ( #123 ), #192, .F. ) ;
#281 = PERSON_AND_ORGANIZATION ( #163, #185 ) ;
#282 = DIRECTION ( 'NONE',  ( 0.0000000000000000000, 0.0000000000000000000, 1.000000000000000000 ) ) ;
#283 = CC_DESIGN_PERSON_AND_ORGANIZATION_ASSIGNMENT ( #113, #32, ( #46 ) ) ;
#284 =( NAMED_UNIT ( * ) PLANE_ANGLE_UNIT ( ) SI_UNIT ( $, .RADIAN. ) );
#285 = FACE_OUTER_BOUND ( 'NONE', #148, .T. ) ;
#286 = PERSON_AND_ORGANIZATION_ROLE ( 'creator' ) ;
#287 = CLOSED_SHELL ( 'NONE', ( #53, #30, #198, #115, #280, #335 ) ) ;
#288 = UNCERTAINTY_MEASURE_WITH_UNIT (LENGTH_MEASURE( 1.000000000000000100E-005 ), #87, 'distance_accuracy_value', 'NONE');
#289 = ORIENTED_EDGE ( 'NONE', *, *, #296, .T. ) ;
#290 = AXIS2_PLACEMENT_3D ( 'NONE', #191, #132, #22 ) ;
#291 = PERSON_AND_ORGANIZATION ( #163, #185 ) ;
#292 = FACE_OUTER_BOUND ( 'NONE', #170, .T. ) ;
#293 = VERTEX_POINT ( 'NONE', #223 ) ;
#294 = CIRCLE ( 'NONE', #94, 6.349999999999999600 ) ;
#295 = CARTESIAN_POINT ( 'NONE',  ( 51.03799999999999700, 0.0000000000000000000, 5.588000000000000100 ) ) ;
#296 = EDGE_CURVE ( 'NONE', #242, #352, #152, .T. ) ;
#297 = VERTEX_POINT ( 'NONE', #359 ) ;
#298 = ORIENTED_EDGE ( 'NONE', *, *, #90, .T. ) ;
#299 = CARTESIAN_POINT ( 'NONE',  ( 1.000000000000000000, 0.0000000000000000000, 0.0000000000000000000 ) ) ;
#300 = DIRECTION ( 'NONE',  ( 0.0000000000000000000, 0.0000000000000000000, 1.000000000000000000 ) ) ;
#301 = CALENDAR_DATE ( 2023, 30, 5 ) ;
#302 = CARTESIAN_POINT ( 'NONE',  ( -49.29999999999999700, -6.349999999999998800, 7.776507174585689200E-016 ) ) ;
#303 = LINE ( 'NONE', #304, #219 ) ;
#304 = CARTESIAN_POINT ( 'NONE',  ( -3.888253587292846100E-016, 6.349999999999999600, 0.0000000000000000000 ) ) ;
#305 = PRODUCT_DEFINITION ( 'UNKNOWN', '', #31, #193 ) ;
#306 = DIRECTION ( 'NONE',  ( 1.000000000000000000, 6.123233995736766000E-017, -0.0000000000000000000 ) ) ;
#307 = DIRECTION ( 'NONE',  ( 0.0000000000000000000, 1.000000000000000000, 0.0000000000000000000 ) ) ;
#308 = VECTOR ( 'NONE', #109, 1000.000000000000000 ) ;
#309 = EDGE_LOOP ( 'NONE', ( #61, #119 ) ) ;
#310 = ORIENTED_EDGE ( 'NONE', *, *, #147, .F. ) ;
#311 = ORIENTED_EDGE ( 'NONE', *, *, #278, .F. ) ;
#312 = DATE_AND_TIME ( #19, #93 ) ;
#313 = CIRCLE ( 'NONE', #83, 5.588000000000001000 ) ;
#314 = DIRECTION ( 'NONE',  ( 1.000000000000000000, 6.123233995736766000E-017, -0.0000000000000000000 ) ) ;
#315 = APPROVAL_STATUS ( 'not_yet_approved' ) ;
#316 = VERTEX_POINT ( 'NONE', #253 ) ;
#317 = ORIENTED_EDGE ( 'NONE', *, *, #13, .T. ) ;
#318 = EDGE_CURVE ( 'NONE', #154, #262, #224, .T. ) ;
#319 = APPROVAL_DATE_TIME ( #28, #321 ) ;
#320 = CIRCLE ( 'NONE', #8, 0.7619999999999996800 ) ;
#321 = APPROVAL ( #259, 'UNSPECIFIED' ) ;
#322 = DIRECTION ( 'NONE',  ( 0.0000000000000000000, 0.0000000000000000000, 1.000000000000000000 ) ) ;
#323 = DIRECTION ( 'NONE',  ( 0.0000000000000000000, 0.0000000000000000000, -1.000000000000000000 ) ) ;
#324 = APPROVAL_PERSON_ORGANIZATION ( #36, #321, #89 ) ;
#325 = CARTESIAN_POINT ( 'NONE',  ( 3.888253587292846100E-016, -6.349999999999999600, 7.776507174585692200E-016 ) ) ;
#326 = AXIS2_PLACEMENT_3D ( 'NONE', #275, #48, #307 ) ;
#327 = ORIENTED_EDGE ( 'NONE', *, *, #245, .T. ) ;
#328 = CARTESIAN_POINT ( 'NONE',  ( -49.29999999999999700, -3.018754359898225500E-015, 0.0000000000000000000 ) ) ;
#329 = PLANE ( 'NONE',  #345 ) ;
#330 = EDGE_LOOP ( 'NONE', ( #43, #298, #15, #128 ) ) ;
#331 = DIRECTION ( 'NONE',  ( 1.000000000000000000, 0.0000000000000000000, 0.0000000000000000000 ) ) ;
#332 = EDGE_CURVE ( 'NONE', #316, #14, #294, .T. ) ;
#333 = ORIENTED_EDGE ( 'NONE', *, *, #169, .F. ) ;
#334 = ORIENTED_EDGE ( 'NONE', *, *, #205, .T. ) ;
#335 = ADVANCED_FACE ( 'NONE', ( #146 ), #51, .F. ) ;
#336 = DIRECTION ( 'NONE',  ( -1.000000000000000000, -0.0000000000000000000, -0.0000000000000000000 ) ) ;
#337 = CC_DESIGN_APPROVAL ( #321, ( #305 ) ) ;
#338 = VERTEX_POINT ( 'NONE', #227 ) ;
#339 = VECTOR ( 'NONE', #108, 1000.000000000000000 ) ;
#340 = PERSON_AND_ORGANIZATION_ROLE ( 'creator' ) ;
#341 = EDGE_LOOP ( 'NONE', ( #157, #25 ) ) ;
#342 = EDGE_CURVE ( 'NONE', #293, #14, #358, .T. ) ;
#343 = EDGE_LOOP ( 'NONE', ( #237, #96 ) ) ;
#344 = ORIENTED_EDGE ( 'NONE', *, *, #245, .F. ) ;
#345 = AXIS2_PLACEMENT_3D ( 'NONE', #164, #23, #221 ) ;
#346 = CALENDAR_DATE ( 2023, 30, 5 ) ;
#347 = ORIENTED_EDGE ( 'NONE', *, *, #318, .F. ) ;
#348 = FACE_OUTER_BOUND ( 'NONE', #309, .T. ) ;
#349 = CARTESIAN_POINT ( 'NONE',  ( 1.000000000000000000, 7.776507174585692200E-016, -6.349999999999999600 ) ) ;
#350 = ORIENTED_EDGE ( 'NONE', *, *, #50, .T. ) ;
#351 = AXIS2_PLACEMENT_3D ( 'NONE', #65, #12, #264 ) ;
#352 = VERTEX_POINT ( 'NONE', #258 ) ;
#353 = DIRECTION ( 'NONE',  ( 0.0000000000000000000, 1.000000000000000000, 0.0000000000000000000 ) ) ;
#354 = DATE_AND_TIME ( #62, #140 ) ;
#355 = CC_DESIGN_PERSON_AND_ORGANIZATION_ASSIGNMENT ( #248, #286, ( #305 ) ) ;
#356 = CONICAL_SURFACE ( 'NONE', #179, 6.349999999999996100, 0.7853981633974466100 ) ;
#357 = EDGE_CURVE ( 'NONE', #121, #293, #136, .T. ) ;
#358 = LINE ( 'NONE', #194, #212 ) ;
#359 = CARTESIAN_POINT ( 'NONE',  ( 0.9999999999999993300, -6.349999999999999600, 7.776507174585692200E-016 ) ) ;
#360 = ORIENTED_EDGE ( 'NONE', *, *, #50, .F. ) ;
#361 = CARTESIAN_POINT ( 'NONE',  ( -49.29999999999999700, -3.018754359898225500E-015, 0.0000000000000000000 ) ) ;
#362 = ORIENTED_EDGE ( 'NONE', *, *, #147, .T. ) ;
#363 = AXIS2_PLACEMENT_3D ( 'NONE', #49, #252, #79 ) ;
#364 = PERSON_AND_ORGANIZATION ( #163, #185 ) ;
#365 = ADVANCED_FACE ( 'NONE', ( #5 ), #276, .T. ) ;
ENDSEC;
END-ISO-10303-21;
