ISO-10303-21;
HEADER;
FILE_DESCRIPTION (( 'STEP AP203' ),
    '1' );
FILE_NAME ('03-3057.STEP',
    '2023-05-30T04:47:55',
    ( 'USER' ),
    ( 'Hewlett-Packard Company' ),
    'SwSTEP 2.0',
    'SolidWorks 2014',
    '' );
FILE_SCHEMA (( 'CONFIG_CONTROL_DESIGN' ));
ENDSEC;

DATA;
#1 = ORIENTED_EDGE ( 'NONE', *, *, #214, .F. ) ;
#2 = CC_DESIGN_PERSON_AND_ORGANIZATION_ASSIGNMENT ( #72, #263, ( #336 ) ) ;
#3 = FACE_OUTER_BOUND ( 'NONE', #250, .T. ) ;
#4 = EDGE_CURVE ( 'NONE', #61, #325, #183, .T. ) ;
#5 = VECTOR ( 'NONE', #71, 1000.000000000000000 ) ;
#6 =( GEOMETRIC_REPRESENTATION_CONTEXT ( 3 ) GLOBAL_UNCERTAINTY_ASSIGNED_CONTEXT ( ( #291 ) ) GLOBAL_UNIT_ASSIGNED_CONTEXT ( ( #43, #153, #349 ) ) REPRESENTATION_CONTEXT ( 'NONE', 'WORKASPACE' ) );
#7 = PERSON_AND_ORGANIZATION ( #38, #151 ) ;
#8 = ORIENTED_EDGE ( 'NONE', *, *, #145, .F. ) ;
#9 = DIRECTION ( 'NONE',  ( 1.000000000000000000, 6.123233995736766000E-017, -0.0000000000000000000 ) ) ;
#10 = DIRECTION ( 'NONE',  ( -6.123233995736766000E-017, 1.000000000000000000, 0.0000000000000000000 ) ) ;
#11 = CARTESIAN_POINT ( 'NONE',  ( -49.30000000000000400, -3.018754359898225900E-015, 0.0000000000000000000 ) ) ;
#12 = AXIS2_PLACEMENT_3D ( 'NONE', #196, #31, #225 ) ;
#13 = PLANE ( 'NONE',  #254 ) ;
#14 = CIRCLE ( 'NONE', #89, 4.762499999999996600 ) ;
#15 = DIRECTION ( 'NONE',  ( -1.000000000000000000, -0.0000000000000000000, -0.0000000000000000000 ) ) ;
#16 = DIRECTION ( 'NONE',  ( 0.0000000000000000000, 0.0000000000000000000, 1.000000000000000000 ) ) ;
#17 = CARTESIAN_POINT ( 'NONE',  ( 0.0000000000000000000, 0.0000000000000000000, 4.762500000000001100 ) ) ;
#18 = CARTESIAN_POINT ( 'NONE',  ( -49.30000000000000400, 4.762499999999994000, 0.0000000000000000000 ) ) ;
#19 = EDGE_LOOP ( 'NONE', ( #182, #331, #300, #190 ) ) ;
#20 = APPLICATION_PROTOCOL_DEFINITION ( 'international standard', 'config_control_design', 1994, #46 ) ;
#21 = CC_DESIGN_DATE_AND_TIME_ASSIGNMENT ( #133, #101, ( #336 ) ) ;
#22 = APPROVAL_STATUS ( 'not_yet_approved' ) ;
#23 = EDGE_CURVE ( 'NONE', #203, #50, #106, .T. ) ;
#24 = CARTESIAN_POINT ( 'NONE',  ( 1.000000000000000000, 0.0000000000000000000, 0.0000000000000000000 ) ) ;
#25 = FACE_OUTER_BOUND ( 'NONE', #112, .T. ) ;
#26 = AXIS2_PLACEMENT_3D ( 'NONE', #40, #313, #149 ) ;
#27 = ORIENTED_EDGE ( 'NONE', *, *, #36, .T. ) ;
#28 = LINE ( 'NONE', #18, #5 ) ;
#29 = AXIS2_PLACEMENT_3D ( 'NONE', #201, #338, #10 ) ;
#30 = ORIENTED_EDGE ( 'NONE', *, *, #281, .F. ) ;
#31 = DIRECTION ( 'NONE',  ( -0.0000000000000000000, 1.000000000000000000, 1.224646799147353200E-016 ) ) ;
#32 = DIRECTION ( 'NONE',  ( 0.0000000000000000000, 0.0000000000000000000, 1.000000000000000000 ) ) ;
#33 = APPROVAL ( #295, 'UNSPECIFIED' ) ;
#34 = CARTESIAN_POINT ( 'NONE',  ( 38.33800000000000100, 0.0000000000000000000, 4.000500000000000600 ) ) ;
#35 = ORIENTED_EDGE ( 'NONE', *, *, #36, .F. ) ;
#36 = EDGE_CURVE ( 'NONE', #253, #116, #355, .T. ) ;
#37 = DIRECTION ( 'NONE',  ( 1.000000000000000000, 6.123233995736766000E-017, -0.0000000000000000000 ) ) ;
#38 = PERSON ( 'UNSPECIFIED', 'UNSPECIFIED', 'UNSPECIFIED', ('UNSPECIFIED'), ('UNSPECIFIED'), ('UNSPECIFIED') ) ;
#39 = LINE ( 'NONE', #17, #324 ) ;
#40 = CARTESIAN_POINT ( 'NONE',  ( -49.80000000000000400, -3.049370529876910100E-015, 0.0000000000000000000 ) ) ;
#41 = ORIENTED_EDGE ( 'NONE', *, *, #302, .F. ) ;
#42 = AXIS2_PLACEMENT_3D ( 'NONE', #234, #346, #259 ) ;
#43 =( LENGTH_UNIT ( ) NAMED_UNIT ( * ) SI_UNIT ( .MILLI., .METRE. ) );
#44 = DIRECTION ( 'NONE',  ( 1.000000000000000000, 6.123233995736766000E-017, -0.0000000000000000000 ) ) ;
#45 = DATE_AND_TIME ( #332, #337 ) ;
#46 = APPLICATION_CONTEXT ( 'configuration controlled 3d designs of mechanical parts and assemblies' ) ;
#47 = CARTESIAN_POINT ( 'NONE',  ( -49.30000000000000400, -3.018754359898225900E-015, 0.0000000000000000000 ) ) ;
#48 = PERSON_AND_ORGANIZATION_ROLE ( 'creator' ) ;
#49 = CARTESIAN_POINT ( 'NONE',  ( 1.000000000000000400, 1.821231995776177200E-016, 0.0000000000000000000 ) ) ;
#50 = VERTEX_POINT ( 'NONE', #113 ) ;
#51 = PRODUCT ( '03-3057', '03-3057', '', ( #261 ) ) ;
#52 = ORIENTED_EDGE ( 'NONE', *, *, #189, .T. ) ;
#53 = CARTESIAN_POINT ( 'NONE',  ( -49.80000000000000400, 4.262499999999994000, 0.0000000000000000000 ) ) ;
#54 = AXIS2_PLACEMENT_3D ( 'NONE', #239, #122, #318 ) ;
#55 = ADVANCED_FACE ( 'NONE', ( #304 ), #13, .T. ) ;
#56 = ORIENTED_EDGE ( 'NONE', *, *, #319, .T. ) ;
#57 = CONICAL_SURFACE ( 'NONE', #193, 4.762499999999996600, 0.7853981633974473900 ) ;
#58 = DATE_AND_TIME ( #120, #197 ) ;
#59 = COORDINATED_UNIVERSAL_TIME_OFFSET ( 9, 0, .AHEAD. ) ;
#60 = CC_DESIGN_APPROVAL ( #33, ( #336 ) ) ;
#61 = VERTEX_POINT ( 'NONE', #170 ) ;
#62 = EDGE_CURVE ( 'NONE', #221, #116, #191, .T. ) ;
#63 = CLOSED_SHELL ( 'NONE', ( #103, #242, #55, #323, #130, #185 ) ) ;
#64 = TOROIDAL_SURFACE ( 'NONE', #305, 4.000500000000000600, 0.7619999999999996800 ) ;
#65 = PERSON_AND_ORGANIZATION ( #38, #151 ) ;
#66 = CARTESIAN_POINT ( 'NONE',  ( 2.916190190469635100E-016, -4.762500000000000200, 5.832380380939270100E-016 ) ) ;
#67 = LOCAL_TIME ( 13, 47, 55.00000000000000000, #135 ) ;
#68 = ORIENTED_EDGE ( 'NONE', *, *, #266, .T. ) ;
#69 = CARTESIAN_POINT ( 'NONE',  ( 39.10000000000000100, 0.0000000000000000000, 0.0000000000000000000 ) ) ;
#70 = CIRCLE ( 'NONE', #233, 4.762500000000000200 ) ;
#71 = DIRECTION ( 'NONE',  ( 0.7071067811865482400, 0.7071067811865469100, 0.0000000000000000000 ) ) ;
#72 = PERSON_AND_ORGANIZATION ( #38, #151 ) ;
#73 = CARTESIAN_POINT ( 'NONE',  ( -49.30000000000000400, -4.762499999999999300, 5.832380380939265200E-016 ) ) ;
#74 = CALENDAR_DATE ( 2023, 30, 5 ) ;
#75 = DIRECTION ( 'NONE',  ( 1.000000000000000000, 0.0000000000000000000, 0.0000000000000000000 ) ) ;
#76 = DIRECTION ( 'NONE',  ( 0.0000000000000000000, 1.000000000000000000, 0.0000000000000000000 ) ) ;
#77 = CLOSED_SHELL ( 'NONE', ( #267, #359, #298, #216, #158, #83 ) ) ;
#78 = CC_DESIGN_SECURITY_CLASSIFICATION ( #336, ( #245 ) ) ;
#79 = SECURITY_CLASSIFICATION_LEVEL ( 'unclassified' ) ;
#80 = DIRECTION ( 'NONE',  ( -1.000000000000000000, -0.0000000000000000000, -0.0000000000000000000 ) ) ;
#81 = EDGE_CURVE ( 'NONE', #107, #61, #309, .T. ) ;
#82 = CARTESIAN_POINT ( 'NONE',  ( 0.9999999999999991100, -4.762500000000000200, 5.832380380939270100E-016 ) ) ;
#83 = ADVANCED_FACE ( 'NONE', ( #3 ), #229, .F. ) ;
#84 = CONICAL_SURFACE ( 'NONE', #360, 4.762499999999996600, 0.7853981633974473900 ) ;
#85 = PERSON_AND_ORGANIZATION ( #38, #151 ) ;
#86 = ORIENTED_EDGE ( 'NONE', *, *, #23, .T. ) ;
#87 = ORIENTED_EDGE ( 'NONE', *, *, #246, .F. ) ;
#88 = CIRCLE ( 'NONE', #114, 4.000500000000000600 ) ;
#89 = AXIS2_PLACEMENT_3D ( 'NONE', #47, #237, #76 ) ;
#90 = ORIENTED_EDGE ( 'NONE', *, *, #214, .T. ) ;
#91 = DIRECTION ( 'NONE',  ( -1.000000000000000000, 0.0000000000000000000, -0.0000000000000000000 ) ) ;
#92 = CARTESIAN_POINT ( 'NONE',  ( 39.10000000000000100, 0.0000000000000000000, 0.0000000000000000000 ) ) ;
#93 = PRODUCT_RELATED_PRODUCT_CATEGORY ( 'detail', '', ( #51 ) ) ;
#94 = EDGE_CURVE ( 'NONE', #50, #314, #243, .T. ) ;
#95 = FACE_OUTER_BOUND ( 'NONE', #342, .T. ) ;
#96 = CARTESIAN_POINT ( 'NONE',  ( -49.80000000000000400, -3.049370529876910100E-015, 0.0000000000000000000 ) ) ;
#97 = DIRECTION ( 'NONE',  ( 0.0000000000000000000, 1.000000000000000000, 0.0000000000000000000 ) ) ;
#98 = ORIENTED_EDGE ( 'NONE', *, *, #145, .T. ) ;
#99 = CARTESIAN_POINT ( 'NONE',  ( -49.80000000000000400, -4.262500000000001100, 5.526218681152428300E-016 ) ) ;
#100 = PERSON_AND_ORGANIZATION_ROLE ( 'design_owner' ) ;
#101 = DATE_TIME_ROLE ( 'classification_date' ) ;
#102 = CARTESIAN_POINT ( 'NONE',  ( 1.000000000000000000, 0.0000000000000000000, 0.0000000000000000000 ) ) ;
#103 = ADVANCED_FACE ( 'NONE', ( #95 ), #232, .T. ) ;
#104 = AXIS2_PLACEMENT_3D ( 'NONE', #49, #156, #315 ) ;
#105 = ORIENTED_EDGE ( 'NONE', *, *, #189, .F. ) ;
#106 = CIRCLE ( 'NONE', #202, 4.000500000000000600 ) ;
#107 = VERTEX_POINT ( 'NONE', #169 ) ;
#108 = EDGE_CURVE ( 'NONE', #203, #253, #163, .T. ) ;
#109 = ORIENTED_EDGE ( 'NONE', *, *, #230, .T. ) ;
#110 = FACE_OUTER_BOUND ( 'NONE', #235, .T. ) ;
#111 = AXIS2_PLACEMENT_3D ( 'NONE', #288, #236, #75 ) ;
#112 = EDGE_LOOP ( 'NONE', ( #1, #52, #109, #292 ) ) ;
#113 = CARTESIAN_POINT ( 'NONE',  ( 39.10000000000000100, 0.0000000000000000000, 4.000500000000000600 ) ) ;
#114 = AXIS2_PLACEMENT_3D ( 'NONE', #294, #353, #180 ) ;
#115 = DIRECTION ( 'NONE',  ( 0.0000000000000000000, 1.000000000000000000, 0.0000000000000000000 ) ) ;
#116 = VERTEX_POINT ( 'NONE', #341 ) ;
#117 = DIRECTION ( 'NONE',  ( 0.0000000000000000000, 1.000000000000000000, 0.0000000000000000000 ) ) ;
#118 = DIRECTION ( 'NONE',  ( -1.000000000000000000, -0.0000000000000000000, -0.0000000000000000000 ) ) ;
#119 = CIRCLE ( 'NONE', #137, 4.762500000000000200 ) ;
#120 = CALENDAR_DATE ( 2023, 30, 5 ) ;
#121 = APPLICATION_PROTOCOL_DEFINITION ( 'international standard', 'config_control_design', 1994, #293 ) ;
#122 = DIRECTION ( 'NONE',  ( 1.000000000000000000, 6.123233995736766000E-017, -0.0000000000000000000 ) ) ;
#123 = APPROVAL_PERSON_ORGANIZATION ( #198, #260, #212 ) ;
#124 = PRODUCT_DEFINITION_SHAPE ( 'NONE', 'NONE',  #152 ) ;
#125 = ORIENTED_EDGE ( 'NONE', *, *, #340, .T. ) ;
#126 = APPROVAL_ROLE ( '' ) ;
#127 = ORIENTED_EDGE ( 'NONE', *, *, #108, .T. ) ;
#128 = CARTESIAN_POINT ( 'NONE',  ( 0.0000000000000000000, 0.0000000000000000000, 0.0000000000000000000 ) ) ;
#129 = EDGE_CURVE ( 'NONE', #107, #268, #303, .T. ) ;
#130 = ADVANCED_FACE ( 'NONE', ( #25 ), #84, .T. ) ;
#131 = EDGE_LOOP ( 'NONE', ( #56, #90, #265, #344 ) ) ;
#132 = CYLINDRICAL_SURFACE ( 'NONE', #218, 4.762500000000001100 ) ;
#133 = DATE_AND_TIME ( #207, #276 ) ;
#134 = CC_DESIGN_PERSON_AND_ORGANIZATION_ASSIGNMENT ( #85, #100, ( #51 ) ) ;
#135 = COORDINATED_UNIVERSAL_TIME_OFFSET ( 9, 0, .AHEAD. ) ;
#136 = ORIENTED_EDGE ( 'NONE', *, *, #246, .T. ) ;
#137 = AXIS2_PLACEMENT_3D ( 'NONE', #102, #80, #240 ) ;
#138 = CYLINDRICAL_SURFACE ( 'NONE', #171, 4.762500000000000200 ) ;
#139 = PERSON_AND_ORGANIZATION ( #38, #151 ) ;
#140 = LOCAL_TIME ( 13, 47, 55.00000000000000000, #220 ) ;
#141 = DIRECTION ( 'NONE',  ( 0.0000000000000000000, -1.000000000000000000, 0.0000000000000000000 ) ) ;
#142 = EDGE_LOOP ( 'NONE', ( #98, #68 ) ) ;
#143 = DIRECTION ( 'NONE',  ( 1.000000000000000000, 6.123233995736766000E-017, -0.0000000000000000000 ) ) ;
#144 = ORIENTED_EDGE ( 'NONE', *, *, #319, .F. ) ;
#145 = EDGE_CURVE ( 'NONE', #325, #268, #223, .T. ) ;
#146 = DIRECTION ( 'NONE',  ( 1.000000000000000000, 6.123233995736766000E-017, -0.0000000000000000000 ) ) ;
#147 = FACE_OUTER_BOUND ( 'NONE', #226, .T. ) ;
#148 = DIRECTION ( 'NONE',  ( -1.000000000000000000, -0.0000000000000000000, -0.0000000000000000000 ) ) ;
#149 = DIRECTION ( 'NONE',  ( 6.123233995736766000E-017, -1.000000000000000000, 0.0000000000000000000 ) ) ;
#150 = CARTESIAN_POINT ( 'NONE',  ( 38.33800000000000100, 5.832380380939271100E-016, -4.762500000000001100 ) ) ;
#151 = ORGANIZATION ( 'UNSPECIFIED', 'UNSPECIFIED', '' ) ;
#152 = PRODUCT_DEFINITION ( 'UNKNOWN', '', #245, #247 ) ;
#153 =( NAMED_UNIT ( * ) PLANE_ANGLE_UNIT ( ) SI_UNIT ( $, .RADIAN. ) );
#154 = ORIENTED_EDGE ( 'NONE', *, *, #108, .F. ) ;
#155 = APPROVAL_ROLE ( '' ) ;
#156 = DIRECTION ( 'NONE',  ( 1.000000000000000000, 0.0000000000000000000, 0.0000000000000000000 ) ) ;
#157 = VECTOR ( 'NONE', #251, 1000.000000000000000 ) ;
#158 = ADVANCED_FACE ( 'NONE', ( #147 ), #264, .F. ) ;
#159 = AXIS2_PLACEMENT_3D ( 'NONE', #209, #283, #115 ) ;
#160 = ORIENTED_EDGE ( 'NONE', *, *, #281, .T. ) ;
#161 = ADVANCED_BREP_SHAPE_REPRESENTATION ( '03-3057', ( #228, #365, #111 ), #6 ) ;
#162 = EDGE_CURVE ( 'NONE', #61, #107, #14, .T. ) ;
#163 = CIRCLE ( 'NONE', #12, 0.7619999999999996800 ) ;
#164 = DIRECTION ( 'NONE',  ( 0.0000000000000000000, 0.0000000000000000000, 1.000000000000000000 ) ) ;
#165 = ORIENTED_EDGE ( 'NONE', *, *, #62, .T. ) ;
#166 = CARTESIAN_POINT ( 'NONE',  ( 38.33800000000000100, 0.0000000000000000000, 0.0000000000000000000 ) ) ;
#167 = APPROVAL ( #317, 'UNSPECIFIED' ) ;
#168 = CARTESIAN_POINT ( 'NONE',  ( -49.30000000000000400, -3.018754359898225900E-015, 0.0000000000000000000 ) ) ;
#169 = CARTESIAN_POINT ( 'NONE',  ( -49.30000000000000400, -4.762499999999999300, 5.832380380939265200E-016 ) ) ;
#170 = CARTESIAN_POINT ( 'NONE',  ( -49.30000000000000400, 4.762499999999994000, 0.0000000000000000000 ) ) ;
#171 = AXIS2_PLACEMENT_3D ( 'NONE', #213, #262, #350 ) ;
#172 = CARTESIAN_POINT ( 'NONE',  ( 38.33800000000000100, 0.0000000000000000000, 0.0000000000000000000 ) ) ;
#173 = DIRECTION ( 'NONE',  ( -1.000000000000000000, -0.0000000000000000000, -0.0000000000000000000 ) ) ;
#174 = TOROIDAL_SURFACE ( 'NONE', #42, 4.000500000000000600, 0.7619999999999996800 ) ;
#175 = ORIENTED_EDGE ( 'NONE', *, *, #23, .F. ) ;
#176 = DIRECTION ( 'NONE',  ( -1.000000000000000000, -0.0000000000000000000, -0.0000000000000000000 ) ) ;
#177 = CARTESIAN_POINT ( 'NONE',  ( 1.000000000000000000, 0.0000000000000000000, 4.762500000000000200 ) ) ;
#178 = DIRECTION ( 'NONE',  ( 0.7071067811865482400, -0.7071067811865469100, 8.659560562354925500E-017 ) ) ;
#179 = DATE_TIME_ROLE ( 'creation_date' ) ;
#180 = DIRECTION ( 'NONE',  ( 0.0000000000000000000, 0.0000000000000000000, 1.000000000000000000 ) ) ;
#181 = DIRECTION ( 'NONE',  ( -4.553079989440438700E-017, 1.000000000000000000, 0.0000000000000000000 ) ) ;
#182 = ORIENTED_EDGE ( 'NONE', *, *, #129, .F. ) ;
#183 = LINE ( 'NONE', #252, #329 ) ;
#184 = EDGE_CURVE ( 'NONE', #50, #203, #88, .T. ) ;
#185 = ADVANCED_FACE ( 'NONE', ( #299 ), #138, .T. ) ;
#186 = ORIENTED_EDGE ( 'NONE', *, *, #129, .T. ) ;
#187 = CIRCLE ( 'NONE', #249, 4.762500000000001100 ) ;
#188 = CC_DESIGN_APPROVAL ( #167, ( #152 ) ) ;
#189 = EDGE_CURVE ( 'NONE', #192, #306, #217, .T. ) ;
#190 = ORIENTED_EDGE ( 'NONE', *, *, #266, .F. ) ;
#191 = CIRCLE ( 'NONE', #241, 4.762500000000000200 ) ;
#192 = VERTEX_POINT ( 'NONE', #99 ) ;
#193 = AXIS2_PLACEMENT_3D ( 'NONE', #257, #44, #97 ) ;
#194 = CIRCLE ( 'NONE', #269, 4.762500000000001100 ) ;
#195 = CARTESIAN_POINT ( 'NONE',  ( 0.9999999999999988900, 6.123233995736759900E-017, 0.0000000000000000000 ) ) ;
#196 = CARTESIAN_POINT ( 'NONE',  ( 38.33800000000000100, 4.899199519988987800E-016, -4.000500000000000600 ) ) ;
#197 = LOCAL_TIME ( 13, 47, 55.00000000000000000, #271 ) ;
#198 = PERSON_AND_ORGANIZATION ( #38, #151 ) ;
#199 = DIRECTION ( 'NONE',  ( 0.0000000000000000000, 1.000000000000000000, 0.0000000000000000000 ) ) ;
#200 = EDGE_LOOP ( 'NONE', ( #354, #27, #222, #244 ) ) ;
#201 = CARTESIAN_POINT ( 'NONE',  ( 0.0000000000000000000, 0.0000000000000000000, 0.0000000000000000000 ) ) ;
#202 = AXIS2_PLACEMENT_3D ( 'NONE', #92, #307, #343 ) ;
#203 = VERTEX_POINT ( 'NONE', #289 ) ;
#204 = DIRECTION ( 'NONE',  ( 0.0000000000000000000, 0.0000000000000000000, 1.000000000000000000 ) ) ;
#205 = CARTESIAN_POINT ( 'NONE',  ( 0.0000000000000000000, 0.0000000000000000000, 0.0000000000000000000 ) ) ;
#206 = FACE_OUTER_BOUND ( 'NONE', #255, .T. ) ;
#207 = CALENDAR_DATE ( 2023, 30, 5 ) ;
#208 = CC_DESIGN_PERSON_AND_ORGANIZATION_ASSIGNMENT ( #210, #352, ( #152 ) ) ;
#209 = CARTESIAN_POINT ( 'NONE',  ( -49.80000000000000400, -3.049370529876910100E-015, 0.0000000000000000000 ) ) ;
#210 = PERSON_AND_ORGANIZATION ( #38, #151 ) ;
#211 = EDGE_LOOP ( 'NONE', ( #280, #127, #41, #361 ) ) ;
#212 = APPROVAL_ROLE ( '' ) ;
#213 = CARTESIAN_POINT ( 'NONE',  ( 0.0000000000000000000, 0.0000000000000000000, 0.0000000000000000000 ) ) ;
#214 = EDGE_CURVE ( 'NONE', #192, #107, #362, .T. ) ;
#215 = DIRECTION ( 'NONE',  ( -1.000000000000000000, -0.0000000000000000000, -0.0000000000000000000 ) ) ;
#216 = ADVANCED_FACE ( 'NONE', ( #284 ), #132, .T. ) ;
#217 = CIRCLE ( 'NONE', #159, 4.262499999999997500 ) ;
#218 = AXIS2_PLACEMENT_3D ( 'NONE', #205, #173, #16 ) ;
#219 = PERSON_AND_ORGANIZATION ( #38, #151 ) ;
#220 = COORDINATED_UNIVERSAL_TIME_OFFSET ( 9, 0, .AHEAD. ) ;
#221 = VERTEX_POINT ( 'NONE', #177 ) ;
#222 = ORIENTED_EDGE ( 'NONE', *, *, #62, .F. ) ;
#223 = CIRCLE ( 'NONE', #54, 4.762500000000000200 ) ;
#224 = SHAPE_DEFINITION_REPRESENTATION ( #124, #161 ) ;
#225 = DIRECTION ( 'NONE',  ( 0.0000000000000000000, -1.224646799147353500E-016, 1.000000000000000000 ) ) ;
#226 = EDGE_LOOP ( 'NONE', ( #165, #136 ) ) ;
#227 = CC_DESIGN_DATE_AND_TIME_ASSIGNMENT ( #272, #179, ( #152 ) ) ;
#228 = MANIFOLD_SOLID_BREP ( 'È¸Àü3', #77 ) ;
#229 = PLANE ( 'NONE',  #330 ) ;
#230 = EDGE_CURVE ( 'NONE', #306, #61, #28, .T. ) ;
#231 = DIRECTION ( 'NONE',  ( -6.123233995736766000E-017, 1.000000000000000000, 0.0000000000000000000 ) ) ;
#232 = CYLINDRICAL_SURFACE ( 'NONE', #29, 4.762500000000000200 ) ;
#233 = AXIS2_PLACEMENT_3D ( 'NONE', #195, #356, #181 ) ;
#234 = CARTESIAN_POINT ( 'NONE',  ( 38.33800000000000100, 0.0000000000000000000, 0.0000000000000000000 ) ) ;
#235 = EDGE_LOOP ( 'NONE', ( #144, #105 ) ) ;
#236 = DIRECTION ( 'NONE',  ( 0.0000000000000000000, 0.0000000000000000000, 1.000000000000000000 ) ) ;
#237 = DIRECTION ( 'NONE',  ( 1.000000000000000000, 6.123233995736766000E-017, -0.0000000000000000000 ) ) ;
#238 = PERSON_AND_ORGANIZATION_ROLE ( 'design_supplier' ) ;
#239 = CARTESIAN_POINT ( 'NONE',  ( 0.9999999999999988900, 6.123233995736759900E-017, 0.0000000000000000000 ) ) ;
#240 = DIRECTION ( 'NONE',  ( 0.0000000000000000000, 0.0000000000000000000, 1.000000000000000000 ) ) ;
#241 = AXIS2_PLACEMENT_3D ( 'NONE', #24, #215, #32 ) ;
#242 = ADVANCED_FACE ( 'NONE', ( #347 ), #57, .T. ) ;
#243 = CIRCLE ( 'NONE', #310, 0.7619999999999996800 ) ;
#244 = ORIENTED_EDGE ( 'NONE', *, *, #340, .F. ) ;
#245 = PRODUCT_DEFINITION_FORMATION_WITH_SPECIFIED_SOURCE ( 'ANY', '', #51, .NOT_KNOWN. ) ;
#246 = EDGE_CURVE ( 'NONE', #116, #221, #119, .T. ) ;
#247 = DESIGN_CONTEXT ( 'detailed design', #293, 'design' ) ;
#248 = FACE_OUTER_BOUND ( 'NONE', #211, .T. ) ;
#249 = AXIS2_PLACEMENT_3D ( 'NONE', #172, #15, #204 ) ;
#250 = EDGE_LOOP ( 'NONE', ( #357, #175 ) ) ;
#251 = DIRECTION ( 'NONE',  ( 1.000000000000000000, 6.123233995736766000E-017, -0.0000000000000000000 ) ) ;
#252 = CARTESIAN_POINT ( 'NONE',  ( -2.916190190469635100E-016, 4.762500000000000200, 0.0000000000000000000 ) ) ;
#253 = VERTEX_POINT ( 'NONE', #150 ) ;
#254 = AXIS2_PLACEMENT_3D ( 'NONE', #308, #146, #231 ) ;
#255 = EDGE_LOOP ( 'NONE', ( #154, #86, #339, #30 ) ) ;
#256 = CARTESIAN_POINT ( 'NONE',  ( 0.9999999999999986700, 4.762500000000000200, 0.0000000000000000000 ) ) ;
#257 = CARTESIAN_POINT ( 'NONE',  ( -49.30000000000000400, -3.018754359898225900E-015, 0.0000000000000000000 ) ) ;
#258 = CYLINDRICAL_SURFACE ( 'NONE', #285, 4.762500000000001100 ) ;
#259 = DIRECTION ( 'NONE',  ( 0.0000000000000000000, 0.0000000000000000000, 1.000000000000000000 ) ) ;
#260 = APPROVAL ( #22, 'UNSPECIFIED' ) ;
#261 = MECHANICAL_CONTEXT ( 'NONE', #46, 'mechanical' ) ;
#262 = DIRECTION ( 'NONE',  ( 1.000000000000000000, 6.123233995736766000E-017, -0.0000000000000000000 ) ) ;
#263 = PERSON_AND_ORGANIZATION_ROLE ( 'classification_officer' ) ;
#264 = PLANE ( 'NONE',  #104 ) ;
#265 = ORIENTED_EDGE ( 'NONE', *, *, #162, .F. ) ;
#266 = EDGE_CURVE ( 'NONE', #268, #325, #70, .T. ) ;
#267 = ADVANCED_FACE ( 'NONE', ( #270 ), #258, .T. ) ;
#268 = VERTEX_POINT ( 'NONE', #82 ) ;
#269 = AXIS2_PLACEMENT_3D ( 'NONE', #166, #148, #312 ) ;
#270 = FACE_OUTER_BOUND ( 'NONE', #200, .T. ) ;
#271 = COORDINATED_UNIVERSAL_TIME_OFFSET ( 9, 0, .AHEAD. ) ;
#272 = DATE_AND_TIME ( #351, #67 ) ;
#273 = EDGE_LOOP ( 'NONE', ( #35, #160, #125, #87 ) ) ;
#274 = AXIS2_PLACEMENT_3D ( 'NONE', #168, #9, #199 ) ;
#275 = VECTOR ( 'NONE', #178, 1000.000000000000000 ) ;
#276 = LOCAL_TIME ( 13, 47, 55.00000000000000000, #363 ) ;
#277 = APPROVAL_DATE_TIME ( #364, #167 ) ;
#278 = DIRECTION ( 'NONE',  ( -0.0000000000000000000, 0.0000000000000000000, 1.000000000000000000 ) ) ;
#279 = CC_DESIGN_APPROVAL ( #260, ( #245 ) ) ;
#280 = ORIENTED_EDGE ( 'NONE', *, *, #184, .T. ) ;
#281 = EDGE_CURVE ( 'NONE', #253, #314, #194, .T. ) ;
#282 = PLANE ( 'NONE',  #26 ) ;
#283 = DIRECTION ( 'NONE',  ( 1.000000000000000000, 6.123233995736766000E-017, -0.0000000000000000000 ) ) ;
#284 = FACE_OUTER_BOUND ( 'NONE', #273, .T. ) ;
#285 = AXIS2_PLACEMENT_3D ( 'NONE', #128, #118, #322 ) ;
#286 = DIRECTION ( 'NONE',  ( 1.000000000000000000, 6.123233995736766000E-017, -0.0000000000000000000 ) ) ;
#287 = APPROVAL_DATE_TIME ( #45, #260 ) ;
#288 = CARTESIAN_POINT ( 'NONE',  ( 0.0000000000000000000, 0.0000000000000000000, 0.0000000000000000000 ) ) ;
#289 = CARTESIAN_POINT ( 'NONE',  ( 39.10000000000000100, 5.365789950464128500E-016, -4.000500000000000600 ) ) ;
#290 = APPROVAL_PERSON_ORGANIZATION ( #7, #167, #155 ) ;
#291 = UNCERTAINTY_MEASURE_WITH_UNIT (LENGTH_MEASURE( 1.000000000000000100E-005 ), #43, 'distance_accuracy_value', 'NONE');
#292 = ORIENTED_EDGE ( 'NONE', *, *, #81, .F. ) ;
#293 = APPLICATION_CONTEXT ( 'configuration controlled 3d designs of mechanical parts and assemblies' ) ;
#294 = CARTESIAN_POINT ( 'NONE',  ( 39.10000000000000100, 0.0000000000000000000, 0.0000000000000000000 ) ) ;
#295 = APPROVAL_STATUS ( 'not_yet_approved' ) ;
#296 = DIRECTION ( 'NONE',  ( 0.0000000000000000000, 1.000000000000000000, 0.0000000000000000000 ) ) ;
#297 = CARTESIAN_POINT ( 'NONE',  ( 38.33800000000000100, 0.0000000000000000000, 0.0000000000000000000 ) ) ;
#298 = ADVANCED_FACE ( 'NONE', ( #206 ), #64, .T. ) ;
#299 = FACE_OUTER_BOUND ( 'NONE', #19, .T. ) ;
#300 = ORIENTED_EDGE ( 'NONE', *, *, #4, .T. ) ;
#301 = CC_DESIGN_PERSON_AND_ORGANIZATION_ASSIGNMENT ( #219, #48, ( #245 ) ) ;
#302 = EDGE_CURVE ( 'NONE', #314, #253, #187, .T. ) ;
#303 = LINE ( 'NONE', #66, #157 ) ;
#304 = FACE_OUTER_BOUND ( 'NONE', #142, .T. ) ;
#305 = AXIS2_PLACEMENT_3D ( 'NONE', #297, #333, #164 ) ;
#306 = VERTEX_POINT ( 'NONE', #53 ) ;
#307 = DIRECTION ( 'NONE',  ( -1.000000000000000000, -0.0000000000000000000, -0.0000000000000000000 ) ) ;
#308 = CARTESIAN_POINT ( 'NONE',  ( 0.9999999999999991100, 4.762500000000000200, 0.0000000000000000000 ) ) ;
#309 = CIRCLE ( 'NONE', #274, 4.762499999999996600 ) ;
#310 = AXIS2_PLACEMENT_3D ( 'NONE', #34, #141, #335 ) ;
#311 = CARTESIAN_POINT ( 'NONE',  ( 38.33800000000000100, 0.0000000000000000000, 4.762500000000001100 ) ) ;
#312 = DIRECTION ( 'NONE',  ( 0.0000000000000000000, 0.0000000000000000000, 1.000000000000000000 ) ) ;
#313 = DIRECTION ( 'NONE',  ( -1.000000000000000000, -6.123233995736766000E-017, 0.0000000000000000000 ) ) ;
#314 = VERTEX_POINT ( 'NONE', #311 ) ;
#315 = DIRECTION ( 'NONE',  ( 0.0000000000000000000, 0.0000000000000000000, -1.000000000000000000 ) ) ;
#316 = CC_DESIGN_PERSON_AND_ORGANIZATION_ASSIGNMENT ( #139, #238, ( #245 ) ) ;
#317 = APPROVAL_STATUS ( 'not_yet_approved' ) ;
#318 = DIRECTION ( 'NONE',  ( -4.553079989440438700E-017, 1.000000000000000000, 0.0000000000000000000 ) ) ;
#319 = EDGE_CURVE ( 'NONE', #306, #192, #327, .T. ) ;
#320 = ORIENTED_EDGE ( 'NONE', *, *, #162, .T. ) ;
#321 = DIRECTION ( 'NONE',  ( -1.000000000000000000, -0.0000000000000000000, -0.0000000000000000000 ) ) ;
#322 = DIRECTION ( 'NONE',  ( 0.0000000000000000000, 0.0000000000000000000, 1.000000000000000000 ) ) ;
#323 = ADVANCED_FACE ( 'NONE', ( #110 ), #282, .T. ) ;
#324 = VECTOR ( 'NONE', #176, 1000.000000000000000 ) ;
#325 = VERTEX_POINT ( 'NONE', #256 ) ;
#326 = AXIS2_PLACEMENT_3D ( 'NONE', #96, #286, #117 ) ;
#327 = CIRCLE ( 'NONE', #326, 4.262499999999997500 ) ;
#328 = ORIENTED_EDGE ( 'NONE', *, *, #4, .F. ) ;
#329 = VECTOR ( 'NONE', #143, 1000.000000000000000 ) ;
#330 = AXIS2_PLACEMENT_3D ( 'NONE', #69, #91, #278 ) ;
#331 = ORIENTED_EDGE ( 'NONE', *, *, #81, .T. ) ;
#332 = CALENDAR_DATE ( 2023, 30, 5 ) ;
#333 = DIRECTION ( 'NONE',  ( -1.000000000000000000, -0.0000000000000000000, -0.0000000000000000000 ) ) ;
#334 = APPROVAL_DATE_TIME ( #58, #33 ) ;
#335 = DIRECTION ( 'NONE',  ( 0.0000000000000000000, 0.0000000000000000000, -1.000000000000000000 ) ) ;
#336 = SECURITY_CLASSIFICATION ( '', '', #79 ) ;
#337 = LOCAL_TIME ( 13, 47, 55.00000000000000000, #59 ) ;
#338 = DIRECTION ( 'NONE',  ( 1.000000000000000000, 6.123233995736766000E-017, -0.0000000000000000000 ) ) ;
#339 = ORIENTED_EDGE ( 'NONE', *, *, #94, .T. ) ;
#340 = EDGE_CURVE ( 'NONE', #314, #221, #39, .T. ) ;
#341 = CARTESIAN_POINT ( 'NONE',  ( 1.000000000000000000, 5.832380380939270100E-016, -4.762500000000000200 ) ) ;
#342 = EDGE_LOOP ( 'NONE', ( #320, #186, #8, #328 ) ) ;
#343 = DIRECTION ( 'NONE',  ( 0.0000000000000000000, 0.0000000000000000000, 1.000000000000000000 ) ) ;
#344 = ORIENTED_EDGE ( 'NONE', *, *, #230, .F. ) ;
#345 = VECTOR ( 'NONE', #321, 1000.000000000000000 ) ;
#346 = DIRECTION ( 'NONE',  ( -1.000000000000000000, -0.0000000000000000000, -0.0000000000000000000 ) ) ;
#347 = FACE_OUTER_BOUND ( 'NONE', #131, .T. ) ;
#348 = APPROVAL_PERSON_ORGANIZATION ( #65, #33, #126 ) ;
#349 =( NAMED_UNIT ( * ) SI_UNIT ( $, .STERADIAN. ) SOLID_ANGLE_UNIT ( ) );
#350 = DIRECTION ( 'NONE',  ( -6.123233995736766000E-017, 1.000000000000000000, 0.0000000000000000000 ) ) ;
#351 = CALENDAR_DATE ( 2023, 30, 5 ) ;
#352 = PERSON_AND_ORGANIZATION_ROLE ( 'creator' ) ;
#353 = DIRECTION ( 'NONE',  ( -1.000000000000000000, -0.0000000000000000000, -0.0000000000000000000 ) ) ;
#354 = ORIENTED_EDGE ( 'NONE', *, *, #302, .T. ) ;
#355 = LINE ( 'NONE', #358, #345 ) ;
#356 = DIRECTION ( 'NONE',  ( 1.000000000000000000, 6.123233995736766000E-017, -0.0000000000000000000 ) ) ;
#357 = ORIENTED_EDGE ( 'NONE', *, *, #184, .F. ) ;
#358 = CARTESIAN_POINT ( 'NONE',  ( 0.0000000000000000000, 5.832380380939271100E-016, -4.762500000000001100 ) ) ;
#359 = ADVANCED_FACE ( 'NONE', ( #248 ), #174, .T. ) ;
#360 = AXIS2_PLACEMENT_3D ( 'NONE', #11, #37, #296 ) ;
#361 = ORIENTED_EDGE ( 'NONE', *, *, #94, .F. ) ;
#362 = LINE ( 'NONE', #73, #275 ) ;
#363 = COORDINATED_UNIVERSAL_TIME_OFFSET ( 9, 0, .AHEAD. ) ;
#364 = DATE_AND_TIME ( #74, #140 ) ;
#365 = MANIFOLD_SOLID_BREP ( 'È¸Àü4', #63 ) ;
ENDSEC;
END-ISO-10303-21;
