ISO-10303-21;
HEADER;
FILE_DESCRIPTION (( 'STEP AP203' ),
    '1' );
FILE_NAME ('03-3058.STEP',
    '2023-05-30T04:47:31',
    ( 'USER' ),
    ( 'Hewlett-Packard Company' ),
    'SwSTEP 2.0',
    'SolidWorks 2014',
    '' );
FILE_SCHEMA (( 'CONFIG_CONTROL_DESIGN' ));
ENDSEC;

DATA;
#1 = VECTOR ( 'NONE', #245, 999.9999999999998900 ) ;
#2 = ORIENTED_EDGE ( 'NONE', *, *, #230, .F. ) ;
#3 = AXIS2_PLACEMENT_3D ( 'NONE', #330, #271, #82 ) ;
#4 = AXIS2_PLACEMENT_3D ( 'NONE', #364, #169, #360 ) ;
#5 = EDGE_CURVE ( 'NONE', #229, #307, #341, .T. ) ;
#6 = CC_DESIGN_APPROVAL ( #350, ( #290 ) ) ;
#7 = EDGE_CURVE ( 'NONE', #52, #11, #127, .T. ) ;
#8 = CYLINDRICAL_SURFACE ( 'NONE', #20, 3.174999999999999800 ) ;
#9 = LOCAL_TIME ( 13, 47, 31.00000000000000000, #87 ) ;
#10 = DIRECTION ( 'NONE',  ( 0.0000000000000000000, 0.0000000000000000000, 1.000000000000000000 ) ) ;
#11 = VERTEX_POINT ( 'NONE', #129 ) ;
#12 = AXIS2_PLACEMENT_3D ( 'NONE', #161, #216, #321 ) ;
#13 = CARTESIAN_POINT ( 'NONE',  ( -43.45000000000001000, -2.660545171147625300E-015, 0.0000000000000000000 ) ) ;
#14 = EDGE_CURVE ( 'NONE', #40, #192, #60, .T. ) ;
#15 = CARTESIAN_POINT ( 'NONE',  ( 32.75000000000000000, 3.421663156817703900E-016, -2.412999999999999800 ) ) ;
#16 = LINE ( 'NONE', #269, #1 ) ;
#17 = ORIENTED_EDGE ( 'NONE', *, *, #28, .T. ) ;
#18 = DIRECTION ( 'NONE',  ( 0.0000000000000000000, 0.0000000000000000000, 1.000000000000000000 ) ) ;
#19 = APPROVAL_DATE_TIME ( #92, #224 ) ;
#20 = AXIS2_PLACEMENT_3D ( 'NONE', #110, #273, #78 ) ;
#21 =( NAMED_UNIT ( * ) SI_UNIT ( $, .STERADIAN. ) SOLID_ANGLE_UNIT ( ) );
#22 = DIRECTION ( 'NONE',  ( 1.000000000000000000, 0.0000000000000000000, 0.0000000000000000000 ) ) ;
#23 = PERSON_AND_ORGANIZATION_ROLE ( 'creator' ) ;
#24 = EDGE_LOOP ( 'NONE', ( #210, #200, #252, #288 ) ) ;
#25 = ADVANCED_FACE ( 'NONE', ( #259 ), #36, .T. ) ;
#26 = EDGE_CURVE ( 'NONE', #223, #52, #116, .T. ) ;
#27 = DIRECTION ( 'NONE',  ( 0.0000000000000000000, 0.0000000000000000000, -1.000000000000000000 ) ) ;
#28 = EDGE_CURVE ( 'NONE', #34, #307, #45, .T. ) ;
#29 = CARTESIAN_POINT ( 'NONE',  ( 1.000000000000000000, 0.0000000000000000000, 0.0000000000000000000 ) ) ;
#30 = CC_DESIGN_SECURITY_CLASSIFICATION ( #290, ( #202 ) ) ;
#31 = CIRCLE ( 'NONE', #250, 2.412999999999999800 ) ;
#32 = APPROVAL_PERSON_ORGANIZATION ( #104, #224, #243 ) ;
#33 = EDGE_CURVE ( 'NONE', #133, #11, #334, .T. ) ;
#34 = VERTEX_POINT ( 'NONE', #125 ) ;
#35 = ORIENTED_EDGE ( 'NONE', *, *, #213, .F. ) ;
#36 = CONICAL_SURFACE ( 'NONE', #331, 3.174999999999998000, 0.7853981633974479500 ) ;
#37 = ORIENTED_EDGE ( 'NONE', *, *, #26, .F. ) ;
#38 = COORDINATED_UNIVERSAL_TIME_OFFSET ( 9, 0, .AHEAD. ) ;
#39 = ORIENTED_EDGE ( 'NONE', *, *, #348, .F. ) ;
#40 = VERTEX_POINT ( 'NONE', #184 ) ;
#41 = DIRECTION ( 'NONE',  ( 0.0000000000000000000, 1.000000000000000000, 0.0000000000000000000 ) ) ;
#42 = AXIS2_PLACEMENT_3D ( 'NONE', #154, #287, #206 ) ;
#43 = EDGE_CURVE ( 'NONE', #79, #34, #317, .T. ) ;
#44 = DIRECTION ( 'NONE',  ( 1.000000000000000000, 6.123233995736766000E-017, -0.0000000000000000000 ) ) ;
#45 = LINE ( 'NONE', #96, #255 ) ;
#46 = CARTESIAN_POINT ( 'NONE',  ( 32.75000000000000000, 0.0000000000000000000, 0.0000000000000000000 ) ) ;
#47 = PRODUCT_RELATED_PRODUCT_CATEGORY ( 'detail', '', ( #182 ) ) ;
#48 = LOCAL_TIME ( 13, 47, 31.00000000000000000, #122 ) ;
#49 = DIRECTION ( 'NONE',  ( 0.0000000000000000000, 0.0000000000000000000, 1.000000000000000000 ) ) ;
#50 = PLANE ( 'NONE',  #316 ) ;
#51 = APPLICATION_PROTOCOL_DEFINITION ( 'international standard', 'config_control_design', 1994, #76 ) ;
#52 = VERTEX_POINT ( 'NONE', #234 ) ;
#53 = CARTESIAN_POINT ( 'NONE',  ( 0.9999999999999991100, 3.174999999999999800, 0.0000000000000000000 ) ) ;
#54 = APPROVAL_STATUS ( 'not_yet_approved' ) ;
#55 = DIRECTION ( 'NONE',  ( -6.123233995736766000E-017, 1.000000000000000000, 0.0000000000000000000 ) ) ;
#56 = ADVANCED_FACE ( 'NONE', ( #178 ), #248, .T. ) ;
#57 = CARTESIAN_POINT ( 'NONE',  ( 0.9999999999999995600, 3.174999999999999800, 0.0000000000000000000 ) ) ;
#58 = AXIS2_PLACEMENT_3D ( 'NONE', #139, #328, #27 ) ;
#59 = DIRECTION ( 'NONE',  ( -1.000000000000000000, -0.0000000000000000000, -0.0000000000000000000 ) ) ;
#60 = CIRCLE ( 'NONE', #346, 3.174999999999999800 ) ;
#61 = ORGANIZATION ( 'UNSPECIFIED', 'UNSPECIFIED', '' ) ;
#62 = VECTOR ( 'NONE', #189, 1000.000000000000000 ) ;
#63 = VERTEX_POINT ( 'NONE', #15 ) ;
#64 = ORIENTED_EDGE ( 'NONE', *, *, #157, .T. ) ;
#65 = EDGE_CURVE ( 'NONE', #363, #63, #102, .T. ) ;
#66 = AXIS2_PLACEMENT_3D ( 'NONE', #97, #115, #143 ) ;
#67 = CIRCLE ( 'NONE', #177, 3.174999999999999800 ) ;
#68 = ORIENTED_EDGE ( 'NONE', *, *, #310, .F. ) ;
#69 = EDGE_LOOP ( 'NONE', ( #35, #88, #201, #251 ) ) ;
#70 = AXIS2_PLACEMENT_3D ( 'NONE', #106, #268, #107 ) ;
#71 = LOCAL_TIME ( 13, 47, 31.00000000000000000, #150 ) ;
#72 = CARTESIAN_POINT ( 'NONE',  ( -42.95000000000001000, -2.629929001168941500E-015, 0.0000000000000000000 ) ) ;
#73 = DIRECTION ( 'NONE',  ( 1.000000000000000000, 6.123233995736766000E-017, -0.0000000000000000000 ) ) ;
#74 = FACE_OUTER_BOUND ( 'NONE', #347, .T. ) ;
#75 = DIRECTION ( 'NONE',  ( 1.000000000000000000, 6.123233995736766000E-017, -0.0000000000000000000 ) ) ;
#76 = APPLICATION_CONTEXT ( 'configuration controlled 3d designs of mechanical parts and assemblies' ) ;
#77 = PERSON_AND_ORGANIZATION_ROLE ( 'creator' ) ;
#78 = DIRECTION ( 'NONE',  ( -6.123233995736766000E-017, 1.000000000000000000, 0.0000000000000000000 ) ) ;
#79 = VERTEX_POINT ( 'NONE', #233 ) ;
#80 = CARTESIAN_POINT ( 'NONE',  ( -42.95000000000001000, -3.175000000000000700, 3.888253587292844600E-016 ) ) ;
#81 = ADVANCED_FACE ( 'NONE', ( #121 ), #174, .T. ) ;
#82 = DIRECTION ( 'NONE',  ( 0.0000000000000000000, 0.0000000000000000000, 1.000000000000000000 ) ) ;
#83 = EDGE_CURVE ( 'NONE', #63, #34, #238, .T. ) ;
#84 = CARTESIAN_POINT ( 'NONE',  ( 1.000000000000000000, 0.0000000000000000000, 3.174999999999999800 ) ) ;
#85 = CIRCLE ( 'NONE', #58, 0.7619999999999994600 ) ;
#86 = ORIENTED_EDGE ( 'NONE', *, *, #43, .F. ) ;
#87 = COORDINATED_UNIVERSAL_TIME_OFFSET ( 9, 0, .AHEAD. ) ;
#88 = ORIENTED_EDGE ( 'NONE', *, *, #26, .T. ) ;
#89 = ORIENTED_EDGE ( 'NONE', *, *, #332, .F. ) ;
#90 = CC_DESIGN_PERSON_AND_ORGANIZATION_ASSIGNMENT ( #342, #135, ( #182 ) ) ;
#91 = VECTOR ( 'NONE', #59, 1000.000000000000000 ) ;
#92 = DATE_AND_TIME ( #175, #240 ) ;
#93 = AXIS2_PLACEMENT_3D ( 'NONE', #141, #22, #219 ) ;
#94 = PRODUCT_DEFINITION_SHAPE ( 'NONE', 'NONE',  #114 ) ;
#95 = ORIENTED_EDGE ( 'NONE', *, *, #14, .T. ) ;
#96 = CARTESIAN_POINT ( 'NONE',  ( 0.0000000000000000000, 3.888253587292846100E-016, -3.174999999999999800 ) ) ;
#97 = CARTESIAN_POINT ( 'NONE',  ( 0.0000000000000000000, 0.0000000000000000000, 0.0000000000000000000 ) ) ;
#98 = ORIENTED_EDGE ( 'NONE', *, *, #262, .F. ) ;
#99 = ORIENTED_EDGE ( 'NONE', *, *, #83, .F. ) ;
#100 = EDGE_CURVE ( 'NONE', #79, #229, #312, .T. ) ;
#101 = DIRECTION ( 'NONE',  ( 1.000000000000000000, 6.123233995736766000E-017, -0.0000000000000000000 ) ) ;
#102 = CIRCLE ( 'NONE', #253, 2.412999999999999800 ) ;
#103 = DIRECTION ( 'NONE',  ( 0.0000000000000000000, 1.000000000000000000, 0.0000000000000000000 ) ) ;
#104 = PERSON_AND_ORGANIZATION ( #208, #61 ) ;
#105 = DIRECTION ( 'NONE',  ( -1.000000000000000000, 0.0000000000000000000, -0.0000000000000000000 ) ) ;
#106 = CARTESIAN_POINT ( 'NONE',  ( 0.0000000000000000000, 0.0000000000000000000, 0.0000000000000000000 ) ) ;
#107 = DIRECTION ( 'NONE',  ( 1.000000000000000000, 0.0000000000000000000, 0.0000000000000000000 ) ) ;
#108 = CLOSED_SHELL ( 'NONE', ( #112, #56, #247, #361, #167, #329 ) ) ;
#109 = SECURITY_CLASSIFICATION_LEVEL ( 'unclassified' ) ;
#110 = CARTESIAN_POINT ( 'NONE',  ( 0.0000000000000000000, 0.0000000000000000000, 0.0000000000000000000 ) ) ;
#111 = ORIENTED_EDGE ( 'NONE', *, *, #14, .F. ) ;
#112 = ADVANCED_FACE ( 'NONE', ( #186 ), #159, .T. ) ;
#113 = PLANE ( 'NONE',  #138 ) ;
#114 = PRODUCT_DEFINITION ( 'UNKNOWN', '', #202, #285 ) ;
#115 = DIRECTION ( 'NONE',  ( 1.000000000000000000, 6.123233995736766000E-017, -0.0000000000000000000 ) ) ;
#116 = CIRCLE ( 'NONE', #309, 2.674999999999998000 ) ;
#117 = PERSON_AND_ORGANIZATION ( #208, #61 ) ;
#118 = CYLINDRICAL_SURFACE ( 'NONE', #12, 3.174999999999999800 ) ;
#119 = EDGE_LOOP ( 'NONE', ( #302, #17, #242, #327 ) ) ;
#120 = AXIS2_PLACEMENT_3D ( 'NONE', #325, #165, #10 ) ;
#121 = FACE_OUTER_BOUND ( 'NONE', #339, .T. ) ;
#122 = COORDINATED_UNIVERSAL_TIME_OFFSET ( 9, 0, .AHEAD. ) ;
#123 = LINE ( 'NONE', #354, #62 ) ;
#124 = ORIENTED_EDGE ( 'NONE', *, *, #332, .T. ) ;
#125 = CARTESIAN_POINT ( 'NONE',  ( 31.98800000000000300, 3.888253587292845600E-016, -3.174999999999999400 ) ) ;
#126 = APPROVAL ( #359, 'UNSPECIFIED' ) ;
#127 = LINE ( 'NONE', #291, #196 ) ;
#128 = DIRECTION ( 'NONE',  ( 0.0000000000000000000, 0.0000000000000000000, 1.000000000000000000 ) ) ;
#129 = CARTESIAN_POINT ( 'NONE',  ( -42.95000000000001000, 3.174999999999995400, 0.0000000000000000000 ) ) ;
#130 =( LENGTH_UNIT ( ) NAMED_UNIT ( * ) SI_UNIT ( .MILLI., .METRE. ) );
#131 = DIRECTION ( 'NONE',  ( 1.000000000000000000, 6.123233995736766000E-017, -0.0000000000000000000 ) ) ;
#132 = FACE_OUTER_BOUND ( 'NONE', #218, .T. ) ;
#133 = VERTEX_POINT ( 'NONE', #80 ) ;
#134 = CARTESIAN_POINT ( 'NONE',  ( 32.75000000000000000, 0.0000000000000000000, 0.0000000000000000000 ) ) ;
#135 = PERSON_AND_ORGANIZATION_ROLE ( 'design_owner' ) ;
#136 = CARTESIAN_POINT ( 'NONE',  ( -43.45000000000001000, -2.675000000000000700, 3.582091887506005700E-016 ) ) ;
#137 = DATE_TIME_ROLE ( 'classification_date' ) ;
#138 = AXIS2_PLACEMENT_3D ( 'NONE', #57, #221, #55 ) ;
#139 = CARTESIAN_POINT ( 'NONE',  ( 31.98800000000000300, 0.0000000000000000000, 2.412999999999999800 ) ) ;
#140 = ADVANCED_FACE ( 'NONE', ( #305 ), #8, .T. ) ;
#141 = CARTESIAN_POINT ( 'NONE',  ( 1.000000000000000400, 2.731847993664265700E-016, 0.0000000000000000000 ) ) ;
#142 = ORIENTED_EDGE ( 'NONE', *, *, #33, .T. ) ;
#143 = DIRECTION ( 'NONE',  ( -6.123233995736766000E-017, 1.000000000000000000, 0.0000000000000000000 ) ) ;
#144 = EDGE_CURVE ( 'NONE', #363, #79, #85, .T. ) ;
#145 = LINE ( 'NONE', #156, #279 ) ;
#146 = CLOSED_SHELL ( 'NONE', ( #140, #25, #195, #222, #272, #81 ) ) ;
#147 = EDGE_LOOP ( 'NONE', ( #204, #95 ) ) ;
#148 = ADVANCED_BREP_SHAPE_REPRESENTATION ( '03-3058', ( #209, #340, #70 ), #362 ) ;
#149 = CC_DESIGN_APPROVAL ( #126, ( #114 ) ) ;
#150 = COORDINATED_UNIVERSAL_TIME_OFFSET ( 9, 0, .AHEAD. ) ;
#151 = CIRCLE ( 'NONE', #120, 3.174999999999999800 ) ;
#152 = CARTESIAN_POINT ( 'NONE',  ( 31.98800000000000300, 0.0000000000000000000, 0.0000000000000000000 ) ) ;
#153 = ORIENTED_EDGE ( 'NONE', *, *, #65, .F. ) ;
#154 = CARTESIAN_POINT ( 'NONE',  ( 31.98800000000000300, 0.0000000000000000000, 0.0000000000000000000 ) ) ;
#155 = DIRECTION ( 'NONE',  ( -1.000000000000000000, -0.0000000000000000000, -0.0000000000000000000 ) ) ;
#156 = CARTESIAN_POINT ( 'NONE',  ( 1.944126793646423000E-016, -3.174999999999999800, 3.888253587292846100E-016 ) ) ;
#157 = EDGE_CURVE ( 'NONE', #63, #363, #31, .T. ) ;
#158 = CARTESIAN_POINT ( 'NONE',  ( -42.95000000000001000, -2.629929001168941500E-015, 0.0000000000000000000 ) ) ;
#159 = CYLINDRICAL_SURFACE ( 'NONE', #3, 3.174999999999999800 ) ;
#160 = ORIENTED_EDGE ( 'NONE', *, *, #157, .F. ) ;
#161 = CARTESIAN_POINT ( 'NONE',  ( 0.0000000000000000000, 0.0000000000000000000, 0.0000000000000000000 ) ) ;
#162 = PERSON_AND_ORGANIZATION ( #208, #61 ) ;
#163 = DIRECTION ( 'NONE',  ( 6.123233995736766000E-017, -1.000000000000000000, 0.0000000000000000000 ) ) ;
#164 = APPLICATION_PROTOCOL_DEFINITION ( 'international standard', 'config_control_design', 1994, #323 ) ;
#165 = DIRECTION ( 'NONE',  ( -1.000000000000000000, -0.0000000000000000000, -0.0000000000000000000 ) ) ;
#166 = APPROVAL_ROLE ( '' ) ;
#167 = ADVANCED_FACE ( 'NONE', ( #231 ), #301, .F. ) ;
#168 = ORIENTED_EDGE ( 'NONE', *, *, #283, .T. ) ;
#169 = DIRECTION ( 'NONE',  ( -0.0000000000000000000, 1.000000000000000000, 1.224646799147353200E-016 ) ) ;
#170 = ORIENTED_EDGE ( 'NONE', *, *, #100, .T. ) ;
#171 = CARTESIAN_POINT ( 'NONE',  ( 0.0000000000000000000, 0.0000000000000000000, 3.174999999999999800 ) ) ;
#172 = CC_DESIGN_PERSON_AND_ORGANIZATION_ASSIGNMENT ( #117, #23, ( #114 ) ) ;
#173 = DIRECTION ( 'NONE',  ( -1.000000000000000000, -0.0000000000000000000, -0.0000000000000000000 ) ) ;
#174 = CYLINDRICAL_SURFACE ( 'NONE', #66, 3.174999999999999800 ) ;
#175 = CALENDAR_DATE ( 2023, 30, 5 ) ;
#176 = ORIENTED_EDGE ( 'NONE', *, *, #230, .T. ) ;
#177 = AXIS2_PLACEMENT_3D ( 'NONE', #29, #353, #320 ) ;
#178 = FACE_OUTER_BOUND ( 'NONE', #304, .T. ) ;
#179 = DATE_AND_TIME ( #249, #318 ) ;
#180 = ORIENTED_EDGE ( 'NONE', *, *, #144, .F. ) ;
#181 = PLANE ( 'NONE',  #194 ) ;
#182 = PRODUCT ( '03-3058', '03-3058', '', ( #299 ) ) ;
#183 = CC_DESIGN_DATE_AND_TIME_ASSIGNMENT ( #179, #220, ( #114 ) ) ;
#184 = CARTESIAN_POINT ( 'NONE',  ( 0.9999999999999995600, -3.174999999999999800, 3.888253587292846100E-016 ) ) ;
#185 = CARTESIAN_POINT ( 'NONE',  ( -42.95000000000001000, -2.629929001168941500E-015, 0.0000000000000000000 ) ) ;
#186 = FACE_OUTER_BOUND ( 'NONE', #119, .T. ) ;
#187 = APPROVAL_DATE_TIME ( #256, #126 ) ;
#188 = DIRECTION ( 'NONE',  ( 0.0000000000000000000, 1.000000000000000000, 0.0000000000000000000 ) ) ;
#189 = DIRECTION ( 'NONE',  ( 1.000000000000000000, 6.123233995736766000E-017, -0.0000000000000000000 ) ) ;
#190 =( NAMED_UNIT ( * ) PLANE_ANGLE_UNIT ( ) SI_UNIT ( $, .RADIAN. ) );
#191 = DIRECTION ( 'NONE',  ( 0.0000000000000000000, 0.0000000000000000000, 1.000000000000000000 ) ) ;
#192 = VERTEX_POINT ( 'NONE', #53 ) ;
#193 = APPROVAL_ROLE ( '' ) ;
#194 = AXIS2_PLACEMENT_3D ( 'NONE', #345, #358, #163 ) ;
#195 = ADVANCED_FACE ( 'NONE', ( #226 ), #113, .T. ) ;
#196 = VECTOR ( 'NONE', #265, 999.9999999999998900 ) ;
#197 = APPROVAL_PERSON_ORGANIZATION ( #261, #126, #193 ) ;
#198 = EDGE_CURVE ( 'NONE', #34, #79, #151, .T. ) ;
#199 = CONICAL_SURFACE ( 'NONE', #205, 3.174999999999998000, 0.7853981633974479500 ) ;
#200 = ORIENTED_EDGE ( 'NONE', *, *, #213, .T. ) ;
#201 = ORIENTED_EDGE ( 'NONE', *, *, #7, .T. ) ;
#202 = PRODUCT_DEFINITION_FORMATION_WITH_SPECIFIED_SOURCE ( 'ANY', '', #182, .NOT_KNOWN. ) ;
#203 = CIRCLE ( 'NONE', #303, 3.174999999999999800 ) ;
#204 = ORIENTED_EDGE ( 'NONE', *, *, #348, .T. ) ;
#205 = AXIS2_PLACEMENT_3D ( 'NONE', #185, #237, #349 ) ;
#206 = DIRECTION ( 'NONE',  ( 0.0000000000000000000, 0.0000000000000000000, 1.000000000000000000 ) ) ;
#207 = DIRECTION ( 'NONE',  ( 1.000000000000000000, 6.123233995736766000E-017, -0.0000000000000000000 ) ) ;
#208 = PERSON ( 'UNSPECIFIED', 'UNSPECIFIED', 'UNSPECIFIED', ('UNSPECIFIED'), ('UNSPECIFIED'), ('UNSPECIFIED') ) ;
#209 = MANIFOLD_SOLID_BREP ( 'È¸Àü3', #108 ) ;
#210 = ORIENTED_EDGE ( 'NONE', *, *, #310, .T. ) ;
#211 = CARTESIAN_POINT ( 'NONE',  ( -42.95000000000001000, -2.629929001168941500E-015, 0.0000000000000000000 ) ) ;
#212 = DIRECTION ( 'NONE',  ( 1.000000000000000000, 6.123233995736766000E-017, -0.0000000000000000000 ) ) ;
#213 = EDGE_CURVE ( 'NONE', #223, #133, #16, .T. ) ;
#214 = DIRECTION ( 'NONE',  ( -1.000000000000000000, -0.0000000000000000000, -0.0000000000000000000 ) ) ;
#215 = APPROVAL_DATE_TIME ( #282, #350 ) ;
#216 = DIRECTION ( 'NONE',  ( -1.000000000000000000, -0.0000000000000000000, -0.0000000000000000000 ) ) ;
#217 = FACE_OUTER_BOUND ( 'NONE', #69, .T. ) ;
#218 = EDGE_LOOP ( 'NONE', ( #153, #160 ) ) ;
#219 = DIRECTION ( 'NONE',  ( 0.0000000000000000000, 0.0000000000000000000, -1.000000000000000000 ) ) ;
#220 = DATE_TIME_ROLE ( 'creation_date' ) ;
#221 = DIRECTION ( 'NONE',  ( 1.000000000000000000, 6.123233995736766000E-017, -0.0000000000000000000 ) ) ;
#222 = ADVANCED_FACE ( 'NONE', ( #296 ), #181, .T. ) ;
#223 = VERTEX_POINT ( 'NONE', #136 ) ;
#224 = APPROVAL ( #54, 'UNSPECIFIED' ) ;
#225 = APPROVAL_PERSON_ORGANIZATION ( #292, #350, #166 ) ;
#226 = FACE_OUTER_BOUND ( 'NONE', #147, .T. ) ;
#227 = DATE_AND_TIME ( #297, #9 ) ;
#228 = AXIS2_PLACEMENT_3D ( 'NONE', #152, #336, #128 ) ;
#229 = VERTEX_POINT ( 'NONE', #84 ) ;
#230 = EDGE_CURVE ( 'NONE', #307, #229, #67, .T. ) ;
#231 = FACE_OUTER_BOUND ( 'NONE', #344, .T. ) ;
#232 = PERSON_AND_ORGANIZATION ( #208, #61 ) ;
#233 = CARTESIAN_POINT ( 'NONE',  ( 31.98800000000000300, 0.0000000000000000000, 3.174999999999999400 ) ) ;
#234 = CARTESIAN_POINT ( 'NONE',  ( -43.45000000000001000, 2.674999999999995400, 0.0000000000000000000 ) ) ;
#235 = CC_DESIGN_APPROVAL ( #224, ( #202 ) ) ;
#236 = DIRECTION ( 'NONE',  ( 0.0000000000000000000, 1.000000000000000000, 0.0000000000000000000 ) ) ;
#237 = DIRECTION ( 'NONE',  ( 1.000000000000000000, 6.123233995736766000E-017, -0.0000000000000000000 ) ) ;
#238 = CIRCLE ( 'NONE', #4, 0.7619999999999994600 ) ;
#239 = CARTESIAN_POINT ( 'NONE',  ( -43.45000000000001000, -2.660545171147625300E-015, 0.0000000000000000000 ) ) ;
#240 = LOCAL_TIME ( 13, 47, 31.00000000000000000, #313 ) ;
#241 = CARTESIAN_POINT ( 'NONE',  ( 0.9999999999999993300, 6.123233995736762300E-017, 0.0000000000000000000 ) ) ;
#242 = ORIENTED_EDGE ( 'NONE', *, *, #5, .F. ) ;
#243 = APPROVAL_ROLE ( '' ) ;
#244 = EDGE_LOOP ( 'NONE', ( #281, #267, #170, #2 ) ) ;
#245 = DIRECTION ( 'NONE',  ( 0.7071067811865479100, -0.7071067811865472400, 8.659560562354930400E-017 ) ) ;
#246 = AXIS2_PLACEMENT_3D ( 'NONE', #158, #352, #188 ) ;
#247 = ADVANCED_FACE ( 'NONE', ( #74 ), #284, .T. ) ;
#248 = TOROIDAL_SURFACE ( 'NONE', #42, 2.412999999999999800, 0.7619999999999994600 ) ;
#249 = CALENDAR_DATE ( 2023, 30, 5 ) ;
#250 = AXIS2_PLACEMENT_3D ( 'NONE', #134, #322, #191 ) ;
#251 = ORIENTED_EDGE ( 'NONE', *, *, #33, .F. ) ;
#252 = ORIENTED_EDGE ( 'NONE', *, *, #283, .F. ) ;
#253 = AXIS2_PLACEMENT_3D ( 'NONE', #333, #173, #277 ) ;
#254 = CC_DESIGN_PERSON_AND_ORGANIZATION_ASSIGNMENT ( #306, #77, ( #202 ) ) ;
#255 = VECTOR ( 'NONE', #286, 1000.000000000000000 ) ;
#256 = DATE_AND_TIME ( #337, #48 ) ;
#257 = ORIENTED_EDGE ( 'NONE', *, *, #144, .T. ) ;
#258 = AXIS2_PLACEMENT_3D ( 'NONE', #239, #73, #263 ) ;
#259 = FACE_OUTER_BOUND ( 'NONE', #24, .T. ) ;
#260 = CARTESIAN_POINT ( 'NONE',  ( 1.000000000000000000, 0.0000000000000000000, 0.0000000000000000000 ) ) ;
#261 = PERSON_AND_ORGANIZATION ( #208, #61 ) ;
#262 = EDGE_CURVE ( 'NONE', #133, #40, #145, .T. ) ;
#263 = DIRECTION ( 'NONE',  ( 0.0000000000000000000, 1.000000000000000000, 0.0000000000000000000 ) ) ;
#264 = DIRECTION ( 'NONE',  ( -6.829619984160658000E-017, 1.000000000000000000, 0.0000000000000000000 ) ) ;
#265 = DIRECTION ( 'NONE',  ( 0.7071067811865479100, 0.7071067811865472400, 0.0000000000000000000 ) ) ;
#266 = CIRCLE ( 'NONE', #258, 2.674999999999998000 ) ;
#267 = ORIENTED_EDGE ( 'NONE', *, *, #198, .T. ) ;
#268 = DIRECTION ( 'NONE',  ( 0.0000000000000000000, 0.0000000000000000000, 1.000000000000000000 ) ) ;
#269 = CARTESIAN_POINT ( 'NONE',  ( -42.95000000000001000, -3.175000000000000700, 3.888253587292844600E-016 ) ) ;
#270 = PERSON_AND_ORGANIZATION_ROLE ( 'design_supplier' ) ;
#271 = DIRECTION ( 'NONE',  ( -1.000000000000000000, -0.0000000000000000000, -0.0000000000000000000 ) ) ;
#272 = ADVANCED_FACE ( 'NONE', ( #217 ), #199, .T. ) ;
#273 = DIRECTION ( 'NONE',  ( 1.000000000000000000, 6.123233995736766000E-017, -0.0000000000000000000 ) ) ;
#274 = AXIS2_PLACEMENT_3D ( 'NONE', #351, #214, #49 ) ;
#275 = UNCERTAINTY_MEASURE_WITH_UNIT (LENGTH_MEASURE( 1.000000000000000100E-005 ), #130, 'distance_accuracy_value', 'NONE');
#276 = ORIENTED_EDGE ( 'NONE', *, *, #262, .T. ) ;
#277 = DIRECTION ( 'NONE',  ( 0.0000000000000000000, 0.0000000000000000000, 1.000000000000000000 ) ) ;
#278 = CC_DESIGN_PERSON_AND_ORGANIZATION_ASSIGNMENT ( #232, #270, ( #202 ) ) ;
#279 = VECTOR ( 'NONE', #212, 1000.000000000000000 ) ;
#280 = ORIENTED_EDGE ( 'NONE', *, *, #5, .T. ) ;
#281 = ORIENTED_EDGE ( 'NONE', *, *, #28, .F. ) ;
#282 = DATE_AND_TIME ( #365, #71 ) ;
#283 = EDGE_CURVE ( 'NONE', #11, #133, #343, .T. ) ;
#284 = TOROIDAL_SURFACE ( 'NONE', #228, 2.412999999999999800, 0.7619999999999994600 ) ;
#285 = DESIGN_CONTEXT ( 'detailed design', #323, 'design' ) ;
#286 = DIRECTION ( 'NONE',  ( -1.000000000000000000, -0.0000000000000000000, -0.0000000000000000000 ) ) ;
#287 = DIRECTION ( 'NONE',  ( -1.000000000000000000, -0.0000000000000000000, -0.0000000000000000000 ) ) ;
#288 = ORIENTED_EDGE ( 'NONE', *, *, #7, .F. ) ;
#289 = AXIS2_PLACEMENT_3D ( 'NONE', #211, #44, #236 ) ;
#290 = SECURITY_CLASSIFICATION ( '', '', #109 ) ;
#291 = CARTESIAN_POINT ( 'NONE',  ( -42.95000000000001000, 3.174999999999995400, 0.0000000000000000000 ) ) ;
#292 = PERSON_AND_ORGANIZATION ( #208, #61 ) ;
#293 = CARTESIAN_POINT ( 'NONE',  ( 1.000000000000000000, 3.888253587292846100E-016, -3.174999999999999800 ) ) ;
#294 = CARTESIAN_POINT ( 'NONE',  ( 0.9999999999999993300, 6.123233995736762300E-017, 0.0000000000000000000 ) ) ;
#295 = DIRECTION ( 'NONE',  ( -0.0000000000000000000, 0.0000000000000000000, 1.000000000000000000 ) ) ;
#296 = FACE_OUTER_BOUND ( 'NONE', #308, .T. ) ;
#297 = CALENDAR_DATE ( 2023, 30, 5 ) ;
#298 = CARTESIAN_POINT ( 'NONE',  ( 32.75000000000000000, 0.0000000000000000000, 2.412999999999999800 ) ) ;
#299 = MECHANICAL_CONTEXT ( 'NONE', #76, 'mechanical' ) ;
#300 = PERSON_AND_ORGANIZATION_ROLE ( 'classification_officer' ) ;
#301 = PLANE ( 'NONE',  #93 ) ;
#302 = ORIENTED_EDGE ( 'NONE', *, *, #43, .T. ) ;
#303 = AXIS2_PLACEMENT_3D ( 'NONE', #241, #75, #264 ) ;
#304 = EDGE_LOOP ( 'NONE', ( #324, #314, #86, #180 ) ) ;
#305 = FACE_OUTER_BOUND ( 'NONE', #356, .T. ) ;
#306 = PERSON_AND_ORGANIZATION ( #208, #61 ) ;
#307 = VERTEX_POINT ( 'NONE', #293 ) ;
#308 = EDGE_LOOP ( 'NONE', ( #68, #37 ) ) ;
#309 = AXIS2_PLACEMENT_3D ( 'NONE', #13, #207, #41 ) ;
#310 = EDGE_CURVE ( 'NONE', #52, #223, #266, .T. ) ;
#311 = CC_DESIGN_PERSON_AND_ORGANIZATION_ASSIGNMENT ( #162, #300, ( #290 ) ) ;
#312 = LINE ( 'NONE', #171, #91 ) ;
#313 = COORDINATED_UNIVERSAL_TIME_OFFSET ( 9, 0, .AHEAD. ) ;
#314 = ORIENTED_EDGE ( 'NONE', *, *, #83, .T. ) ;
#315 = ORIENTED_EDGE ( 'NONE', *, *, #198, .F. ) ;
#316 = AXIS2_PLACEMENT_3D ( 'NONE', #46, #105, #295 ) ;
#317 = CIRCLE ( 'NONE', #274, 3.174999999999999800 ) ;
#318 = LOCAL_TIME ( 13, 47, 31.00000000000000000, #38 ) ;
#319 = DIRECTION ( 'NONE',  ( -6.829619984160658000E-017, 1.000000000000000000, 0.0000000000000000000 ) ) ;
#320 = DIRECTION ( 'NONE',  ( 0.0000000000000000000, 0.0000000000000000000, 1.000000000000000000 ) ) ;
#321 = DIRECTION ( 'NONE',  ( 0.0000000000000000000, 0.0000000000000000000, 1.000000000000000000 ) ) ;
#322 = DIRECTION ( 'NONE',  ( -1.000000000000000000, -0.0000000000000000000, -0.0000000000000000000 ) ) ;
#323 = APPLICATION_CONTEXT ( 'configuration controlled 3d designs of mechanical parts and assemblies' ) ;
#324 = ORIENTED_EDGE ( 'NONE', *, *, #65, .T. ) ;
#325 = CARTESIAN_POINT ( 'NONE',  ( 31.98800000000000300, 0.0000000000000000000, 0.0000000000000000000 ) ) ;
#326 = APPROVAL_STATUS ( 'not_yet_approved' ) ;
#327 = ORIENTED_EDGE ( 'NONE', *, *, #100, .F. ) ;
#328 = DIRECTION ( 'NONE',  ( 0.0000000000000000000, -1.000000000000000000, 0.0000000000000000000 ) ) ;
#329 = ADVANCED_FACE ( 'NONE', ( #132 ), #50, .F. ) ;
#330 = CARTESIAN_POINT ( 'NONE',  ( 0.0000000000000000000, 0.0000000000000000000, 0.0000000000000000000 ) ) ;
#331 = AXIS2_PLACEMENT_3D ( 'NONE', #72, #101, #103 ) ;
#332 = EDGE_CURVE ( 'NONE', #11, #192, #123, .T. ) ;
#333 = CARTESIAN_POINT ( 'NONE',  ( 32.75000000000000000, 0.0000000000000000000, 0.0000000000000000000 ) ) ;
#334 = CIRCLE ( 'NONE', #289, 3.174999999999998000 ) ;
#335 = CC_DESIGN_DATE_AND_TIME_ASSIGNMENT ( #227, #137, ( #290 ) ) ;
#336 = DIRECTION ( 'NONE',  ( -1.000000000000000000, -0.0000000000000000000, -0.0000000000000000000 ) ) ;
#337 = CALENDAR_DATE ( 2023, 30, 5 ) ;
#338 = SHAPE_DEFINITION_REPRESENTATION ( #94, #148 ) ;
#339 = EDGE_LOOP ( 'NONE', ( #98, #142, #124, #111 ) ) ;
#340 = MANIFOLD_SOLID_BREP ( 'È¸Àü4', #146 ) ;
#341 = CIRCLE ( 'NONE', #357, 3.174999999999999800 ) ;
#342 = PERSON_AND_ORGANIZATION ( #208, #61 ) ;
#343 = CIRCLE ( 'NONE', #246, 3.174999999999998000 ) ;
#344 = EDGE_LOOP ( 'NONE', ( #280, #176 ) ) ;
#345 = CARTESIAN_POINT ( 'NONE',  ( -43.45000000000001000, -2.660545171147625300E-015, 0.0000000000000000000 ) ) ;
#346 = AXIS2_PLACEMENT_3D ( 'NONE', #294, #131, #319 ) ;
#347 = EDGE_LOOP ( 'NONE', ( #99, #64, #257, #315 ) ) ;
#348 = EDGE_CURVE ( 'NONE', #192, #40, #203, .T. ) ;
#349 = DIRECTION ( 'NONE',  ( 0.0000000000000000000, 1.000000000000000000, 0.0000000000000000000 ) ) ;
#350 = APPROVAL ( #326, 'UNSPECIFIED' ) ;
#351 = CARTESIAN_POINT ( 'NONE',  ( 31.98800000000000300, 0.0000000000000000000, 0.0000000000000000000 ) ) ;
#352 = DIRECTION ( 'NONE',  ( 1.000000000000000000, 6.123233995736766000E-017, -0.0000000000000000000 ) ) ;
#353 = DIRECTION ( 'NONE',  ( -1.000000000000000000, -0.0000000000000000000, -0.0000000000000000000 ) ) ;
#354 = CARTESIAN_POINT ( 'NONE',  ( -1.944126793646423000E-016, 3.174999999999999800, 0.0000000000000000000 ) ) ;
#355 = FACE_OUTER_BOUND ( 'NONE', #244, .T. ) ;
#356 = EDGE_LOOP ( 'NONE', ( #168, #276, #39, #89 ) ) ;
#357 = AXIS2_PLACEMENT_3D ( 'NONE', #260, #155, #18 ) ;
#358 = DIRECTION ( 'NONE',  ( -1.000000000000000000, -6.123233995736766000E-017, 0.0000000000000000000 ) ) ;
#359 = APPROVAL_STATUS ( 'not_yet_approved' ) ;
#360 = DIRECTION ( 'NONE',  ( 0.0000000000000000000, -1.224646799147353200E-016, 1.000000000000000000 ) ) ;
#361 = ADVANCED_FACE ( 'NONE', ( #355 ), #118, .T. ) ;
#362 =( GEOMETRIC_REPRESENTATION_CONTEXT ( 3 ) GLOBAL_UNCERTAINTY_ASSIGNED_CONTEXT ( ( #275 ) ) GLOBAL_UNIT_ASSIGNED_CONTEXT ( ( #130, #190, #21 ) ) REPRESENTATION_CONTEXT ( 'NONE', 'WORKASPACE' ) );
#363 = VERTEX_POINT ( 'NONE', #298 ) ;
#364 = CARTESIAN_POINT ( 'NONE',  ( 31.98800000000000300, 2.955072726342562800E-016, -2.412999999999999800 ) ) ;
#365 = CALENDAR_DATE ( 2023, 30, 5 ) ;
ENDSEC;
END-ISO-10303-21;
