ISO-10303-21;
HEADER;
FILE_DESCRIPTION (( 'STEP AP203' ),
    '1' );
FILE_NAME ('03-3059.STEP',
    '2023-05-30T04:47:10',
    ( 'USER' ),
    ( 'Hewlett-Packard Company' ),
    'SwSTEP 2.0',
    'SolidWorks 2014',
    '' );
FILE_SCHEMA (( 'CONFIG_CONTROL_DESIGN' ));
ENDSEC;

DATA;
#1 = EDGE_CURVE ( 'NONE', #128, #253, #216, .T. ) ;
#2 = EDGE_LOOP ( 'NONE', ( #157, #57, #86, #321 ) ) ;
#3 = DIRECTION ( 'NONE',  ( 0.0000000000000000000, 0.0000000000000000000, 1.000000000000000000 ) ) ;
#4 = CC_DESIGN_APPROVAL ( #51, ( #6 ) ) ;
#5 = DIRECTION ( 'NONE',  ( 1.000000000000000000, 6.123233995736766000E-017, -0.0000000000000000000 ) ) ;
#6 = SECURITY_CLASSIFICATION ( '', '', #44 ) ;
#7 = EDGE_CURVE ( 'NONE', #333, #175, #361, .T. ) ;
#8 = AXIS2_PLACEMENT_3D ( 'NONE', #233, #312, #39 ) ;
#9 = CARTESIAN_POINT ( 'NONE',  ( 1.000000000000000400, 2.731847993664265700E-016, 0.0000000000000000000 ) ) ;
#10 = DIRECTION ( 'NONE',  ( -0.0000000000000000000, 1.000000000000000000, 1.224646799147353200E-016 ) ) ;
#11 = LOCAL_TIME ( 13, 47, 10.00000000000000000, #89 ) ;
#12 = CARTESIAN_POINT ( 'NONE',  ( 0.9999999999999995600, 3.174999999999999800, 0.0000000000000000000 ) ) ;
#13 = EDGE_CURVE ( 'NONE', #80, #169, #286, .T. ) ;
#14 = AXIS2_PLACEMENT_3D ( 'NONE', #93, #289, #120 ) ;
#15 = APPLICATION_CONTEXT ( 'configuration controlled 3d designs of mechanical parts and assemblies' ) ;
#16 = PERSON_AND_ORGANIZATION_ROLE ( 'creator' ) ;
#17 = ADVANCED_FACE ( 'NONE', ( #142 ), #351, .T. ) ;
#18 = ORIENTED_EDGE ( 'NONE', *, *, #198, .T. ) ;
#19 = ORIENTED_EDGE ( 'NONE', *, *, #186, .F. ) ;
#20 = AXIS2_PLACEMENT_3D ( 'NONE', #181, #10, #209 ) ;
#21 = CARTESIAN_POINT ( 'NONE',  ( -42.95000000000001000, 3.174999999999995400, 0.0000000000000000000 ) ) ;
#22 = APPROVAL_DATE_TIME ( #95, #27 ) ;
#23 = ORIENTED_EDGE ( 'NONE', *, *, #186, .T. ) ;
#24 = AXIS2_PLACEMENT_3D ( 'NONE', #116, #310, #151 ) ;
#25 = ADVANCED_FACE ( 'NONE', ( #205 ), #96, .F. ) ;
#26 = VERTEX_POINT ( 'NONE', #185 ) ;
#27 = APPROVAL ( #348, 'UNSPECIFIED' ) ;
#28 = CC_DESIGN_PERSON_AND_ORGANIZATION_ASSIGNMENT ( #110, #319, ( #202 ) ) ;
#29 = APPROVAL_PERSON_ORGANIZATION ( #107, #27, #188 ) ;
#30 = ORGANIZATION ( 'UNSPECIFIED', 'UNSPECIFIED', '' ) ;
#31 = CYLINDRICAL_SURFACE ( 'NONE', #144, 3.174999999999999800 ) ;
#32 = AXIS2_PLACEMENT_3D ( 'NONE', #231, #65, #259 ) ;
#33 = ORIENTED_EDGE ( 'NONE', *, *, #174, .F. ) ;
#34 = DIRECTION ( 'NONE',  ( 0.0000000000000000000, 0.0000000000000000000, 1.000000000000000000 ) ) ;
#35 = COORDINATED_UNIVERSAL_TIME_OFFSET ( 9, 0, .AHEAD. ) ;
#36 = AXIS2_PLACEMENT_3D ( 'NONE', #335, #176, #3 ) ;
#37 = CIRCLE ( 'NONE', #73, 3.174999999999999800 ) ;
#38 = CARTESIAN_POINT ( 'NONE',  ( 0.9999999999999995600, -3.174999999999999800, 3.888253587292846100E-016 ) ) ;
#39 = DIRECTION ( 'NONE',  ( 0.0000000000000000000, 0.0000000000000000000, 1.000000000000000000 ) ) ;
#40 = FACE_OUTER_BOUND ( 'NONE', #307, .T. ) ;
#41 = DIRECTION ( 'NONE',  ( -6.829619984160658000E-017, 1.000000000000000000, 0.0000000000000000000 ) ) ;
#42 = DIRECTION ( 'NONE',  ( 1.000000000000000000, 6.123233995736766000E-017, -0.0000000000000000000 ) ) ;
#43 = DIRECTION ( 'NONE',  ( 1.000000000000000000, 0.0000000000000000000, 0.0000000000000000000 ) ) ;
#44 = SECURITY_CLASSIFICATION_LEVEL ( 'unclassified' ) ;
#45 = EDGE_LOOP ( 'NONE', ( #241, #257 ) ) ;
#46 = ADVANCED_FACE ( 'NONE', ( #66 ), #118, .T. ) ;
#47 = ORIENTED_EDGE ( 'NONE', *, *, #210, .T. ) ;
#48 = AXIS2_PLACEMENT_3D ( 'NONE', #357, #255, #92 ) ;
#49 = DIRECTION ( 'NONE',  ( -1.000000000000000000, -0.0000000000000000000, -0.0000000000000000000 ) ) ;
#50 = LOCAL_TIME ( 13, 47, 10.00000000000000000, #117 ) ;
#51 = APPROVAL ( #268, 'UNSPECIFIED' ) ;
#52 = FACE_OUTER_BOUND ( 'NONE', #279, .T. ) ;
#53 = CC_DESIGN_APPROVAL ( #166, ( #202 ) ) ;
#54 = DIRECTION ( 'NONE',  ( 0.7071067811865479100, -0.7071067811865472400, 8.659560562354930400E-017 ) ) ;
#55 = VECTOR ( 'NONE', #5, 1000.000000000000000 ) ;
#56 = AXIS2_PLACEMENT_3D ( 'NONE', #150, #337, #67 ) ;
#57 = ORIENTED_EDGE ( 'NONE', *, *, #13, .T. ) ;
#58 = CC_DESIGN_SECURITY_CLASSIFICATION ( #6, ( #330 ) ) ;
#59 = LINE ( 'NONE', #220, #111 ) ;
#60 = EDGE_CURVE ( 'NONE', #175, #169, #273, .T. ) ;
#61 = AXIS2_PLACEMENT_3D ( 'NONE', #102, #190, #349 ) ;
#62 = CIRCLE ( 'NONE', #36, 3.175000000000000300 ) ;
#63 = VERTEX_POINT ( 'NONE', #152 ) ;
#64 = AXIS2_PLACEMENT_3D ( 'NONE', #311, #119, #288 ) ;
#65 = DIRECTION ( 'NONE',  ( 0.0000000000000000000, -1.000000000000000000, 0.0000000000000000000 ) ) ;
#66 = FACE_OUTER_BOUND ( 'NONE', #320, .T. ) ;
#67 = DIRECTION ( 'NONE',  ( -6.829619984160658000E-017, 1.000000000000000000, 0.0000000000000000000 ) ) ;
#68 = CARTESIAN_POINT ( 'NONE',  ( 0.9999999999999991100, 3.174999999999999800, 0.0000000000000000000 ) ) ;
#69 = VECTOR ( 'NONE', #49, 1000.000000000000000 ) ;
#70 = AXIS2_PLACEMENT_3D ( 'NONE', #291, #315, #97 ) ;
#71 = CARTESIAN_POINT ( 'NONE',  ( 32.75000000000000000, 7.779827981956940000E-014, 0.0000000000000000000 ) ) ;
#72 = APPROVAL_DATE_TIME ( #145, #51 ) ;
#73 = AXIS2_PLACEMENT_3D ( 'NONE', #133, #322, #164 ) ;
#74 = ORIENTED_EDGE ( 'NONE', *, *, #210, .F. ) ;
#75 = PERSON_AND_ORGANIZATION_ROLE ( 'design_owner' ) ;
#76 = DATE_TIME_ROLE ( 'classification_date' ) ;
#77 = EDGE_LOOP ( 'NONE', ( #204, #229, #105, #213 ) ) ;
#78 = DIRECTION ( 'NONE',  ( 0.0000000000000000000, 0.0000000000000000000, 1.000000000000000000 ) ) ;
#79 = VERTEX_POINT ( 'NONE', #339 ) ;
#80 = VERTEX_POINT ( 'NONE', #208 ) ;
#81 = AXIS2_PLACEMENT_3D ( 'NONE', #106, #138, #326 ) ;
#82 = APPROVAL_PERSON_ORGANIZATION ( #155, #51, #99 ) ;
#83 = CARTESIAN_POINT ( 'NONE',  ( 0.0000000000000000000, 0.0000000000000000000, 0.0000000000000000000 ) ) ;
#84 = VERTEX_POINT ( 'NONE', #180 ) ;
#85 = EDGE_LOOP ( 'NONE', ( #74, #33 ) ) ;
#86 = ORIENTED_EDGE ( 'NONE', *, *, #194, .T. ) ;
#87 = AXIS2_PLACEMENT_3D ( 'NONE', #165, #355, #78 ) ;
#88 = AXIS2_PLACEMENT_3D ( 'NONE', #12, #42, #236 ) ;
#89 = COORDINATED_UNIVERSAL_TIME_OFFSET ( 9, 0, .AHEAD. ) ;
#90 = AXIS2_PLACEMENT_3D ( 'NONE', #83, #276, #301 ) ;
#91 = VERTEX_POINT ( 'NONE', #187 ) ;
#92 = DIRECTION ( 'NONE',  ( 0.0000000000000000000, 1.000000000000000000, 0.0000000000000000000 ) ) ;
#93 = CARTESIAN_POINT ( 'NONE',  ( -42.95000000000001000, -2.629929001168941500E-015, 0.0000000000000000000 ) ) ;
#94 = AXIS2_PLACEMENT_3D ( 'NONE', #135, #218, #300 ) ;
#95 = DATE_AND_TIME ( #173, #242 ) ;
#96 = PLANE ( 'NONE',  #115 ) ;
#97 = DIRECTION ( 'NONE',  ( -6.123233995736766000E-017, 1.000000000000000000, 0.0000000000000000000 ) ) ;
#98 = APPLICATION_PROTOCOL_DEFINITION ( 'international standard', 'config_control_design', 1994, #266 ) ;
#99 = APPROVAL_ROLE ( '' ) ;
#100 = CARTESIAN_POINT ( 'NONE',  ( 0.9999999999999993300, 6.123233995736762300E-017, 0.0000000000000000000 ) ) ;
#101 = ORIENTED_EDGE ( 'NONE', *, *, #177, .F. ) ;
#102 = CARTESIAN_POINT ( 'NONE',  ( 32.74999999999999300, 0.0000000000000000000, 0.0000000000000000000 ) ) ;
#103 = MANIFOLD_SOLID_BREP ( 'È¸Àü4', #305 ) ;
#104 = AXIS2_PLACEMENT_3D ( 'NONE', #9, #356, #196 ) ;
#105 = ORIENTED_EDGE ( 'NONE', *, *, #252, .F. ) ;
#106 = CARTESIAN_POINT ( 'NONE',  ( -43.45000000000001000, -2.660545171147625300E-015, 0.0000000000000000000 ) ) ;
#107 = PERSON_AND_ORGANIZATION ( #269, #30 ) ;
#108 = VECTOR ( 'NONE', #132, 1000.000000000000000 ) ;
#109 = EDGE_LOOP ( 'NONE', ( #347, #304, #334, #285 ) ) ;
#110 = PERSON_AND_ORGANIZATION ( #269, #30 ) ;
#111 = VECTOR ( 'NONE', #54, 999.9999999999998900 ) ;
#112 = CYLINDRICAL_SURFACE ( 'NONE', #235, 3.174999999999999800 ) ;
#113 = ORIENTED_EDGE ( 'NONE', *, *, #244, .T. ) ;
#114 = EDGE_LOOP ( 'NONE', ( #294, #113, #225, #228 ) ) ;
#115 = AXIS2_PLACEMENT_3D ( 'NONE', #71, #214, #290 ) ;
#116 = CARTESIAN_POINT ( 'NONE',  ( 1.000000000000000000, 0.0000000000000000000, 0.0000000000000000000 ) ) ;
#117 = COORDINATED_UNIVERSAL_TIME_OFFSET ( 9, 0, .AHEAD. ) ;
#118 = CONICAL_SURFACE ( 'NONE', #125, 3.174999999999998000, 0.7853981633974479500 ) ;
#119 = DIRECTION ( 'NONE',  ( -1.000000000000000000, -0.0000000000000000000, -0.0000000000000000000 ) ) ;
#120 = DIRECTION ( 'NONE',  ( 0.0000000000000000000, 1.000000000000000000, 0.0000000000000000000 ) ) ;
#121 = FACE_OUTER_BOUND ( 'NONE', #162, .T. ) ;
#122 = CARTESIAN_POINT ( 'NONE',  ( -42.95000000000001000, -2.629929001168941500E-015, 0.0000000000000000000 ) ) ;
#123 = DIRECTION ( 'NONE',  ( 1.000000000000000000, 6.123233995736766000E-017, -0.0000000000000000000 ) ) ;
#124 =( NAMED_UNIT ( * ) PLANE_ANGLE_UNIT ( ) SI_UNIT ( $, .RADIAN. ) );
#125 = AXIS2_PLACEMENT_3D ( 'NONE', #122, #126, #344 ) ;
#126 = DIRECTION ( 'NONE',  ( 1.000000000000000000, 6.123233995736766000E-017, -0.0000000000000000000 ) ) ;
#127 = APPROVAL_ROLE ( '' ) ;
#128 = VERTEX_POINT ( 'NONE', #38 ) ;
#129 = DIRECTION ( 'NONE',  ( -1.000000000000000000, -0.0000000000000000000, -0.0000000000000000000 ) ) ;
#130 = PRODUCT_RELATED_PRODUCT_CATEGORY ( 'detail', '', ( #240 ) ) ;
#131 = ADVANCED_FACE ( 'NONE', ( #52 ), #245, .F. ) ;
#132 = DIRECTION ( 'NONE',  ( -1.000000000000000000, -0.0000000000000000000, -0.0000000000000000000 ) ) ;
#133 = CARTESIAN_POINT ( 'NONE',  ( 1.000000000000000000, 0.0000000000000000000, 0.0000000000000000000 ) ) ;
#134 = FACE_OUTER_BOUND ( 'NONE', #77, .T. ) ;
#135 = CARTESIAN_POINT ( 'NONE',  ( -42.95000000000001000, -2.629929001168941500E-015, 0.0000000000000000000 ) ) ;
#136 = CIRCLE ( 'NONE', #48, 2.674999999999998000 ) ;
#137 = AXIS2_PLACEMENT_3D ( 'NONE', #270, #129, #156 ) ;
#138 = DIRECTION ( 'NONE',  ( -1.000000000000000000, -6.123233995736766000E-017, 0.0000000000000000000 ) ) ;
#139 = VERTEX_POINT ( 'NONE', #278 ) ;
#140 = ADVANCED_BREP_SHAPE_REPRESENTATION ( '03-3059', ( #230, #103, #292 ), #353 ) ;
#141 = ADVANCED_FACE ( 'NONE', ( #332 ), #261, .T. ) ;
#142 = FACE_OUTER_BOUND ( 'NONE', #303, .T. ) ;
#143 = LINE ( 'NONE', #191, #69 ) ;
#144 = AXIS2_PLACEMENT_3D ( 'NONE', #263, #206, #340 ) ;
#145 = DATE_AND_TIME ( #221, #293 ) ;
#146 = ORIENTED_EDGE ( 'NONE', *, *, #254, .T. ) ;
#147 = AXIS2_PLACEMENT_3D ( 'NONE', #262, #123, #317 ) ;
#148 = CARTESIAN_POINT ( 'NONE',  ( 0.0000000000000000000, 0.0000000000000000000, 0.0000000000000000000 ) ) ;
#149 = ORIENTED_EDGE ( 'NONE', *, *, #13, .F. ) ;
#150 = CARTESIAN_POINT ( 'NONE',  ( 0.9999999999999993300, 6.123233995736762300E-017, 0.0000000000000000000 ) ) ;
#151 = DIRECTION ( 'NONE',  ( 0.0000000000000000000, 0.0000000000000000000, 1.000000000000000000 ) ) ;
#152 = CARTESIAN_POINT ( 'NONE',  ( 32.49600000000000200, 3.888253587292844100E-016, -3.174999999999998000 ) ) ;
#153 = AXIS2_PLACEMENT_3D ( 'NONE', #314, #154, #342 ) ;
#154 = DIRECTION ( 'NONE',  ( 1.000000000000000000, 6.123233995736766000E-017, -0.0000000000000000000 ) ) ;
#155 = PERSON_AND_ORGANIZATION ( #269, #30 ) ;
#156 = DIRECTION ( 'NONE',  ( 0.0000000000000000000, 0.0000000000000000000, 1.000000000000000000 ) ) ;
#157 = ORIENTED_EDGE ( 'NONE', *, *, #244, .F. ) ;
#158 = DIRECTION ( 'NONE',  ( 0.7071067811865479100, 0.7071067811865472400, 0.0000000000000000000 ) ) ;
#159 = DATE_TIME_ROLE ( 'creation_date' ) ;
#160 = ADVANCED_FACE ( 'NONE', ( #134 ), #325, .T. ) ;
#161 = DIRECTION ( 'NONE',  ( 1.000000000000000000, 6.123233995736766000E-017, -0.0000000000000000000 ) ) ;
#162 = EDGE_LOOP ( 'NONE', ( #360, #18, #19, #101 ) ) ;
#163 = EDGE_CURVE ( 'NONE', #333, #80, #59, .T. ) ;
#164 = DIRECTION ( 'NONE',  ( 0.0000000000000000000, 0.0000000000000000000, 1.000000000000000000 ) ) ;
#165 = CARTESIAN_POINT ( 'NONE',  ( 32.74999999999999300, 0.0000000000000000000, 0.0000000000000000000 ) ) ;
#166 = APPROVAL ( #295, 'UNSPECIFIED' ) ;
#167 = PERSON_AND_ORGANIZATION ( #269, #30 ) ;
#168 = AXIS2_PLACEMENT_3D ( 'NONE', #100, #161, #41 ) ;
#169 = VERTEX_POINT ( 'NONE', #21 ) ;
#170 = UNCERTAINTY_MEASURE_WITH_UNIT (LENGTH_MEASURE( 1.000000000000000100E-005 ), #265, 'distance_accuracy_value', 'NONE');
#171 = ADVANCED_FACE ( 'NONE', ( #200 ), #243, .T. ) ;
#172 = CLOSED_SHELL ( 'NONE', ( #249, #271, #17, #141, #131, #25 ) ) ;
#173 = CALENDAR_DATE ( 2023, 30, 5 ) ;
#174 = EDGE_CURVE ( 'NONE', #26, #139, #283, .T. ) ;
#175 = VERTEX_POINT ( 'NONE', #274 ) ;
#176 = DIRECTION ( 'NONE',  ( -1.000000000000000000, -0.0000000000000000000, -0.0000000000000000000 ) ) ;
#177 = EDGE_CURVE ( 'NONE', #91, #84, #182, .T. ) ;
#178 = DIRECTION ( 'NONE',  ( -1.000000000000000000, -0.0000000000000000000, -0.0000000000000000000 ) ) ;
#179 = DATE_AND_TIME ( #250, #323 ) ;
#180 = CARTESIAN_POINT ( 'NONE',  ( 1.000000000000000000, 0.0000000000000000000, 3.174999999999999800 ) ) ;
#181 = CARTESIAN_POINT ( 'NONE',  ( 32.49600000000000200, 3.577193300309418800E-016, -2.920999999999999800 ) ) ;
#182 = LINE ( 'NONE', #324, #108 ) ;
#183 = CARTESIAN_POINT ( 'NONE',  ( -43.45000000000001000, -2.675000000000000700, 3.582091887506005700E-016 ) ) ;
#184 = FACE_OUTER_BOUND ( 'NONE', #2, .T. ) ;
#185 = CARTESIAN_POINT ( 'NONE',  ( 32.74999999999999300, 3.732723443801129700E-016, -2.920999999999999800 ) ) ;
#186 = EDGE_CURVE ( 'NONE', #84, #79, #37, .T. ) ;
#187 = CARTESIAN_POINT ( 'NONE',  ( 32.49600000000000200, 0.0000000000000000000, 3.174999999999998000 ) ) ;
#188 = APPROVAL_ROLE ( '' ) ;
#189 = ORIENTED_EDGE ( 'NONE', *, *, #203, .F. ) ;
#190 = DIRECTION ( 'NONE',  ( -1.000000000000000000, -0.0000000000000000000, -0.0000000000000000000 ) ) ;
#191 = CARTESIAN_POINT ( 'NONE',  ( 0.0000000000000000000, 3.888253587292846100E-016, -3.174999999999999800 ) ) ;
#192 = APPROVAL_DATE_TIME ( #260, #166 ) ;
#193 = SHAPE_DEFINITION_REPRESENTATION ( #280, #140 ) ;
#194 = EDGE_CURVE ( 'NONE', #169, #253, #251, .T. ) ;
#195 = CIRCLE ( 'NONE', #14, 3.174999999999998000 ) ;
#196 = DIRECTION ( 'NONE',  ( 0.0000000000000000000, 0.0000000000000000000, -1.000000000000000000 ) ) ;
#197 = EDGE_LOOP ( 'NONE', ( #358, #248 ) ) ;
#198 = EDGE_CURVE ( 'NONE', #63, #79, #143, .T. ) ;
#199 = APPROVAL_PERSON_ORGANIZATION ( #272, #166, #127 ) ;
#200 = FACE_OUTER_BOUND ( 'NONE', #197, .T. ) ;
#201 = LINE ( 'NONE', #232, #55 ) ;
#202 = PRODUCT_DEFINITION ( 'UNKNOWN', '', #330, #247 ) ;
#203 = EDGE_CURVE ( 'NONE', #91, #63, #284, .T. ) ;
#204 = ORIENTED_EDGE ( 'NONE', *, *, #223, .T. ) ;
#205 = FACE_OUTER_BOUND ( 'NONE', #85, .T. ) ;
#206 = DIRECTION ( 'NONE',  ( 1.000000000000000000, 6.123233995736766000E-017, -0.0000000000000000000 ) ) ;
#207 = CIRCLE ( 'NONE', #32, 0.2539999999999955600 ) ;
#208 = CARTESIAN_POINT ( 'NONE',  ( -42.95000000000001000, -3.175000000000000700, 3.888253587292844600E-016 ) ) ;
#209 = DIRECTION ( 'NONE',  ( 0.0000000000000000000, -1.224646799147353000E-016, 1.000000000000000000 ) ) ;
#210 = EDGE_CURVE ( 'NONE', #139, #26, #219, .T. ) ;
#211 = CARTESIAN_POINT ( 'NONE',  ( 0.0000000000000000000, 0.0000000000000000000, 0.0000000000000000000 ) ) ;
#212 = DIRECTION ( 'NONE',  ( 0.0000000000000000000, 0.0000000000000000000, 1.000000000000000000 ) ) ;
#213 = ORIENTED_EDGE ( 'NONE', *, *, #60, .F. ) ;
#214 = DIRECTION ( 'NONE',  ( -1.000000000000000000, 0.0000000000000000000, -0.0000000000000000000 ) ) ;
#215 = PERSON_AND_ORGANIZATION_ROLE ( 'design_supplier' ) ;
#216 = CIRCLE ( 'NONE', #168, 3.174999999999999800 ) ;
#217 = EDGE_CURVE ( 'NONE', #253, #128, #354, .T. ) ;
#218 = DIRECTION ( 'NONE',  ( 1.000000000000000000, 6.123233995736766000E-017, -0.0000000000000000000 ) ) ;
#219 = CIRCLE ( 'NONE', #61, 2.920999999999999800 ) ;
#220 = CARTESIAN_POINT ( 'NONE',  ( -42.95000000000001000, -3.175000000000000700, 3.888253587292844600E-016 ) ) ;
#221 = CALENDAR_DATE ( 2023, 30, 5 ) ;
#222 = ORIENTED_EDGE ( 'NONE', *, *, #7, .T. ) ;
#223 = EDGE_CURVE ( 'NONE', #175, #333, #136, .T. ) ;
#224 = EDGE_CURVE ( 'NONE', #63, #91, #62, .T. ) ;
#225 = ORIENTED_EDGE ( 'NONE', *, *, #217, .F. ) ;
#226 = EDGE_CURVE ( 'NONE', #139, #91, #207, .T. ) ;
#227 = DATE_AND_TIME ( #302, #11 ) ;
#228 = ORIENTED_EDGE ( 'NONE', *, *, #194, .F. ) ;
#229 = ORIENTED_EDGE ( 'NONE', *, *, #163, .T. ) ;
#230 = MANIFOLD_SOLID_BREP ( 'È¸Àü3', #172 ) ;
#231 = CARTESIAN_POINT ( 'NONE',  ( 32.49600000000000200, 0.0000000000000000000, 2.920999999999999800 ) ) ;
#232 = CARTESIAN_POINT ( 'NONE',  ( 1.944126793646423000E-016, -3.174999999999999800, 3.888253587292846100E-016 ) ) ;
#233 = CARTESIAN_POINT ( 'NONE',  ( 32.49600000000000200, 0.0000000000000000000, 0.0000000000000000000 ) ) ;
#234 = PERSON_AND_ORGANIZATION ( #269, #30 ) ;
#235 = AXIS2_PLACEMENT_3D ( 'NONE', #148, #178, #34 ) ;
#236 = DIRECTION ( 'NONE',  ( -6.123233995736766000E-017, 1.000000000000000000, 0.0000000000000000000 ) ) ;
#237 = MECHANICAL_CONTEXT ( 'NONE', #15, 'mechanical' ) ;
#238 = EDGE_CURVE ( 'NONE', #79, #84, #341, .T. ) ;
#239 = PERSON_AND_ORGANIZATION_ROLE ( 'classification_officer' ) ;
#240 = PRODUCT ( '03-3059', '03-3059', '', ( #237 ) ) ;
#241 = ORIENTED_EDGE ( 'NONE', *, *, #217, .T. ) ;
#242 = LOCAL_TIME ( 13, 47, 10.00000000000000000, #313 ) ;
#243 = PLANE ( 'NONE',  #81 ) ;
#244 = EDGE_CURVE ( 'NONE', #80, #128, #201, .T. ) ;
#245 = PLANE ( 'NONE',  #104 ) ;
#246 = CYLINDRICAL_SURFACE ( 'NONE', #70, 3.174999999999999800 ) ;
#247 = DESIGN_CONTEXT ( 'detailed design', #266, 'design' ) ;
#248 = ORIENTED_EDGE ( 'NONE', *, *, #7, .F. ) ;
#249 = ADVANCED_FACE ( 'NONE', ( #121 ), #112, .T. ) ;
#250 = CALENDAR_DATE ( 2023, 30, 5 ) ;
#251 = LINE ( 'NONE', #350, #287 ) ;
#252 = EDGE_CURVE ( 'NONE', #169, #80, #195, .T. ) ;
#253 = VERTEX_POINT ( 'NONE', #68 ) ;
#254 = EDGE_CURVE ( 'NONE', #26, #63, #275, .T. ) ;
#255 = DIRECTION ( 'NONE',  ( 1.000000000000000000, 6.123233995736766000E-017, -0.0000000000000000000 ) ) ;
#256 = ORIENTED_EDGE ( 'NONE', *, *, #163, .F. ) ;
#257 = ORIENTED_EDGE ( 'NONE', *, *, #1, .T. ) ;
#258 = CC_DESIGN_PERSON_AND_ORGANIZATION_ASSIGNMENT ( #234, #215, ( #330 ) ) ;
#259 = DIRECTION ( 'NONE',  ( 0.0000000000000000000, 0.0000000000000000000, -1.000000000000000000 ) ) ;
#260 = DATE_AND_TIME ( #331, #50 ) ;
#261 = CYLINDRICAL_SURFACE ( 'NONE', #90, 3.174999999999999800 ) ;
#262 = CARTESIAN_POINT ( 'NONE',  ( -42.95000000000001000, -2.629929001168941500E-015, 0.0000000000000000000 ) ) ;
#263 = CARTESIAN_POINT ( 'NONE',  ( 0.0000000000000000000, 0.0000000000000000000, 0.0000000000000000000 ) ) ;
#264 = TOROIDAL_SURFACE ( 'NONE', #8, 2.920999999999999800, 0.2539999999999953400 ) ;
#265 =( LENGTH_UNIT ( ) NAMED_UNIT ( * ) SI_UNIT ( .MILLI., .METRE. ) );
#266 = APPLICATION_CONTEXT ( 'configuration controlled 3d designs of mechanical parts and assemblies' ) ;
#267 = ORIENTED_EDGE ( 'NONE', *, *, #174, .T. ) ;
#268 = APPROVAL_STATUS ( 'not_yet_approved' ) ;
#269 = PERSON ( 'UNSPECIFIED', 'UNSPECIFIED', 'UNSPECIFIED', ('UNSPECIFIED'), ('UNSPECIFIED'), ('UNSPECIFIED') ) ;
#270 = CARTESIAN_POINT ( 'NONE',  ( 32.49600000000000200, 0.0000000000000000000, 0.0000000000000000000 ) ) ;
#271 = ADVANCED_FACE ( 'NONE', ( #40 ), #264, .T. ) ;
#272 = PERSON_AND_ORGANIZATION ( #269, #30 ) ;
#273 = LINE ( 'NONE', #346, #338 ) ;
#274 = CARTESIAN_POINT ( 'NONE',  ( -43.45000000000001000, 2.674999999999995400, 0.0000000000000000000 ) ) ;
#275 = CIRCLE ( 'NONE', #20, 0.2539999999999955600 ) ;
#276 = DIRECTION ( 'NONE',  ( -1.000000000000000000, -0.0000000000000000000, -0.0000000000000000000 ) ) ;
#277 = CC_DESIGN_PERSON_AND_ORGANIZATION_ASSIGNMENT ( #336, #75, ( #240 ) ) ;
#278 = CARTESIAN_POINT ( 'NONE',  ( 32.74999999999999300, 0.0000000000000000000, 2.920999999999999800 ) ) ;
#279 = EDGE_LOOP ( 'NONE', ( #23, #329 ) ) ;
#280 = PRODUCT_DEFINITION_SHAPE ( 'NONE', 'NONE',  #202 ) ;
#281 = ADVANCED_FACE ( 'NONE', ( #184 ), #31, .T. ) ;
#282 = CC_DESIGN_PERSON_AND_ORGANIZATION_ASSIGNMENT ( #306, #16, ( #330 ) ) ;
#283 = CIRCLE ( 'NONE', #87, 2.920999999999999800 ) ;
#284 = CIRCLE ( 'NONE', #64, 3.175000000000000300 ) ;
#285 = ORIENTED_EDGE ( 'NONE', *, *, #238, .F. ) ;
#286 = CIRCLE ( 'NONE', #147, 3.174999999999998000 ) ;
#287 = VECTOR ( 'NONE', #299, 1000.000000000000000 ) ;
#288 = DIRECTION ( 'NONE',  ( 0.0000000000000000000, 0.0000000000000000000, 1.000000000000000000 ) ) ;
#289 = DIRECTION ( 'NONE',  ( 1.000000000000000000, 6.123233995736766000E-017, -0.0000000000000000000 ) ) ;
#290 = DIRECTION ( 'NONE',  ( -0.0000000000000000000, 0.0000000000000000000, 1.000000000000000000 ) ) ;
#291 = CARTESIAN_POINT ( 'NONE',  ( 0.0000000000000000000, 0.0000000000000000000, 0.0000000000000000000 ) ) ;
#292 = AXIS2_PLACEMENT_3D ( 'NONE', #211, #212, #43 ) ;
#293 = LOCAL_TIME ( 13, 47, 10.00000000000000000, #364 ) ;
#294 = ORIENTED_EDGE ( 'NONE', *, *, #252, .T. ) ;
#295 = APPROVAL_STATUS ( 'not_yet_approved' ) ;
#296 = ADVANCED_FACE ( 'NONE', ( #327 ), #246, .T. ) ;
#297 = ORIENTED_EDGE ( 'NONE', *, *, #226, .T. ) ;
#298 = CC_DESIGN_DATE_AND_TIME_ASSIGNMENT ( #227, #76, ( #6 ) ) ;
#299 = DIRECTION ( 'NONE',  ( 1.000000000000000000, 6.123233995736766000E-017, -0.0000000000000000000 ) ) ;
#300 = DIRECTION ( 'NONE',  ( 0.0000000000000000000, 1.000000000000000000, 0.0000000000000000000 ) ) ;
#301 = DIRECTION ( 'NONE',  ( 0.0000000000000000000, 0.0000000000000000000, 1.000000000000000000 ) ) ;
#302 = CALENDAR_DATE ( 2023, 30, 5 ) ;
#303 = EDGE_LOOP ( 'NONE', ( #365, #267, #297, #363 ) ) ;
#304 = ORIENTED_EDGE ( 'NONE', *, *, #224, .T. ) ;
#305 = CLOSED_SHELL ( 'NONE', ( #296, #160, #362, #171, #46, #281 ) ) ;
#306 = PERSON_AND_ORGANIZATION ( #269, #30 ) ;
#307 = EDGE_LOOP ( 'NONE', ( #47, #146, #189, #308 ) ) ;
#308 = ORIENTED_EDGE ( 'NONE', *, *, #226, .F. ) ;
#309 = CC_DESIGN_PERSON_AND_ORGANIZATION_ASSIGNMENT ( #167, #239, ( #6 ) ) ;
#310 = DIRECTION ( 'NONE',  ( -1.000000000000000000, -0.0000000000000000000, -0.0000000000000000000 ) ) ;
#311 = CARTESIAN_POINT ( 'NONE',  ( 32.49600000000000200, 0.0000000000000000000, 0.0000000000000000000 ) ) ;
#312 = DIRECTION ( 'NONE',  ( -1.000000000000000000, -0.0000000000000000000, -0.0000000000000000000 ) ) ;
#313 = COORDINATED_UNIVERSAL_TIME_OFFSET ( 9, 0, .AHEAD. ) ;
#314 = CARTESIAN_POINT ( 'NONE',  ( -43.45000000000001000, -2.660545171147625300E-015, 0.0000000000000000000 ) ) ;
#315 = DIRECTION ( 'NONE',  ( 1.000000000000000000, 6.123233995736766000E-017, -0.0000000000000000000 ) ) ;
#316 = FACE_OUTER_BOUND ( 'NONE', #45, .T. ) ;
#317 = DIRECTION ( 'NONE',  ( 0.0000000000000000000, 1.000000000000000000, 0.0000000000000000000 ) ) ;
#318 =( NAMED_UNIT ( * ) SI_UNIT ( $, .STERADIAN. ) SOLID_ANGLE_UNIT ( ) );
#319 = PERSON_AND_ORGANIZATION_ROLE ( 'creator' ) ;
#320 = EDGE_LOOP ( 'NONE', ( #256, #222, #328, #149 ) ) ;
#321 = ORIENTED_EDGE ( 'NONE', *, *, #1, .F. ) ;
#322 = DIRECTION ( 'NONE',  ( -1.000000000000000000, -0.0000000000000000000, -0.0000000000000000000 ) ) ;
#323 = LOCAL_TIME ( 13, 47, 10.00000000000000000, #35 ) ;
#324 = CARTESIAN_POINT ( 'NONE',  ( 0.0000000000000000000, 0.0000000000000000000, 3.174999999999999800 ) ) ;
#325 = CONICAL_SURFACE ( 'NONE', #94, 3.174999999999998000, 0.7853981633974479500 ) ;
#326 = DIRECTION ( 'NONE',  ( 6.123233995736766000E-017, -1.000000000000000000, 0.0000000000000000000 ) ) ;
#327 = FACE_OUTER_BOUND ( 'NONE', #114, .T. ) ;
#328 = ORIENTED_EDGE ( 'NONE', *, *, #60, .T. ) ;
#329 = ORIENTED_EDGE ( 'NONE', *, *, #238, .T. ) ;
#330 = PRODUCT_DEFINITION_FORMATION_WITH_SPECIFIED_SOURCE ( 'ANY', '', #240, .NOT_KNOWN. ) ;
#331 = CALENDAR_DATE ( 2023, 30, 5 ) ;
#332 = FACE_OUTER_BOUND ( 'NONE', #109, .T. ) ;
#333 = VERTEX_POINT ( 'NONE', #183 ) ;
#334 = ORIENTED_EDGE ( 'NONE', *, *, #177, .T. ) ;
#335 = CARTESIAN_POINT ( 'NONE',  ( 32.49600000000000200, 0.0000000000000000000, 0.0000000000000000000 ) ) ;
#336 = PERSON_AND_ORGANIZATION ( #269, #30 ) ;
#337 = DIRECTION ( 'NONE',  ( 1.000000000000000000, 6.123233995736766000E-017, -0.0000000000000000000 ) ) ;
#338 = VECTOR ( 'NONE', #158, 999.9999999999998900 ) ;
#339 = CARTESIAN_POINT ( 'NONE',  ( 1.000000000000000000, 3.888253587292846100E-016, -3.174999999999999800 ) ) ;
#340 = DIRECTION ( 'NONE',  ( -6.123233995736766000E-017, 1.000000000000000000, 0.0000000000000000000 ) ) ;
#341 = CIRCLE ( 'NONE', #24, 3.174999999999999800 ) ;
#342 = DIRECTION ( 'NONE',  ( 0.0000000000000000000, 1.000000000000000000, 0.0000000000000000000 ) ) ;
#343 = PLANE ( 'NONE',  #88 ) ;
#344 = DIRECTION ( 'NONE',  ( 0.0000000000000000000, 1.000000000000000000, 0.0000000000000000000 ) ) ;
#345 = APPLICATION_PROTOCOL_DEFINITION ( 'international standard', 'config_control_design', 1994, #15 ) ;
#346 = CARTESIAN_POINT ( 'NONE',  ( -42.95000000000001000, 3.174999999999995400, 0.0000000000000000000 ) ) ;
#347 = ORIENTED_EDGE ( 'NONE', *, *, #198, .F. ) ;
#348 = APPROVAL_STATUS ( 'not_yet_approved' ) ;
#349 = DIRECTION ( 'NONE',  ( 0.0000000000000000000, 0.0000000000000000000, 1.000000000000000000 ) ) ;
#350 = CARTESIAN_POINT ( 'NONE',  ( -1.944126793646423000E-016, 3.174999999999999800, 0.0000000000000000000 ) ) ;
#351 = TOROIDAL_SURFACE ( 'NONE', #137, 2.920999999999999800, 0.2539999999999953400 ) ;
#352 = CC_DESIGN_DATE_AND_TIME_ASSIGNMENT ( #179, #159, ( #202 ) ) ;
#353 =( GEOMETRIC_REPRESENTATION_CONTEXT ( 3 ) GLOBAL_UNCERTAINTY_ASSIGNED_CONTEXT ( ( #170 ) ) GLOBAL_UNIT_ASSIGNED_CONTEXT ( ( #265, #124, #318 ) ) REPRESENTATION_CONTEXT ( 'NONE', 'WORKASPACE' ) );
#354 = CIRCLE ( 'NONE', #56, 3.174999999999999800 ) ;
#355 = DIRECTION ( 'NONE',  ( -1.000000000000000000, -0.0000000000000000000, -0.0000000000000000000 ) ) ;
#356 = DIRECTION ( 'NONE',  ( 1.000000000000000000, 0.0000000000000000000, 0.0000000000000000000 ) ) ;
#357 = CARTESIAN_POINT ( 'NONE',  ( -43.45000000000001000, -2.660545171147625300E-015, 0.0000000000000000000 ) ) ;
#358 = ORIENTED_EDGE ( 'NONE', *, *, #223, .F. ) ;
#359 = CC_DESIGN_APPROVAL ( #27, ( #330 ) ) ;
#360 = ORIENTED_EDGE ( 'NONE', *, *, #203, .T. ) ;
#361 = CIRCLE ( 'NONE', #153, 2.674999999999998000 ) ;
#362 = ADVANCED_FACE ( 'NONE', ( #316 ), #343, .T. ) ;
#363 = ORIENTED_EDGE ( 'NONE', *, *, #224, .F. ) ;
#364 = COORDINATED_UNIVERSAL_TIME_OFFSET ( 9, 0, .AHEAD. ) ;
#365 = ORIENTED_EDGE ( 'NONE', *, *, #254, .F. ) ;
ENDSEC;
END-ISO-10303-21;
