ISO-10303-21;
HEADER;
FILE_DESCRIPTION (( 'STEP AP203' ),
    '1' );
FILE_NAME ('03-3061.STEP',
    '2023-05-30T04:46:20',
    ( 'USER' ),
    ( 'Hewlett-Packard Company' ),
    'SwSTEP 2.0',
    'SolidWorks 2014',
    '' );
FILE_SCHEMA (( 'CONFIG_CONTROL_DESIGN' ));
ENDSEC;

DATA;
#1 = LOCAL_TIME ( 13, 46, 20.00000000000000000, #83 ) ;
#2 = ADVANCED_FACE ( 'NONE', ( #267 ), #259, .T. ) ;
#3 = CC_DESIGN_PERSON_AND_ORGANIZATION_ASSIGNMENT ( #338, #11, ( #14 ) ) ;
#4 = EDGE_LOOP ( 'NONE', ( #134, #243, #308, #131 ) ) ;
#5 = CC_DESIGN_PERSON_AND_ORGANIZATION_ASSIGNMENT ( #240, #216, ( #14 ) ) ;
#6 = ORIENTED_EDGE ( 'NONE', *, *, #190, .F. ) ;
#7 = CC_DESIGN_APPROVAL ( #9, ( #14 ) ) ;
#8 = LINE ( 'NONE', #321, #223 ) ;
#9 = APPROVAL ( #346, 'UNSPECIFIED' ) ;
#10 = PERSON_AND_ORGANIZATION ( #129, #324 ) ;
#11 = PERSON_AND_ORGANIZATION_ROLE ( 'creator' ) ;
#12 = EDGE_LOOP ( 'NONE', ( #228, #271 ) ) ;
#13 = ORIENTED_EDGE ( 'NONE', *, *, #197, .T. ) ;
#14 = PRODUCT_DEFINITION_FORMATION_WITH_SPECIFIED_SOURCE ( 'ANY', '', #125, .NOT_KNOWN. ) ;
#15 = DIRECTION ( 'NONE',  ( 1.000000000000000000, 6.123233995736767300E-017, -0.0000000000000000000 ) ) ;
#16 = VERTEX_POINT ( 'NONE', #56 ) ;
#17 = DIRECTION ( 'NONE',  ( 0.0000000000000000000, 1.000000000000000000, 0.0000000000000000000 ) ) ;
#18 = CC_DESIGN_DATE_AND_TIME_ASSIGNMENT ( #97, #162, ( #37 ) ) ;
#19 = CIRCLE ( 'NONE', #336, 2.381250000000000100 ) ;
#20 = DIRECTION ( 'NONE',  ( -1.000000000000000000, -0.0000000000000000000, -0.0000000000000000000 ) ) ;
#21 = PERSON_AND_ORGANIZATION ( #129, #324 ) ;
#22 = PLANE ( 'NONE',  #68 ) ;
#23 = CARTESIAN_POINT ( 'NONE',  ( 0.0000000000000000000, 0.0000000000000000000, 0.0000000000000000000 ) ) ;
#24 = CC_DESIGN_PERSON_AND_ORGANIZATION_ASSIGNMENT ( #21, #318, ( #37 ) ) ;
#25 = PLANE ( 'NONE',  #117 ) ;
#26 = DESIGN_CONTEXT ( 'detailed design', #268, 'design' ) ;
#27 = CARTESIAN_POINT ( 'NONE',  ( 26.14599999999999700, 0.0000000000000000000, 2.381250000000001400 ) ) ;
#28 = CC_DESIGN_APPROVAL ( #34, ( #37 ) ) ;
#29 = CARTESIAN_POINT ( 'NONE',  ( 26.14599999999999700, 2.916190190469636500E-016, -2.381250000000001400 ) ) ;
#30 = EDGE_LOOP ( 'NONE', ( #258, #109 ) ) ;
#31 = DIRECTION ( 'NONE',  ( -1.000000000000000000, -0.0000000000000000000, -0.0000000000000000000 ) ) ;
#32 = CONICAL_SURFACE ( 'NONE', #86, 2.381249999999998800, 0.7853981633974480600 ) ;
#33 = CIRCLE ( 'NONE', #102, 0.2540000000000020600 ) ;
#34 = APPROVAL ( #294, 'UNSPECIFIED' ) ;
#35 = COORDINATED_UNIVERSAL_TIME_OFFSET ( 9, 0, .AHEAD. ) ;
#36 = CARTESIAN_POINT ( 'NONE',  ( 26.14599999999999700, 0.0000000000000000000, 0.0000000000000000000 ) ) ;
#37 = PRODUCT_DEFINITION ( 'UNKNOWN', '', #14, #26 ) ;
#38 = CC_DESIGN_PERSON_AND_ORGANIZATION_ASSIGNMENT ( #262, #281, ( #125 ) ) ;
#39 = ORIENTED_EDGE ( 'NONE', *, *, #166, .T. ) ;
#40 = FACE_OUTER_BOUND ( 'NONE', #213, .T. ) ;
#41 = AXIS2_PLACEMENT_3D ( 'NONE', #279, #57, #255 ) ;
#42 = SHAPE_DEFINITION_REPRESENTATION ( #292, #219 ) ;
#43 = SECURITY_CLASSIFICATION_LEVEL ( 'unclassified' ) ;
#44 = MANIFOLD_SOLID_BREP ( 'È¸Àü3', #146 ) ;
#45 = ORIENTED_EDGE ( 'NONE', *, *, #183, .T. ) ;
#46 = EDGE_LOOP ( 'NONE', ( #177, #342 ) ) ;
#47 = CARTESIAN_POINT ( 'NONE',  ( -30.25000000000000000, 2.381249999999997000, 0.0000000000000000000 ) ) ;
#48 = AXIS2_PLACEMENT_3D ( 'NONE', #23, #55, #327 ) ;
#49 = DIRECTION ( 'NONE',  ( 1.000000000000000000, 6.123233995736767300E-017, -0.0000000000000000000 ) ) ;
#50 = DIRECTION ( 'NONE',  ( 1.000000000000000000, 6.123233995736767300E-017, -0.0000000000000000000 ) ) ;
#51 =( GEOMETRIC_REPRESENTATION_CONTEXT ( 3 ) GLOBAL_UNCERTAINTY_ASSIGNED_CONTEXT ( ( #280 ) ) GLOBAL_UNIT_ASSIGNED_CONTEXT ( ( #85, #328, #175 ) ) REPRESENTATION_CONTEXT ( 'NONE', 'WORKASPACE' ) );
#52 = FACE_OUTER_BOUND ( 'NONE', #218, .T. ) ;
#53 = CARTESIAN_POINT ( 'NONE',  ( -30.75000000000000000, -1.882894453689055700E-015, 0.0000000000000000000 ) ) ;
#54 = ORIENTED_EDGE ( 'NONE', *, *, #139, .T. ) ;
#55 = DIRECTION ( 'NONE',  ( 1.000000000000000000, 6.123233995736767300E-017, -0.0000000000000000000 ) ) ;
#56 = CARTESIAN_POINT ( 'NONE',  ( -30.25000000000000000, -2.381250000000000500, 2.916190190469633100E-016 ) ) ;
#57 = DIRECTION ( 'NONE',  ( 0.0000000000000000000, 0.0000000000000000000, 1.000000000000000000 ) ) ;
#58 = DIRECTION ( 'NONE',  ( 0.0000000000000000000, 1.000000000000000000, 0.0000000000000000000 ) ) ;
#59 = ORIENTED_EDGE ( 'NONE', *, *, #148, .T. ) ;
#60 = AXIS2_PLACEMENT_3D ( 'NONE', #84, #326, #201 ) ;
#61 = CARTESIAN_POINT ( 'NONE',  ( -30.75000000000000000, 1.881249999999996500, 0.0000000000000000000 ) ) ;
#62 = DIRECTION ( 'NONE',  ( 0.0000000000000000000, -1.000000000000000000, 0.0000000000000000000 ) ) ;
#63 = DIRECTION ( 'NONE',  ( 0.0000000000000000000, 0.0000000000000000000, 1.000000000000000000 ) ) ;
#64 = VECTOR ( 'NONE', #20, 1000.000000000000000 ) ;
#65 = DIRECTION ( 'NONE',  ( 1.000000000000000000, 6.123233995736767300E-017, -0.0000000000000000000 ) ) ;
#66 = APPROVAL_DATE_TIME ( #143, #344 ) ;
#67 = ADVANCED_FACE ( 'NONE', ( #40 ), #254, .T. ) ;
#68 = AXIS2_PLACEMENT_3D ( 'NONE', #53, #118, #303 ) ;
#69 = ORIENTED_EDGE ( 'NONE', *, *, #192, .T. ) ;
#70 = AXIS2_PLACEMENT_3D ( 'NONE', #357, #50, #172 ) ;
#71 = VECTOR ( 'NONE', #77, 999.9999999999998900 ) ;
#72 = DATE_TIME_ROLE ( 'classification_date' ) ;
#73 = APPROVAL_PERSON_ORGANIZATION ( #155, #344, #106 ) ;
#74 = VERTEX_POINT ( 'NONE', #305 ) ;
#75 = ORIENTED_EDGE ( 'NONE', *, *, #188, .F. ) ;
#76 = CARTESIAN_POINT ( 'NONE',  ( 26.14599999999999700, 0.0000000000000000000, 0.0000000000000000000 ) ) ;
#77 = DIRECTION ( 'NONE',  ( 0.7071067811865477900, 0.7071067811865473500, 0.0000000000000000000 ) ) ;
#78 = AXIS2_PLACEMENT_3D ( 'NONE', #353, #79, #199 ) ;
#79 = DIRECTION ( 'NONE',  ( -1.000000000000000000, -0.0000000000000000000, -0.0000000000000000000 ) ) ;
#80 = CIRCLE ( 'NONE', #275, 1.881249999999998500 ) ;
#81 = DIRECTION ( 'NONE',  ( 0.0000000000000000000, 0.0000000000000000000, 1.000000000000000000 ) ) ;
#82 = CALENDAR_DATE ( 2023, 30, 5 ) ;
#83 = COORDINATED_UNIVERSAL_TIME_OFFSET ( 9, 0, .AHEAD. ) ;
#84 = CARTESIAN_POINT ( 'NONE',  ( 26.39999999999999900, 0.0000000000000000000, 0.0000000000000000000 ) ) ;
#85 =( LENGTH_UNIT ( ) NAMED_UNIT ( * ) SI_UNIT ( .MILLI., .METRE. ) );
#86 = AXIS2_PLACEMENT_3D ( 'NONE', #302, #276, #116 ) ;
#87 = DIRECTION ( 'NONE',  ( -1.000000000000000000, -0.0000000000000000000, -0.0000000000000000000 ) ) ;
#88 = ORIENTED_EDGE ( 'NONE', *, *, #205, .F. ) ;
#89 = MECHANICAL_CONTEXT ( 'NONE', #231, 'mechanical' ) ;
#90 = CARTESIAN_POINT ( 'NONE',  ( 1.000000000000000700, 1.821231995776177200E-016, 0.0000000000000000000 ) ) ;
#91 = AXIS2_PLACEMENT_3D ( 'NONE', #224, #170, #81 ) ;
#92 = CARTESIAN_POINT ( 'NONE',  ( 1.000000000000000400, 0.0000000000000000000, 0.0000000000000000000 ) ) ;
#93 = VERTEX_POINT ( 'NONE', #27 ) ;
#94 = CARTESIAN_POINT ( 'NONE',  ( 26.39999999999999900, 0.0000000000000000000, 0.0000000000000000000 ) ) ;
#95 = AXIS2_PLACEMENT_3D ( 'NONE', #300, #140, #325 ) ;
#96 = CIRCLE ( 'NONE', #354, 2.381250000000000100 ) ;
#97 = DATE_AND_TIME ( #171, #245 ) ;
#98 = AXIS2_PLACEMENT_3D ( 'NONE', #222, #49, #250 ) ;
#99 = ADVANCED_FACE ( 'NONE', ( #122 ), #25, .F. ) ;
#100 = AXIS2_PLACEMENT_3D ( 'NONE', #235, #62, #261 ) ;
#101 = ORIENTED_EDGE ( 'NONE', *, *, #174, .T. ) ;
#102 = AXIS2_PLACEMENT_3D ( 'NONE', #334, #178, #362 ) ;
#103 = CIRCLE ( 'NONE', #343, 2.381250000000000100 ) ;
#104 = APPROVAL_DATE_TIME ( #181, #34 ) ;
#105 = APPLICATION_PROTOCOL_DEFINITION ( 'international standard', 'config_control_design', 1994, #268 ) ;
#106 = APPROVAL_ROLE ( '' ) ;
#107 = AXIS2_PLACEMENT_3D ( 'NONE', #94, #286, #123 ) ;
#108 = AXIS2_PLACEMENT_3D ( 'NONE', #206, #31, #234 ) ;
#109 = ORIENTED_EDGE ( 'NONE', *, *, #158, .F. ) ;
#110 = ORIENTED_EDGE ( 'NONE', *, *, #136, .F. ) ;
#111 = DIRECTION ( 'NONE',  ( 0.0000000000000000000, 0.0000000000000000000, 1.000000000000000000 ) ) ;
#112 = FACE_OUTER_BOUND ( 'NONE', #193, .T. ) ;
#113 = CIRCLE ( 'NONE', #108, 2.381250000000000100 ) ;
#114 = AXIS2_PLACEMENT_3D ( 'NONE', #92, #285, #121 ) ;
#115 = APPROVAL_PERSON_ORGANIZATION ( #189, #34, #132 ) ;
#116 = DIRECTION ( 'NONE',  ( 0.0000000000000000000, 1.000000000000000000, 0.0000000000000000000 ) ) ;
#117 = AXIS2_PLACEMENT_3D ( 'NONE', #90, #282, #119 ) ;
#118 = DIRECTION ( 'NONE',  ( -1.000000000000000000, -6.123233995736767300E-017, 0.0000000000000000000 ) ) ;
#119 = DIRECTION ( 'NONE',  ( 0.0000000000000000000, 0.0000000000000000000, -1.000000000000000000 ) ) ;
#120 = ORIENTED_EDGE ( 'NONE', *, *, #158, .T. ) ;
#121 = DIRECTION ( 'NONE',  ( 0.0000000000000000000, 0.0000000000000000000, 1.000000000000000000 ) ) ;
#122 = FACE_OUTER_BOUND ( 'NONE', #46, .T. ) ;
#123 = DIRECTION ( 'NONE',  ( 0.0000000000000000000, 0.0000000000000000000, 1.000000000000000000 ) ) ;
#124 = AXIS2_PLACEMENT_3D ( 'NONE', #332, #307, #58 ) ;
#125 = PRODUCT ( '03-3061', '03-3061', '', ( #89 ) ) ;
#126 = CARTESIAN_POINT ( 'NONE',  ( 1.000000000000000400, 0.0000000000000000000, 0.0000000000000000000 ) ) ;
#127 = ADVANCED_FACE ( 'NONE', ( #112 ), #187, .T. ) ;
#128 = AXIS2_PLACEMENT_3D ( 'NONE', #329, #359, #203 ) ;
#129 = PERSON ( 'UNSPECIFIED', 'UNSPECIFIED', 'UNSPECIFIED', ('UNSPECIFIED'), ('UNSPECIFIED'), ('UNSPECIFIED') ) ;
#130 = AXIS2_PLACEMENT_3D ( 'NONE', #145, #87, #229 ) ;
#131 = ORIENTED_EDGE ( 'NONE', *, *, #192, .F. ) ;
#132 = APPROVAL_ROLE ( '' ) ;
#133 = CYLINDRICAL_SURFACE ( 'NONE', #78, 2.381250000000000100 ) ;
#134 = ORIENTED_EDGE ( 'NONE', *, *, #166, .F. ) ;
#135 = VERTEX_POINT ( 'NONE', #29 ) ;
#136 = EDGE_CURVE ( 'NONE', #204, #157, #314, .T. ) ;
#137 = DIRECTION ( 'NONE',  ( 0.7071067811865477900, -0.7071067811865473500, 8.659560562354931600E-017 ) ) ;
#138 = CYLINDRICAL_SURFACE ( 'NONE', #48, 2.381250000000000100 ) ;
#139 = EDGE_CURVE ( 'NONE', #93, #204, #186, .T. ) ;
#140 = DIRECTION ( 'NONE',  ( 1.000000000000000000, 6.123233995736767300E-017, -0.0000000000000000000 ) ) ;
#141 = FACE_OUTER_BOUND ( 'NONE', #30, .T. ) ;
#142 = PLANE ( 'NONE',  #60 ) ;
#143 = DATE_AND_TIME ( #217, #289 ) ;
#144 = EDGE_CURVE ( 'NONE', #93, #135, #113, .T. ) ;
#145 = CARTESIAN_POINT ( 'NONE',  ( 0.0000000000000000000, 0.0000000000000000000, 0.0000000000000000000 ) ) ;
#146 = CLOSED_SHELL ( 'NONE', ( #2, #182, #215, #212, #99, #312 ) ) ;
#147 = ORIENTED_EDGE ( 'NONE', *, *, #176, .F. ) ;
#148 = EDGE_CURVE ( 'NONE', #74, #319, #315, .T. ) ;
#149 = CARTESIAN_POINT ( 'NONE',  ( 1.000000000000000400, 2.916190190469635100E-016, -2.381250000000000100 ) ) ;
#150 = EDGE_CURVE ( 'NONE', #319, #135, #33, .T. ) ;
#151 = CARTESIAN_POINT ( 'NONE',  ( 26.39999999999999900, 0.0000000000000000000, 0.0000000000000000000 ) ) ;
#152 = CIRCLE ( 'NONE', #95, 2.381249999999998800 ) ;
#153 = DIRECTION ( 'NONE',  ( 0.0000000000000000000, 0.0000000000000000000, 1.000000000000000000 ) ) ;
#154 = EDGE_CURVE ( 'NONE', #74, #93, #249, .T. ) ;
#155 = PERSON_AND_ORGANIZATION ( #129, #324 ) ;
#156 = VERTEX_POINT ( 'NONE', #61 ) ;
#157 = VERTEX_POINT ( 'NONE', #149 ) ;
#158 = EDGE_CURVE ( 'NONE', #319, #74, #179, .T. ) ;
#159 = EDGE_CURVE ( 'NONE', #135, #93, #19, .T. ) ;
#160 = TOROIDAL_SURFACE ( 'NONE', #233, 2.127250000000000100, 0.2540000000000020600 ) ;
#161 = LOCAL_TIME ( 13, 46, 20.00000000000000000, #238 ) ;
#162 = DATE_TIME_ROLE ( 'creation_date' ) ;
#163 = PERSON_AND_ORGANIZATION ( #129, #324 ) ;
#164 = VERTEX_POINT ( 'NONE', #207 ) ;
#165 = EDGE_CURVE ( 'NONE', #157, #204, #103, .T. ) ;
#166 = EDGE_CURVE ( 'NONE', #16, #266, #309, .T. ) ;
#167 = DIRECTION ( 'NONE',  ( 1.000000000000000000, 6.123233995736767300E-017, -0.0000000000000000000 ) ) ;
#168 = VECTOR ( 'NONE', #209, 1000.000000000000000 ) ;
#169 = EDGE_CURVE ( 'NONE', #273, #16, #260, .T. ) ;
#170 = DIRECTION ( 'NONE',  ( -1.000000000000000000, -0.0000000000000000000, -0.0000000000000000000 ) ) ;
#171 = CALENDAR_DATE ( 2023, 30, 5 ) ;
#172 = DIRECTION ( 'NONE',  ( -6.123233995736767300E-017, 1.000000000000000000, 0.0000000000000000000 ) ) ;
#173 = CARTESIAN_POINT ( 'NONE',  ( 26.39999999999999900, 2.760660046977922200E-016, -2.127250000000000100 ) ) ;
#174 = EDGE_CURVE ( 'NONE', #256, #266, #96, .T. ) ;
#175 =( NAMED_UNIT ( * ) SI_UNIT ( $, .STERADIAN. ) SOLID_ANGLE_UNIT ( ) );
#176 = EDGE_CURVE ( 'NONE', #273, #256, #244, .T. ) ;
#177 = ORIENTED_EDGE ( 'NONE', *, *, #136, .T. ) ;
#178 = DIRECTION ( 'NONE',  ( -0.0000000000000000000, 1.000000000000000000, 1.224646799147353200E-016 ) ) ;
#179 = CIRCLE ( 'NONE', #272, 2.127250000000000100 ) ;
#180 = DIRECTION ( 'NONE',  ( 0.0000000000000000000, 0.0000000000000000000, 1.000000000000000000 ) ) ;
#181 = DATE_AND_TIME ( #251, #316 ) ;
#182 = ADVANCED_FACE ( 'NONE', ( #299 ), #160, .T. ) ;
#183 = EDGE_CURVE ( 'NONE', #156, #164, #80, .T. ) ;
#184 = ORIENTED_EDGE ( 'NONE', *, *, #144, .F. ) ;
#185 = ORIENTED_EDGE ( 'NONE', *, *, #165, .F. ) ;
#186 = LINE ( 'NONE', #257, #320 ) ;
#187 = CONICAL_SURFACE ( 'NONE', #124, 2.381249999999998800, 0.7853981633974480600 ) ;
#188 = EDGE_CURVE ( 'NONE', #164, #16, #8, .T. ) ;
#189 = PERSON_AND_ORGANIZATION ( #129, #324 ) ;
#190 = EDGE_CURVE ( 'NONE', #156, #273, #364, .T. ) ;
#191 = APPROVAL_ROLE ( '' ) ;
#192 = EDGE_CURVE ( 'NONE', #266, #256, #293, .T. ) ;
#193 = EDGE_LOOP ( 'NONE', ( #75, #13, #331, #88 ) ) ;
#194 = CYLINDRICAL_SURFACE ( 'NONE', #70, 2.381250000000000100 ) ;
#195 = DIRECTION ( 'NONE',  ( 1.000000000000000000, 6.123233995736767300E-017, -0.0000000000000000000 ) ) ;
#196 = CARTESIAN_POINT ( 'NONE',  ( 0.0000000000000000000, 2.916190190469635100E-016, -2.381250000000000100 ) ) ;
#197 = EDGE_CURVE ( 'NONE', #164, #156, #355, .T. ) ;
#198 = CARTESIAN_POINT ( 'NONE',  ( 1.000000000000000000, 6.123233995736767300E-017, 0.0000000000000000000 ) ) ;
#199 = DIRECTION ( 'NONE',  ( 0.0000000000000000000, 0.0000000000000000000, 1.000000000000000000 ) ) ;
#200 = FACE_OUTER_BOUND ( 'NONE', #4, .T. ) ;
#201 = DIRECTION ( 'NONE',  ( -0.0000000000000000000, 0.0000000000000000000, 1.000000000000000000 ) ) ;
#202 = APPLICATION_PROTOCOL_DEFINITION ( 'international standard', 'config_control_design', 1994, #231 ) ;
#203 = DIRECTION ( 'NONE',  ( -6.123233995736767300E-017, 1.000000000000000000, 0.0000000000000000000 ) ) ;
#204 = VERTEX_POINT ( 'NONE', #263 ) ;
#205 = EDGE_CURVE ( 'NONE', #16, #273, #152, .T. ) ;
#206 = CARTESIAN_POINT ( 'NONE',  ( 26.14599999999999700, 0.0000000000000000000, 0.0000000000000000000 ) ) ;
#207 = CARTESIAN_POINT ( 'NONE',  ( -30.75000000000000000, -1.881250000000000500, 2.610028490682795200E-016 ) ) ;
#208 = EDGE_CURVE ( 'NONE', #135, #157, #214, .T. ) ;
#209 = DIRECTION ( 'NONE',  ( 1.000000000000000000, 6.123233995736767300E-017, -0.0000000000000000000 ) ) ;
#210 = DIRECTION ( 'NONE',  ( 1.000000000000000000, 6.123233995736767300E-017, -0.0000000000000000000 ) ) ;
#211 = FACE_OUTER_BOUND ( 'NONE', #333, .T. ) ;
#212 = ADVANCED_FACE ( 'NONE', ( #277 ), #133, .T. ) ;
#213 = EDGE_LOOP ( 'NONE', ( #101, #69 ) ) ;
#214 = LINE ( 'NONE', #196, #64 ) ;
#215 = ADVANCED_FACE ( 'NONE', ( #345 ), #287, .T. ) ;
#216 = PERSON_AND_ORGANIZATION_ROLE ( 'design_supplier' ) ;
#217 = CALENDAR_DATE ( 2023, 30, 5 ) ;
#218 = EDGE_LOOP ( 'NONE', ( #45, #242, #278, #6 ) ) ;
#219 = ADVANCED_BREP_SHAPE_REPRESENTATION ( '03-3061', ( #44, #341, #41 ), #51 ) ;
#220 = ORIENTED_EDGE ( 'NONE', *, *, #154, .F. ) ;
#221 = DIRECTION ( 'NONE',  ( -9.106159978880877400E-017, 1.000000000000000000, 0.0000000000000000000 ) ) ;
#222 = CARTESIAN_POINT ( 'NONE',  ( -30.75000000000000000, -1.882894453689056100E-015, 0.0000000000000000000 ) ) ;
#223 = VECTOR ( 'NONE', #137, 999.9999999999998900 ) ;
#224 = CARTESIAN_POINT ( 'NONE',  ( 26.14599999999999700, 0.0000000000000000000, 0.0000000000000000000 ) ) ;
#225 = ORIENTED_EDGE ( 'NONE', *, *, #159, .F. ) ;
#226 = CARTESIAN_POINT ( 'NONE',  ( 1.000000000000000200, -2.381250000000000100, 2.916190190469635100E-016 ) ) ;
#227 = DATE_AND_TIME ( #296, #1 ) ;
#228 = ORIENTED_EDGE ( 'NONE', *, *, #183, .F. ) ;
#229 = DIRECTION ( 'NONE',  ( 0.0000000000000000000, 0.0000000000000000000, 1.000000000000000000 ) ) ;
#230 = ORIENTED_EDGE ( 'NONE', *, *, #174, .F. ) ;
#231 = APPLICATION_CONTEXT ( 'configuration controlled 3d designs of mechanical parts and assemblies' ) ;
#232 = DIRECTION ( 'NONE',  ( -1.000000000000000000, -0.0000000000000000000, -0.0000000000000000000 ) ) ;
#233 = AXIS2_PLACEMENT_3D ( 'NONE', #76, #274, #111 ) ;
#234 = DIRECTION ( 'NONE',  ( 0.0000000000000000000, 0.0000000000000000000, 1.000000000000000000 ) ) ;
#235 = CARTESIAN_POINT ( 'NONE',  ( 26.14599999999999700, 0.0000000000000000000, 2.127250000000000100 ) ) ;
#236 = VECTOR ( 'NONE', #210, 1000.000000000000000 ) ;
#237 = DIRECTION ( 'NONE',  ( -1.000000000000000000, -0.0000000000000000000, -0.0000000000000000000 ) ) ;
#238 = COORDINATED_UNIVERSAL_TIME_OFFSET ( 9, 0, .AHEAD. ) ;
#239 = CARTESIAN_POINT ( 'NONE',  ( -30.25000000000000000, -1.852278283710371900E-015, 0.0000000000000000000 ) ) ;
#240 = PERSON_AND_ORGANIZATION ( #129, #324 ) ;
#241 = ADVANCED_FACE ( 'NONE', ( #52 ), #32, .T. ) ;
#242 = ORIENTED_EDGE ( 'NONE', *, *, #188, .T. ) ;
#243 = ORIENTED_EDGE ( 'NONE', *, *, #205, .T. ) ;
#244 = LINE ( 'NONE', #288, #236 ) ;
#245 = LOCAL_TIME ( 13, 46, 20.00000000000000000, #310 ) ;
#246 = PERSON_AND_ORGANIZATION_ROLE ( 'classification_officer' ) ;
#247 = ORIENTED_EDGE ( 'NONE', *, *, #139, .F. ) ;
#248 = CLOSED_SHELL ( 'NONE', ( #339, #241, #67, #290, #127, #265 ) ) ;
#249 = CIRCLE ( 'NONE', #100, 0.2540000000000020600 ) ;
#250 = DIRECTION ( 'NONE',  ( 0.0000000000000000000, 1.000000000000000000, 0.0000000000000000000 ) ) ;
#251 = CALENDAR_DATE ( 2023, 30, 5 ) ;
#252 = CARTESIAN_POINT ( 'NONE',  ( 0.9999999999999997800, 2.381250000000000100, 0.0000000000000000000 ) ) ;
#253 = CARTESIAN_POINT ( 'NONE',  ( -30.25000000000000000, 2.381249999999997000, 0.0000000000000000000 ) ) ;
#254 = PLANE ( 'NONE',  #128 ) ;
#255 = DIRECTION ( 'NONE',  ( 1.000000000000000000, 0.0000000000000000000, 0.0000000000000000000 ) ) ;
#256 = VERTEX_POINT ( 'NONE', #252 ) ;
#257 = CARTESIAN_POINT ( 'NONE',  ( 0.0000000000000000000, 0.0000000000000000000, 2.381250000000000100 ) ) ;
#258 = ORIENTED_EDGE ( 'NONE', *, *, #148, .F. ) ;
#259 = CYLINDRICAL_SURFACE ( 'NONE', #130, 2.381250000000000100 ) ;
#260 = CIRCLE ( 'NONE', #347, 2.381249999999998800 ) ;
#261 = DIRECTION ( 'NONE',  ( 0.0000000000000000000, 0.0000000000000000000, -1.000000000000000000 ) ) ;
#262 = PERSON_AND_ORGANIZATION ( #129, #324 ) ;
#263 = CARTESIAN_POINT ( 'NONE',  ( 1.000000000000000400, 0.0000000000000000000, 2.381250000000000100 ) ) ;
#264 = DIRECTION ( 'NONE',  ( 0.0000000000000000000, 1.000000000000000000, 0.0000000000000000000 ) ) ;
#265 = ADVANCED_FACE ( 'NONE', ( #200 ), #194, .T. ) ;
#266 = VERTEX_POINT ( 'NONE', #226 ) ;
#267 = FACE_OUTER_BOUND ( 'NONE', #313, .T. ) ;
#268 = APPLICATION_CONTEXT ( 'configuration controlled 3d designs of mechanical parts and assemblies' ) ;
#269 = FACE_OUTER_BOUND ( 'NONE', #12, .T. ) ;
#270 = APPROVAL_STATUS ( 'not_yet_approved' ) ;
#271 = ORIENTED_EDGE ( 'NONE', *, *, #197, .F. ) ;
#272 = AXIS2_PLACEMENT_3D ( 'NONE', #151, #335, #180 ) ;
#273 = VERTEX_POINT ( 'NONE', #253 ) ;
#274 = DIRECTION ( 'NONE',  ( -1.000000000000000000, -0.0000000000000000000, -0.0000000000000000000 ) ) ;
#275 = AXIS2_PLACEMENT_3D ( 'NONE', #351, #195, #17 ) ;
#276 = DIRECTION ( 'NONE',  ( 1.000000000000000000, 6.123233995736767300E-017, -0.0000000000000000000 ) ) ;
#277 = FACE_OUTER_BOUND ( 'NONE', #283, .T. ) ;
#278 = ORIENTED_EDGE ( 'NONE', *, *, #169, .F. ) ;
#279 = CARTESIAN_POINT ( 'NONE',  ( 0.0000000000000000000, 0.0000000000000000000, 0.0000000000000000000 ) ) ;
#280 = UNCERTAINTY_MEASURE_WITH_UNIT (LENGTH_MEASURE( 1.000000000000000100E-005 ), #85, 'distance_accuracy_value', 'NONE');
#281 = PERSON_AND_ORGANIZATION_ROLE ( 'design_owner' ) ;
#282 = DIRECTION ( 'NONE',  ( 1.000000000000000000, 0.0000000000000000000, 0.0000000000000000000 ) ) ;
#283 = EDGE_LOOP ( 'NONE', ( #340, #304, #54, #185 ) ) ;
#284 = ORIENTED_EDGE ( 'NONE', *, *, #169, .T. ) ;
#285 = DIRECTION ( 'NONE',  ( -1.000000000000000000, -0.0000000000000000000, -0.0000000000000000000 ) ) ;
#286 = DIRECTION ( 'NONE',  ( -1.000000000000000000, -0.0000000000000000000, -0.0000000000000000000 ) ) ;
#287 = TOROIDAL_SURFACE ( 'NONE', #91, 2.127250000000000100, 0.2540000000000020600 ) ;
#288 = CARTESIAN_POINT ( 'NONE',  ( -1.458095095234817800E-016, 2.381250000000000100, 0.0000000000000000000 ) ) ;
#289 = LOCAL_TIME ( 13, 46, 20.00000000000000000, #358 ) ;
#290 = ADVANCED_FACE ( 'NONE', ( #269 ), #22, .T. ) ;
#291 = EDGE_LOOP ( 'NONE', ( #59, #297, #184, #220 ) ) ;
#292 = PRODUCT_DEFINITION_SHAPE ( 'NONE', 'NONE',  #37 ) ;
#293 = CIRCLE ( 'NONE', #306, 2.381250000000000100 ) ;
#294 = APPROVAL_STATUS ( 'not_yet_approved' ) ;
#295 = APPROVAL_DATE_TIME ( #365, #9 ) ;
#296 = CALENDAR_DATE ( 2023, 30, 5 ) ;
#297 = ORIENTED_EDGE ( 'NONE', *, *, #150, .T. ) ;
#298 = ORIENTED_EDGE ( 'NONE', *, *, #154, .T. ) ;
#299 = FACE_OUTER_BOUND ( 'NONE', #291, .T. ) ;
#300 = CARTESIAN_POINT ( 'NONE',  ( -30.25000000000000000, -1.852278283710371900E-015, 0.0000000000000000000 ) ) ;
#301 = APPROVAL_PERSON_ORGANIZATION ( #10, #9, #191 ) ;
#302 = CARTESIAN_POINT ( 'NONE',  ( -30.25000000000000000, -1.852278283710371900E-015, 0.0000000000000000000 ) ) ;
#303 = DIRECTION ( 'NONE',  ( 6.123233995736767300E-017, -1.000000000000000000, 0.0000000000000000000 ) ) ;
#304 = ORIENTED_EDGE ( 'NONE', *, *, #159, .T. ) ;
#305 = CARTESIAN_POINT ( 'NONE',  ( 26.39999999999999900, 0.0000000000000000000, 2.127250000000000100 ) ) ;
#306 = AXIS2_PLACEMENT_3D ( 'NONE', #323, #167, #352 ) ;
#307 = DIRECTION ( 'NONE',  ( 1.000000000000000000, 6.123233995736767300E-017, -0.0000000000000000000 ) ) ;
#308 = ORIENTED_EDGE ( 'NONE', *, *, #176, .T. ) ;
#309 = LINE ( 'NONE', #363, #168 ) ;
#310 = COORDINATED_UNIVERSAL_TIME_OFFSET ( 9, 0, .AHEAD. ) ;
#311 = DIRECTION ( 'NONE',  ( -1.000000000000000000, -0.0000000000000000000, -0.0000000000000000000 ) ) ;
#312 = ADVANCED_FACE ( 'NONE', ( #141 ), #142, .F. ) ;
#313 = EDGE_LOOP ( 'NONE', ( #360, #348, #110, #247 ) ) ;
#314 = CIRCLE ( 'NONE', #114, 2.381250000000000100 ) ;
#315 = CIRCLE ( 'NONE', #107, 2.127250000000000100 ) ;
#316 = LOCAL_TIME ( 13, 46, 20.00000000000000000, #35 ) ;
#317 = EDGE_LOOP ( 'NONE', ( #350, #120, #298, #225 ) ) ;
#318 = PERSON_AND_ORGANIZATION_ROLE ( 'creator' ) ;
#319 = VERTEX_POINT ( 'NONE', #173 ) ;
#320 = VECTOR ( 'NONE', #232, 1000.000000000000000 ) ;
#321 = CARTESIAN_POINT ( 'NONE',  ( -30.25000000000000000, -2.381250000000000500, 2.916190190469633100E-016 ) ) ;
#322 = PRODUCT_RELATED_PRODUCT_CATEGORY ( 'detail', '', ( #125 ) ) ;
#323 = CARTESIAN_POINT ( 'NONE',  ( 1.000000000000000000, 6.123233995736767300E-017, 0.0000000000000000000 ) ) ;
#324 = ORGANIZATION ( 'UNSPECIFIED', 'UNSPECIFIED', '' ) ;
#325 = DIRECTION ( 'NONE',  ( 0.0000000000000000000, 1.000000000000000000, 0.0000000000000000000 ) ) ;
#326 = DIRECTION ( 'NONE',  ( -1.000000000000000000, 0.0000000000000000000, -0.0000000000000000000 ) ) ;
#327 = DIRECTION ( 'NONE',  ( -6.123233995736767300E-017, 1.000000000000000000, 0.0000000000000000000 ) ) ;
#328 =( NAMED_UNIT ( * ) PLANE_ANGLE_UNIT ( ) SI_UNIT ( $, .RADIAN. ) );
#329 = CARTESIAN_POINT ( 'NONE',  ( 1.000000000000000000, 2.381250000000000100, 0.0000000000000000000 ) ) ;
#330 = CC_DESIGN_SECURITY_CLASSIFICATION ( #361, ( #14 ) ) ;
#331 = ORIENTED_EDGE ( 'NONE', *, *, #190, .T. ) ;
#332 = CARTESIAN_POINT ( 'NONE',  ( -30.25000000000000000, -1.852278283710371900E-015, 0.0000000000000000000 ) ) ;
#333 = EDGE_LOOP ( 'NONE', ( #284, #39, #230, #147 ) ) ;
#334 = CARTESIAN_POINT ( 'NONE',  ( 26.14599999999999700, 2.605129903486207300E-016, -2.127250000000000100 ) ) ;
#335 = DIRECTION ( 'NONE',  ( -1.000000000000000000, -0.0000000000000000000, -0.0000000000000000000 ) ) ;
#336 = AXIS2_PLACEMENT_3D ( 'NONE', #36, #237, #63 ) ;
#337 = CC_DESIGN_APPROVAL ( #344, ( #361 ) ) ;
#338 = PERSON_AND_ORGANIZATION ( #129, #324 ) ;
#339 = ADVANCED_FACE ( 'NONE', ( #211 ), #138, .T. ) ;
#340 = ORIENTED_EDGE ( 'NONE', *, *, #208, .F. ) ;
#341 = MANIFOLD_SOLID_BREP ( 'È¸Àü4', #248 ) ;
#342 = ORIENTED_EDGE ( 'NONE', *, *, #165, .T. ) ;
#343 = AXIS2_PLACEMENT_3D ( 'NONE', #126, #311, #153 ) ;
#344 = APPROVAL ( #270, 'UNSPECIFIED' ) ;
#345 = FACE_OUTER_BOUND ( 'NONE', #317, .T. ) ;
#346 = APPROVAL_STATUS ( 'not_yet_approved' ) ;
#347 = AXIS2_PLACEMENT_3D ( 'NONE', #239, #65, #264 ) ;
#348 = ORIENTED_EDGE ( 'NONE', *, *, #208, .T. ) ;
#349 = CC_DESIGN_DATE_AND_TIME_ASSIGNMENT ( #227, #72, ( #361 ) ) ;
#350 = ORIENTED_EDGE ( 'NONE', *, *, #150, .F. ) ;
#351 = CARTESIAN_POINT ( 'NONE',  ( -30.75000000000000000, -1.882894453689056100E-015, 0.0000000000000000000 ) ) ;
#352 = DIRECTION ( 'NONE',  ( -9.106159978880877400E-017, 1.000000000000000000, 0.0000000000000000000 ) ) ;
#353 = CARTESIAN_POINT ( 'NONE',  ( 0.0000000000000000000, 0.0000000000000000000, 0.0000000000000000000 ) ) ;
#354 = AXIS2_PLACEMENT_3D ( 'NONE', #198, #15, #221 ) ;
#355 = CIRCLE ( 'NONE', #98, 1.881249999999998500 ) ;
#356 = CC_DESIGN_PERSON_AND_ORGANIZATION_ASSIGNMENT ( #163, #246, ( #361 ) ) ;
#357 = CARTESIAN_POINT ( 'NONE',  ( 0.0000000000000000000, 0.0000000000000000000, 0.0000000000000000000 ) ) ;
#358 = COORDINATED_UNIVERSAL_TIME_OFFSET ( 9, 0, .AHEAD. ) ;
#359 = DIRECTION ( 'NONE',  ( 1.000000000000000000, 6.123233995736767300E-017, -0.0000000000000000000 ) ) ;
#360 = ORIENTED_EDGE ( 'NONE', *, *, #144, .T. ) ;
#361 = SECURITY_CLASSIFICATION ( '', '', #43 ) ;
#362 = DIRECTION ( 'NONE',  ( 0.0000000000000000000, -1.224646799147353700E-016, 1.000000000000000000 ) ) ;
#363 = CARTESIAN_POINT ( 'NONE',  ( 1.458095095234817800E-016, -2.381250000000000100, 2.916190190469635100E-016 ) ) ;
#364 = LINE ( 'NONE', #47, #71 ) ;
#365 = DATE_AND_TIME ( #82, #161 ) ;
ENDSEC;
END-ISO-10303-21;
