ISO-10303-21;
HEADER;
FILE_DESCRIPTION (( 'STEP AP203' ),
    '1' );
FILE_NAME ('03-3062.STEP',
    '2023-05-30T04:45:50',
    ( 'USER' ),
    ( 'Hewlett-Packard Company' ),
    'SwSTEP 2.0',
    'SolidWorks 2014',
    '' );
FILE_SCHEMA (( 'CONFIG_CONTROL_DESIGN' ));
ENDSEC;

DATA;
#1 = EDGE_CURVE ( 'NONE', #293, #150, #226, .T. ) ;
#2 = CIRCLE ( 'NONE', #81, 1.587500000000000400 ) ;
#3 = ORIENTED_EDGE ( 'NONE', *, *, #109, .F. ) ;
#4 = EDGE_CURVE ( 'NONE', #150, #266, #7, .T. ) ;
#5 = ORIENTED_EDGE ( 'NONE', *, *, #174, .T. ) ;
#6 = ORIENTED_EDGE ( 'NONE', *, *, #178, .T. ) ;
#7 = LINE ( 'NONE', #158, #58 ) ;
#8 = EDGE_CURVE ( 'NONE', #293, #259, #142, .T. ) ;
#9 = CARTESIAN_POINT ( 'NONE',  ( 0.9999999999999995600, 0.0000000000000000000, 0.0000000000000000000 ) ) ;
#10 = DIRECTION ( 'NONE',  ( 0.0000000000000000000, 0.0000000000000000000, 1.000000000000000000 ) ) ;
#11 = FACE_OUTER_BOUND ( 'NONE', #319, .T. ) ;
#12 = ORIENTED_EDGE ( 'NONE', *, *, #1, .T. ) ;
#13 = ORIENTED_EDGE ( 'NONE', *, *, #178, .F. ) ;
#14 = EDGE_CURVE ( 'NONE', #189, #286, #364, .T. ) ;
#15 = ADVANCED_FACE ( 'NONE', ( #211 ), #134, .T. ) ;
#16 = EDGE_CURVE ( 'NONE', #150, #293, #83, .T. ) ;
#17 = CIRCLE ( 'NONE', #176, 1.587500000000000400 ) ;
#18 = EDGE_CURVE ( 'NONE', #266, #259, #315, .T. ) ;
#19 = DIRECTION ( 'NONE',  ( 0.7071067811865475700, -0.7071067811865474600, 8.659560562354931600E-017 ) ) ;
#20 = MECHANICAL_CONTEXT ( 'NONE', #161, 'mechanical' ) ;
#21 = ORIENTED_EDGE ( 'NONE', *, *, #166, .F. ) ;
#22 = DIRECTION ( 'NONE',  ( 0.0000000000000000000, 0.0000000000000000000, 1.000000000000000000 ) ) ;
#23 = DIRECTION ( 'NONE',  ( -0.0000000000000000000, 1.000000000000000000, 1.224646799147353200E-016 ) ) ;
#24 = PERSON_AND_ORGANIZATION_ROLE ( 'classification_officer' ) ;
#25 = CARTESIAN_POINT ( 'NONE',  ( 16.62099999999999500, 0.0000000000000000000, 0.0000000000000000000 ) ) ;
#26 = LOCAL_TIME ( 13, 45, 50.00000000000000000, #93 ) ;
#27 = ORIENTED_EDGE ( 'NONE', *, *, #1, .F. ) ;
#28 = FACE_OUTER_BOUND ( 'NONE', #295, .T. ) ;
#29 = LOCAL_TIME ( 13, 45, 50.00000000000000000, #103 ) ;
#30 = DIRECTION ( 'NONE',  ( 6.123233995736767300E-017, -1.000000000000000000, 0.0000000000000000000 ) ) ;
#31 = CALENDAR_DATE ( 2023, 30, 5 ) ;
#32 = DIRECTION ( 'NONE',  ( 0.0000000000000000000, 0.0000000000000000000, 1.000000000000000000 ) ) ;
#33 = CARTESIAN_POINT ( 'NONE',  ( -27.07500000000000300, -1.657865604345729900E-015, 0.0000000000000000000 ) ) ;
#34 = CARTESIAN_POINT ( 'NONE',  ( 16.62099999999999500, 0.0000000000000000000, 0.0000000000000000000 ) ) ;
#35 = CYLINDRICAL_SURFACE ( 'NONE', #260, 1.587500000000000400 ) ;
#36 = CALENDAR_DATE ( 2023, 30, 5 ) ;
#37 = ADVANCED_FACE ( 'NONE', ( #236 ), #119, .F. ) ;
#38 = DIRECTION ( 'NONE',  ( -6.123233995736767300E-017, 1.000000000000000000, 0.0000000000000000000 ) ) ;
#39 = CARTESIAN_POINT ( 'NONE',  ( 0.9999999999999993300, 6.123233995736763600E-017, 0.0000000000000000000 ) ) ;
#40 = DATE_AND_TIME ( #112, #200 ) ;
#41 = ORIENTED_EDGE ( 'NONE', *, *, #109, .T. ) ;
#42 = APPLICATION_CONTEXT ( 'configuration controlled 3d designs of mechanical parts and assemblies' ) ;
#43 = APPROVAL_STATUS ( 'not_yet_approved' ) ;
#44 = FACE_OUTER_BOUND ( 'NONE', #275, .T. ) ;
#45 = DIRECTION ( 'NONE',  ( -1.000000000000000000, -0.0000000000000000000, -0.0000000000000000000 ) ) ;
#46 = DIRECTION ( 'NONE',  ( 0.0000000000000000000, 0.0000000000000000000, -1.000000000000000000 ) ) ;
#47 = PERSON_AND_ORGANIZATION ( #284, #205 ) ;
#48 = ORIENTED_EDGE ( 'NONE', *, *, #362, .T. ) ;
#49 = FACE_OUTER_BOUND ( 'NONE', #238, .T. ) ;
#50 = LINE ( 'NONE', #170, #74 ) ;
#51 = CARTESIAN_POINT ( 'NONE',  ( 0.9999999999999995600, 0.0000000000000000000, 1.587500000000000400 ) ) ;
#52 = ORIENTED_EDGE ( 'NONE', *, *, #130, .T. ) ;
#53 = DIRECTION ( 'NONE',  ( 1.000000000000000000, 6.123233995736767300E-017, -0.0000000000000000000 ) ) ;
#54 = MANIFOLD_SOLID_BREP ( 'È¸Àü4', #128 ) ;
#55 = LINE ( 'NONE', #305, #288 ) ;
#56 = ORIENTED_EDGE ( 'NONE', *, *, #166, .T. ) ;
#57 = ORIENTED_EDGE ( 'NONE', *, *, #174, .F. ) ;
#58 = VECTOR ( 'NONE', #19, 1000.000000000000000 ) ;
#59 = ADVANCED_FACE ( 'NONE', ( #11 ), #220, .T. ) ;
#60 = CARTESIAN_POINT ( 'NONE',  ( 0.9999999999999995600, 1.944126793646423500E-016, -1.587500000000000400 ) ) ;
#61 = DIRECTION ( 'NONE',  ( 0.0000000000000000000, 1.000000000000000000, 0.0000000000000000000 ) ) ;
#62 = CARTESIAN_POINT ( 'NONE',  ( 0.9999999999999995600, 0.0000000000000000000, 0.0000000000000000000 ) ) ;
#63 = CARTESIAN_POINT ( 'NONE',  ( 16.62099999999999500, 0.0000000000000000000, 0.0000000000000000000 ) ) ;
#64 = APPROVAL_STATUS ( 'not_yet_approved' ) ;
#65 = CIRCLE ( 'NONE', #181, 1.587500000000000400 ) ;
#66 = ORIENTED_EDGE ( 'NONE', *, *, #4, .F. ) ;
#67 = DIRECTION ( 'NONE',  ( -6.123233995736767300E-017, 1.000000000000000000, 0.0000000000000000000 ) ) ;
#68 = ORIENTED_EDGE ( 'NONE', *, *, #8, .T. ) ;
#69 = UNCERTAINTY_MEASURE_WITH_UNIT (LENGTH_MEASURE( 1.000000000000000100E-005 ), #102, 'distance_accuracy_value', 'NONE');
#70 = ORIENTED_EDGE ( 'NONE', *, *, #16, .T. ) ;
#71 = DIRECTION ( 'NONE',  ( -1.000000000000000000, -0.0000000000000000000, -0.0000000000000000000 ) ) ;
#72 = EDGE_LOOP ( 'NONE', ( #139, #325, #141, #3 ) ) ;
#73 = CARTESIAN_POINT ( 'NONE',  ( 0.0000000000000000000, 0.0000000000000000000, 0.0000000000000000000 ) ) ;
#74 = VECTOR ( 'NONE', #365, 1000.000000000000000 ) ;
#75 = FACE_OUTER_BOUND ( 'NONE', #316, .T. ) ;
#76 = ORIENTED_EDGE ( 'NONE', *, *, #146, .F. ) ;
#77 = CC_DESIGN_DATE_AND_TIME_ASSIGNMENT ( #331, #309, ( #233 ) ) ;
#78 = ORIENTED_EDGE ( 'NONE', *, *, #199, .F. ) ;
#79 = VERTEX_POINT ( 'NONE', #60 ) ;
#80 = PRODUCT_DEFINITION_FORMATION_WITH_SPECIFIED_SOURCE ( 'ANY', '', #255, .NOT_KNOWN. ) ;
#81 = AXIS2_PLACEMENT_3D ( 'NONE', #62, #274, #94 ) ;
#82 = CARTESIAN_POINT ( 'NONE',  ( 16.87500000000000000, 0.0000000000000000000, 0.0000000000000000000 ) ) ;
#83 = CIRCLE ( 'NONE', #143, 1.087499999999998100 ) ;
#84 = CARTESIAN_POINT ( 'NONE',  ( 16.62099999999999500, 1.944126793646425000E-016, -1.587500000000001500 ) ) ;
#85 = CARTESIAN_POINT ( 'NONE',  ( 16.87500000000000000, 0.0000000000000000000, 1.333500000000000600 ) ) ;
#86 = ORIENTED_EDGE ( 'NONE', *, *, #130, .F. ) ;
#87 = AXIS2_PLACEMENT_3D ( 'NONE', #215, #273, #92 ) ;
#88 = ORIENTED_EDGE ( 'NONE', *, *, #173, .F. ) ;
#89 = AXIS2_PLACEMENT_3D ( 'NONE', #169, #227, #46 ) ;
#90 = DIRECTION ( 'NONE',  ( 0.0000000000000000000, 1.000000000000000000, 0.0000000000000000000 ) ) ;
#91 = AXIS2_PLACEMENT_3D ( 'NONE', #329, #154, #349 ) ;
#92 = DIRECTION ( 'NONE',  ( 0.0000000000000000000, 0.0000000000000000000, 1.000000000000000000 ) ) ;
#93 = COORDINATED_UNIVERSAL_TIME_OFFSET ( 9, 0, .AHEAD. ) ;
#94 = DIRECTION ( 'NONE',  ( 0.0000000000000000000, 0.0000000000000000000, 1.000000000000000000 ) ) ;
#95 =( NAMED_UNIT ( * ) SI_UNIT ( $, .STERADIAN. ) SOLID_ANGLE_UNIT ( ) );
#96 = DIRECTION ( 'NONE',  ( -1.000000000000000000, -0.0000000000000000000, -0.0000000000000000000 ) ) ;
#97 = PERSON_AND_ORGANIZATION_ROLE ( 'creator' ) ;
#98 = CARTESIAN_POINT ( 'NONE',  ( -27.57500000000000300, -1.688481774324413700E-015, 0.0000000000000000000 ) ) ;
#99 = CARTESIAN_POINT ( 'NONE',  ( 0.0000000000000000000, 0.0000000000000000000, 0.0000000000000000000 ) ) ;
#100 = CONICAL_SURFACE ( 'NONE', #106, 1.587499999999998600, 0.7853981633974482800 ) ;
#101 = AXIS2_PLACEMENT_3D ( 'NONE', #336, #354, #190 ) ;
#102 =( LENGTH_UNIT ( ) NAMED_UNIT ( * ) SI_UNIT ( .MILLI., .METRE. ) );
#103 = COORDINATED_UNIVERSAL_TIME_OFFSET ( 9, 0, .AHEAD. ) ;
#104 = LOCAL_TIME ( 13, 45, 50.00000000000000000, #186 ) ;
#105 = CC_DESIGN_PERSON_AND_ORGANIZATION_ASSIGNMENT ( #122, #218, ( #255 ) ) ;
#106 = AXIS2_PLACEMENT_3D ( 'NONE', #133, #279, #312 ) ;
#107 = CONICAL_SURFACE ( 'NONE', #235, 1.587499999999998600, 0.7853981633974482800 ) ;
#108 = LOCAL_TIME ( 13, 45, 50.00000000000000000, #197 ) ;
#109 = EDGE_CURVE ( 'NONE', #231, #307, #162, .T. ) ;
#110 = CC_DESIGN_APPROVAL ( #229, ( #233 ) ) ;
#111 = DIRECTION ( 'NONE',  ( 0.0000000000000000000, 0.0000000000000000000, 1.000000000000000000 ) ) ;
#112 = CALENDAR_DATE ( 2023, 30, 5 ) ;
#113 = CARTESIAN_POINT ( 'NONE',  ( 16.62099999999999500, 0.0000000000000000000, 0.0000000000000000000 ) ) ;
#114 = DIRECTION ( 'NONE',  ( 0.0000000000000000000, 0.0000000000000000000, 1.000000000000000000 ) ) ;
#115 = ORIENTED_EDGE ( 'NONE', *, *, #18, .F. ) ;
#116 = EDGE_CURVE ( 'NONE', #286, #189, #17, .T. ) ;
#117 = FACE_OUTER_BOUND ( 'NONE', #289, .T. ) ;
#118 = EDGE_CURVE ( 'NONE', #266, #189, #308, .T. ) ;
#119 = PLANE ( 'NONE',  #91 ) ;
#120 = ADVANCED_FACE ( 'NONE', ( #75 ), #219, .T. ) ;
#121 = DIRECTION ( 'NONE',  ( 1.000000000000000000, 6.123233995736767300E-017, -0.0000000000000000000 ) ) ;
#122 = PERSON_AND_ORGANIZATION ( #284, #205 ) ;
#123 = CARTESIAN_POINT ( 'NONE',  ( -27.07500000000000300, -1.657865604345729900E-015, 0.0000000000000000000 ) ) ;
#124 = CARTESIAN_POINT ( 'NONE',  ( 0.0000000000000000000, 0.0000000000000000000, 1.587500000000000400 ) ) ;
#125 = ORIENTED_EDGE ( 'NONE', *, *, #146, .T. ) ;
#126 = EDGE_CURVE ( 'NONE', #307, #168, #297, .T. ) ;
#127 = APPLICATION_PROTOCOL_DEFINITION ( 'international standard', 'config_control_design', 1994, #161 ) ;
#128 = CLOSED_SHELL ( 'NONE', ( #350, #241, #59, #155, #183, #212 ) ) ;
#129 = APPROVAL_STATUS ( 'not_yet_approved' ) ;
#130 = EDGE_CURVE ( 'NONE', #168, #79, #2, .T. ) ;
#131 = CIRCLE ( 'NONE', #281, 1.333500000000000600 ) ;
#132 = DIRECTION ( 'NONE',  ( 0.0000000000000000000, 1.000000000000000000, 0.0000000000000000000 ) ) ;
#133 = CARTESIAN_POINT ( 'NONE',  ( -27.07500000000000300, -1.657865604345729900E-015, 0.0000000000000000000 ) ) ;
#134 = TOROIDAL_SURFACE ( 'NONE', #149, 1.333500000000000600, 0.2540000000000020600 ) ;
#135 = AXIS2_PLACEMENT_3D ( 'NONE', #188, #160, #187 ) ;
#136 = AXIS2_PLACEMENT_3D ( 'NONE', #163, #356, #191 ) ;
#137 = ORIENTED_EDGE ( 'NONE', *, *, #126, .F. ) ;
#138 = CIRCLE ( 'NONE', #194, 1.587500000000000400 ) ;
#139 = ORIENTED_EDGE ( 'NONE', *, *, #173, .T. ) ;
#140 = EDGE_CURVE ( 'NONE', #307, #201, #65, .T. ) ;
#141 = ORIENTED_EDGE ( 'NONE', *, *, #140, .F. ) ;
#142 = LINE ( 'NONE', #217, #291 ) ;
#143 = AXIS2_PLACEMENT_3D ( 'NONE', #98, #311, #132 ) ;
#144 = PLANE ( 'NONE',  #210 ) ;
#145 = DIRECTION ( 'NONE',  ( 0.0000000000000000000, 0.0000000000000000000, 1.000000000000000000 ) ) ;
#146 = EDGE_CURVE ( 'NONE', #201, #79, #55, .T. ) ;
#147 = VECTOR ( 'NONE', #121, 1000.000000000000000 ) ;
#148 =( NAMED_UNIT ( * ) PLANE_ANGLE_UNIT ( ) SI_UNIT ( $, .RADIAN. ) );
#149 = AXIS2_PLACEMENT_3D ( 'NONE', #63, #96, #22 ) ;
#150 = VERTEX_POINT ( 'NONE', #157 ) ;
#151 = ORIENTED_EDGE ( 'NONE', *, *, #126, .T. ) ;
#152 = AXIS2_PLACEMENT_3D ( 'NONE', #123, #270, #90 ) ;
#153 = CYLINDRICAL_SURFACE ( 'NONE', #239, 1.587500000000000400 ) ;
#154 = DIRECTION ( 'NONE',  ( -1.000000000000000000, 0.0000000000000000000, -0.0000000000000000000 ) ) ;
#155 = ADVANCED_FACE ( 'NONE', ( #359 ), #144, .T. ) ;
#156 = CARTESIAN_POINT ( 'NONE',  ( 16.62099999999999500, 0.0000000000000000000, 1.333500000000000600 ) ) ;
#157 = CARTESIAN_POINT ( 'NONE',  ( -27.57500000000000300, -1.087499999999999900, 1.637965093859583200E-016 ) ) ;
#158 = CARTESIAN_POINT ( 'NONE',  ( -27.07500000000000300, -1.587500000000000400, 1.944126793646421600E-016 ) ) ;
#159 = EDGE_CURVE ( 'NONE', #201, #307, #138, .T. ) ;
#160 = DIRECTION ( 'NONE',  ( 1.000000000000000000, 6.123233995736767300E-017, -0.0000000000000000000 ) ) ;
#161 = APPLICATION_CONTEXT ( 'configuration controlled 3d designs of mechanical parts and assemblies' ) ;
#162 = CIRCLE ( 'NONE', #290, 0.2540000000000020600 ) ;
#163 = CARTESIAN_POINT ( 'NONE',  ( 0.9999999999999993300, 6.123233995736763600E-017, 0.0000000000000000000 ) ) ;
#164 = PERSON_AND_ORGANIZATION_ROLE ( 'creator' ) ;
#165 = ORIENTED_EDGE ( 'NONE', *, *, #18, .T. ) ;
#166 = EDGE_CURVE ( 'NONE', #79, #168, #209, .T. ) ;
#167 = CARTESIAN_POINT ( 'NONE',  ( -27.07500000000000300, 1.587499999999996800, 0.0000000000000000000 ) ) ;
#168 = VERTEX_POINT ( 'NONE', #51 ) ;
#169 = CARTESIAN_POINT ( 'NONE',  ( 1.000000000000000200, 8.195543980992794600E-016, 0.0000000000000000000 ) ) ;
#170 = CARTESIAN_POINT ( 'NONE',  ( -9.720633968232120100E-017, 1.587500000000000400, 0.0000000000000000000 ) ) ;
#171 = APPROVAL_DATE_TIME ( #244, #301 ) ;
#172 = ORIENTED_EDGE ( 'NONE', *, *, #8, .F. ) ;
#173 = EDGE_CURVE ( 'NONE', #231, #263, #131, .T. ) ;
#174 = EDGE_CURVE ( 'NONE', #263, #231, #347, .T. ) ;
#175 = APPROVAL_DATE_TIME ( #254, #326 ) ;
#176 = AXIS2_PLACEMENT_3D ( 'NONE', #39, #242, #61 ) ;
#177 = APPROVAL_PERSON_ORGANIZATION ( #257, #301, #332 ) ;
#178 = EDGE_CURVE ( 'NONE', #259, #266, #280, .T. ) ;
#179 = DIRECTION ( 'NONE',  ( -1.000000000000000000, -0.0000000000000000000, -0.0000000000000000000 ) ) ;
#180 = MANIFOLD_SOLID_BREP ( 'È¸Àü3', #355 ) ;
#181 = AXIS2_PLACEMENT_3D ( 'NONE', #34, #247, #111 ) ;
#182 = APPROVAL_PERSON_ORGANIZATION ( #262, #326, #249 ) ;
#183 = ADVANCED_FACE ( 'NONE', ( #49 ), #107, .T. ) ;
#184 = CARTESIAN_POINT ( 'NONE',  ( 9.720633968232120100E-017, -1.587500000000000400, 1.944126793646423500E-016 ) ) ;
#185 = DIRECTION ( 'NONE',  ( 0.0000000000000000000, 0.0000000000000000000, -1.000000000000000000 ) ) ;
#186 = COORDINATED_UNIVERSAL_TIME_OFFSET ( 9, 0, .AHEAD. ) ;
#187 = DIRECTION ( 'NONE',  ( 0.0000000000000000000, 1.000000000000000000, 0.0000000000000000000 ) ) ;
#188 = CARTESIAN_POINT ( 'NONE',  ( -27.57500000000000300, -1.688481774324413700E-015, 0.0000000000000000000 ) ) ;
#189 = VERTEX_POINT ( 'NONE', #296 ) ;
#190 = DIRECTION ( 'NONE',  ( 1.000000000000000000, 0.0000000000000000000, 0.0000000000000000000 ) ) ;
#191 = DIRECTION ( 'NONE',  ( 0.0000000000000000000, 1.000000000000000000, 0.0000000000000000000 ) ) ;
#192 = CARTESIAN_POINT ( 'NONE',  ( 16.62099999999999500, 1.633066506662996300E-016, -1.333500000000000600 ) ) ;
#193 = SECURITY_CLASSIFICATION_LEVEL ( 'unclassified' ) ;
#194 = AXIS2_PLACEMENT_3D ( 'NONE', #113, #321, #145 ) ;
#195 = CARTESIAN_POINT ( 'NONE',  ( -27.07500000000000300, -1.587500000000000400, 1.944126793646421600E-016 ) ) ;
#196 = FACE_OUTER_BOUND ( 'NONE', #298, .T. ) ;
#197 = COORDINATED_UNIVERSAL_TIME_OFFSET ( 9, 0, .AHEAD. ) ;
#198 = AXIS2_PLACEMENT_3D ( 'NONE', #9, #207, #32 ) ;
#199 = EDGE_CURVE ( 'NONE', #263, #201, #203, .T. ) ;
#200 = LOCAL_TIME ( 13, 45, 50.00000000000000000, #272 ) ;
#201 = VERTEX_POINT ( 'NONE', #84 ) ;
#202 = AXIS2_PLACEMENT_3D ( 'NONE', #214, #302, #38 ) ;
#203 = CIRCLE ( 'NONE', #228, 0.2540000000000020600 ) ;
#204 = CC_DESIGN_PERSON_AND_ORGANIZATION_ASSIGNMENT ( #342, #358, ( #80 ) ) ;
#205 = ORGANIZATION ( 'UNSPECIFIED', 'UNSPECIFIED', '' ) ;
#206 = DIRECTION ( 'NONE',  ( -1.000000000000000000, -6.123233995736767300E-017, 0.0000000000000000000 ) ) ;
#207 = DIRECTION ( 'NONE',  ( -1.000000000000000000, -0.0000000000000000000, -0.0000000000000000000 ) ) ;
#208 = ORIENTED_EDGE ( 'NONE', *, *, #4, .T. ) ;
#209 = CIRCLE ( 'NONE', #198, 1.587500000000000400 ) ;
#210 = AXIS2_PLACEMENT_3D ( 'NONE', #343, #206, #30 ) ;
#211 = FACE_OUTER_BOUND ( 'NONE', #310, .T. ) ;
#212 = ADVANCED_FACE ( 'NONE', ( #117 ), #35, .T. ) ;
#213 = AXIS2_PLACEMENT_3D ( 'NONE', #346, #179, #10 ) ;
#214 = CARTESIAN_POINT ( 'NONE',  ( 0.9999999999999995600, 1.587500000000000400, 0.0000000000000000000 ) ) ;
#215 = CARTESIAN_POINT ( 'NONE',  ( 0.0000000000000000000, 0.0000000000000000000, 0.0000000000000000000 ) ) ;
#216 = ORIENTED_EDGE ( 'NONE', *, *, #116, .T. ) ;
#217 = CARTESIAN_POINT ( 'NONE',  ( -27.07500000000000300, 1.587499999999996800, 0.0000000000000000000 ) ) ;
#218 = PERSON_AND_ORGANIZATION_ROLE ( 'design_owner' ) ;
#219 = CYLINDRICAL_SURFACE ( 'NONE', #87, 1.587500000000000400 ) ;
#220 = PLANE ( 'NONE',  #202 ) ;
#221 = DIRECTION ( 'NONE',  ( 0.0000000000000000000, -1.224646799147353000E-016, 1.000000000000000000 ) ) ;
#222 = DATE_TIME_ROLE ( 'classification_date' ) ;
#223 = ORIENTED_EDGE ( 'NONE', *, *, #14, .T. ) ;
#224 = ORIENTED_EDGE ( 'NONE', *, *, #16, .F. ) ;
#225 = DIRECTION ( 'NONE',  ( 0.0000000000000000000, 0.0000000000000000000, 1.000000000000000000 ) ) ;
#226 = CIRCLE ( 'NONE', #135, 1.087499999999998100 ) ;
#227 = DIRECTION ( 'NONE',  ( 1.000000000000000000, 0.0000000000000000000, 0.0000000000000000000 ) ) ;
#228 = AXIS2_PLACEMENT_3D ( 'NONE', #192, #23, #221 ) ;
#229 = APPROVAL ( #64, 'UNSPECIFIED' ) ;
#230 = VECTOR ( 'NONE', #304, 1000.000000000000000 ) ;
#231 = VERTEX_POINT ( 'NONE', #85 ) ;
#232 = EDGE_LOOP ( 'NONE', ( #27, #224 ) ) ;
#233 = PRODUCT_DEFINITION ( 'UNKNOWN', '', #80, #243 ) ;
#234 = ORIENTED_EDGE ( 'NONE', *, *, #14, .F. ) ;
#235 = AXIS2_PLACEMENT_3D ( 'NONE', #33, #264, #323 ) ;
#236 = FACE_OUTER_BOUND ( 'NONE', #360, .T. ) ;
#237 = CARTESIAN_POINT ( 'NONE',  ( -27.07500000000000300, -1.657865604345729900E-015, 0.0000000000000000000 ) ) ;
#238 = EDGE_LOOP ( 'NONE', ( #66, #70, #68, #115 ) ) ;
#239 = AXIS2_PLACEMENT_3D ( 'NONE', #73, #283, #253 ) ;
#240 =( GEOMETRIC_REPRESENTATION_CONTEXT ( 3 ) GLOBAL_UNCERTAINTY_ASSIGNED_CONTEXT ( ( #69 ) ) GLOBAL_UNIT_ASSIGNED_CONTEXT ( ( #102, #148, #95 ) ) REPRESENTATION_CONTEXT ( 'NONE', 'WORKASPACE' ) );
#241 = ADVANCED_FACE ( 'NONE', ( #44 ), #100, .T. ) ;
#242 = DIRECTION ( 'NONE',  ( 1.000000000000000000, 6.123233995736767300E-017, -0.0000000000000000000 ) ) ;
#243 = DESIGN_CONTEXT ( 'detailed design', #42, 'design' ) ;
#244 = DATE_AND_TIME ( #322, #26 ) ;
#245 = AXIS2_PLACEMENT_3D ( 'NONE', #237, #53, #267 ) ;
#246 = APPLICATION_PROTOCOL_DEFINITION ( 'international standard', 'config_control_design', 1994, #42 ) ;
#247 = DIRECTION ( 'NONE',  ( -1.000000000000000000, -0.0000000000000000000, -0.0000000000000000000 ) ) ;
#248 = DIRECTION ( 'NONE',  ( 1.000000000000000000, 6.123233995736767300E-017, -0.0000000000000000000 ) ) ;
#249 = APPROVAL_ROLE ( '' ) ;
#250 = AXIS2_PLACEMENT_3D ( 'NONE', #99, #71, #225 ) ;
#251 = DIRECTION ( 'NONE',  ( 0.0000000000000000000, 0.0000000000000000000, 1.000000000000000000 ) ) ;
#252 = ADVANCED_BREP_SHAPE_REPRESENTATION ( '03-3062', ( #180, #54, #101 ), #240 ) ;
#253 = DIRECTION ( 'NONE',  ( -6.123233995736767300E-017, 1.000000000000000000, 0.0000000000000000000 ) ) ;
#254 = DATE_AND_TIME ( #327, #29 ) ;
#255 = PRODUCT ( '03-3062', '03-3062', '', ( #20 ) ) ;
#256 = AXIS2_PLACEMENT_3D ( 'NONE', #25, #45, #251 ) ;
#257 = PERSON_AND_ORGANIZATION ( #284, #205 ) ;
#258 = PRODUCT_DEFINITION_SHAPE ( 'NONE', 'NONE',  #233 ) ;
#259 = VERTEX_POINT ( 'NONE', #167 ) ;
#260 = AXIS2_PLACEMENT_3D ( 'NONE', #357, #248, #67 ) ;
#261 = PERSON_AND_ORGANIZATION ( #284, #205 ) ;
#262 = PERSON_AND_ORGANIZATION ( #284, #205 ) ;
#263 = VERTEX_POINT ( 'NONE', #361 ) ;
#264 = DIRECTION ( 'NONE',  ( 1.000000000000000000, 6.123233995736767300E-017, -0.0000000000000000000 ) ) ;
#265 = PERSON_AND_ORGANIZATION ( #284, #205 ) ;
#266 = VERTEX_POINT ( 'NONE', #195 ) ;
#267 = DIRECTION ( 'NONE',  ( 0.0000000000000000000, 1.000000000000000000, 0.0000000000000000000 ) ) ;
#268 = TOROIDAL_SURFACE ( 'NONE', #256, 1.333500000000000600, 0.2540000000000020600 ) ;
#269 = PERSON_AND_ORGANIZATION ( #284, #205 ) ;
#270 = DIRECTION ( 'NONE',  ( 1.000000000000000000, 6.123233995736767300E-017, -0.0000000000000000000 ) ) ;
#271 = ADVANCED_FACE ( 'NONE', ( #334 ), #268, .T. ) ;
#272 = COORDINATED_UNIVERSAL_TIME_OFFSET ( 9, 0, .AHEAD. ) ;
#273 = DIRECTION ( 'NONE',  ( -1.000000000000000000, -0.0000000000000000000, -0.0000000000000000000 ) ) ;
#274 = DIRECTION ( 'NONE',  ( -1.000000000000000000, -0.0000000000000000000, -0.0000000000000000000 ) ) ;
#275 = EDGE_LOOP ( 'NONE', ( #12, #208, #13, #172 ) ) ;
#276 = CC_DESIGN_PERSON_AND_ORGANIZATION_ASSIGNMENT ( #265, #97, ( #233 ) ) ;
#277 = APPROVAL_ROLE ( '' ) ;
#278 = ORIENTED_EDGE ( 'NONE', *, *, #362, .F. ) ;
#279 = DIRECTION ( 'NONE',  ( 1.000000000000000000, 6.123233995736767300E-017, -0.0000000000000000000 ) ) ;
#280 = CIRCLE ( 'NONE', #245, 1.587499999999998600 ) ;
#281 = AXIS2_PLACEMENT_3D ( 'NONE', #82, #294, #114 ) ;
#282 = CARTESIAN_POINT ( 'NONE',  ( 0.9999999999999993300, 1.587500000000000400, 0.0000000000000000000 ) ) ;
#283 = DIRECTION ( 'NONE',  ( 1.000000000000000000, 6.123233995736767300E-017, -0.0000000000000000000 ) ) ;
#284 = PERSON ( 'UNSPECIFIED', 'UNSPECIFIED', 'UNSPECIFIED', ('UNSPECIFIED'), ('UNSPECIFIED'), ('UNSPECIFIED') ) ;
#285 = SHAPE_DEFINITION_REPRESENTATION ( #258, #252 ) ;
#286 = VERTEX_POINT ( 'NONE', #282 ) ;
#287 = ORIENTED_EDGE ( 'NONE', *, *, #159, .F. ) ;
#288 = VECTOR ( 'NONE', #320, 1000.000000000000000 ) ;
#289 = EDGE_LOOP ( 'NONE', ( #306, #165, #48, #234 ) ) ;
#290 = AXIS2_PLACEMENT_3D ( 'NONE', #156, #351, #185 ) ;
#291 = VECTOR ( 'NONE', #353, 1000.000000000000000 ) ;
#292 = CC_DESIGN_APPROVAL ( #301, ( #80 ) ) ;
#293 = VERTEX_POINT ( 'NONE', #314 ) ;
#294 = DIRECTION ( 'NONE',  ( -1.000000000000000000, -0.0000000000000000000, -0.0000000000000000000 ) ) ;
#295 = EDGE_LOOP ( 'NONE', ( #52, #56 ) ) ;
#296 = CARTESIAN_POINT ( 'NONE',  ( 0.9999999999999993300, -1.587500000000000400, 1.944126793646423500E-016 ) ) ;
#297 = LINE ( 'NONE', #124, #230 ) ;
#298 = EDGE_LOOP ( 'NONE', ( #76, #345, #151, #21 ) ) ;
#299 = ORIENTED_EDGE ( 'NONE', *, *, #118, .T. ) ;
#300 = CYLINDRICAL_SURFACE ( 'NONE', #250, 1.587500000000000400 ) ;
#301 = APPROVAL ( #129, 'UNSPECIFIED' ) ;
#302 = DIRECTION ( 'NONE',  ( 1.000000000000000000, 6.123233995736767300E-017, -0.0000000000000000000 ) ) ;
#303 = ADVANCED_FACE ( 'NONE', ( #196 ), #300, .T. ) ;
#304 = DIRECTION ( 'NONE',  ( -1.000000000000000000, -0.0000000000000000000, -0.0000000000000000000 ) ) ;
#305 = CARTESIAN_POINT ( 'NONE',  ( 0.0000000000000000000, 1.944126793646423500E-016, -1.587500000000000400 ) ) ;
#306 = ORIENTED_EDGE ( 'NONE', *, *, #118, .F. ) ;
#307 = VERTEX_POINT ( 'NONE', #363 ) ;
#308 = LINE ( 'NONE', #184, #147 ) ;
#309 = DATE_TIME_ROLE ( 'creation_date' ) ;
#310 = EDGE_LOOP ( 'NONE', ( #78, #5, #41, #287 ) ) ;
#311 = DIRECTION ( 'NONE',  ( 1.000000000000000000, 6.123233995736767300E-017, -0.0000000000000000000 ) ) ;
#312 = DIRECTION ( 'NONE',  ( 0.0000000000000000000, 1.000000000000000000, 0.0000000000000000000 ) ) ;
#313 = ORIENTED_EDGE ( 'NONE', *, *, #140, .T. ) ;
#314 = CARTESIAN_POINT ( 'NONE',  ( -27.57500000000000300, 1.087499999999996400, 0.0000000000000000000 ) ) ;
#315 = CIRCLE ( 'NONE', #152, 1.587499999999998600 ) ;
#316 = EDGE_LOOP ( 'NONE', ( #313, #125, #86, #137 ) ) ;
#317 = SECURITY_CLASSIFICATION ( '', '', #193 ) ;
#318 = CC_DESIGN_PERSON_AND_ORGANIZATION_ASSIGNMENT ( #269, #24, ( #317 ) ) ;
#319 = EDGE_LOOP ( 'NONE', ( #216, #223 ) ) ;
#320 = DIRECTION ( 'NONE',  ( -1.000000000000000000, -0.0000000000000000000, -0.0000000000000000000 ) ) ;
#321 = DIRECTION ( 'NONE',  ( -1.000000000000000000, -0.0000000000000000000, -0.0000000000000000000 ) ) ;
#322 = CALENDAR_DATE ( 2023, 30, 5 ) ;
#323 = DIRECTION ( 'NONE',  ( 0.0000000000000000000, 1.000000000000000000, 0.0000000000000000000 ) ) ;
#324 = CC_DESIGN_DATE_AND_TIME_ASSIGNMENT ( #337, #222, ( #317 ) ) ;
#325 = ORIENTED_EDGE ( 'NONE', *, *, #199, .T. ) ;
#326 = APPROVAL ( #43, 'UNSPECIFIED' ) ;
#327 = CALENDAR_DATE ( 2023, 30, 5 ) ;
#328 = ADVANCED_FACE ( 'NONE', ( #28 ), #333, .F. ) ;
#329 = CARTESIAN_POINT ( 'NONE',  ( 16.87500000000000000, 0.0000000000000000000, 0.0000000000000000000 ) ) ;
#330 = CC_DESIGN_APPROVAL ( #326, ( #317 ) ) ;
#331 = DATE_AND_TIME ( #31, #104 ) ;
#332 = APPROVAL_ROLE ( '' ) ;
#333 = PLANE ( 'NONE',  #89 ) ;
#334 = FACE_OUTER_BOUND ( 'NONE', #72, .T. ) ;
#335 = PRODUCT_RELATED_PRODUCT_CATEGORY ( 'detail', '', ( #255 ) ) ;
#336 = CARTESIAN_POINT ( 'NONE',  ( 0.0000000000000000000, 0.0000000000000000000, 0.0000000000000000000 ) ) ;
#337 = DATE_AND_TIME ( #36, #108 ) ;
#338 = APPROVAL_DATE_TIME ( #40, #229 ) ;
#339 = ORIENTED_EDGE ( 'NONE', *, *, #116, .F. ) ;
#340 = CC_DESIGN_SECURITY_CLASSIFICATION ( #317, ( #80 ) ) ;
#341 = FACE_OUTER_BOUND ( 'NONE', #352, .T. ) ;
#342 = PERSON_AND_ORGANIZATION ( #284, #205 ) ;
#343 = CARTESIAN_POINT ( 'NONE',  ( -27.57500000000000300, -1.688481774324413500E-015, 0.0000000000000000000 ) ) ;
#344 = APPROVAL_PERSON_ORGANIZATION ( #47, #229, #277 ) ;
#345 = ORIENTED_EDGE ( 'NONE', *, *, #159, .T. ) ;
#346 = CARTESIAN_POINT ( 'NONE',  ( 16.87500000000000000, 0.0000000000000000000, 0.0000000000000000000 ) ) ;
#347 = CIRCLE ( 'NONE', #213, 1.333500000000000600 ) ;
#348 = CC_DESIGN_PERSON_AND_ORGANIZATION_ASSIGNMENT ( #261, #164, ( #80 ) ) ;
#349 = DIRECTION ( 'NONE',  ( -0.0000000000000000000, 0.0000000000000000000, 1.000000000000000000 ) ) ;
#350 = ADVANCED_FACE ( 'NONE', ( #341 ), #153, .T. ) ;
#351 = DIRECTION ( 'NONE',  ( 0.0000000000000000000, -1.000000000000000000, 0.0000000000000000000 ) ) ;
#352 = EDGE_LOOP ( 'NONE', ( #6, #299, #339, #278 ) ) ;
#353 = DIRECTION ( 'NONE',  ( 0.7071067811865475700, 0.7071067811865474600, 0.0000000000000000000 ) ) ;
#354 = DIRECTION ( 'NONE',  ( 0.0000000000000000000, 0.0000000000000000000, 1.000000000000000000 ) ) ;
#355 = CLOSED_SHELL ( 'NONE', ( #120, #271, #15, #303, #328, #37 ) ) ;
#356 = DIRECTION ( 'NONE',  ( 1.000000000000000000, 6.123233995736767300E-017, -0.0000000000000000000 ) ) ;
#357 = CARTESIAN_POINT ( 'NONE',  ( 0.0000000000000000000, 0.0000000000000000000, 0.0000000000000000000 ) ) ;
#358 = PERSON_AND_ORGANIZATION_ROLE ( 'design_supplier' ) ;
#359 = FACE_OUTER_BOUND ( 'NONE', #232, .T. ) ;
#360 = EDGE_LOOP ( 'NONE', ( #88, #57 ) ) ;
#361 = CARTESIAN_POINT ( 'NONE',  ( 16.87500000000000000, 1.788596650154711100E-016, -1.333500000000000600 ) ) ;
#362 = EDGE_CURVE ( 'NONE', #259, #286, #50, .T. ) ;
#363 = CARTESIAN_POINT ( 'NONE',  ( 16.62099999999999500, 0.0000000000000000000, 1.587500000000001500 ) ) ;
#364 = CIRCLE ( 'NONE', #136, 1.587500000000000400 ) ;
#365 = DIRECTION ( 'NONE',  ( 1.000000000000000000, 6.123233995736767300E-017, -0.0000000000000000000 ) ) ;
ENDSEC;
END-ISO-10303-21;
