ISO-10303-21;
HEADER;
FILE_DESCRIPTION (( 'STEP AP203' ),
    '1' );
FILE_NAME ('03-3063.STEP',
    '2023-07-03T01:14:33',
    ( 'USER' ),
    ( 'Hewlett-Packard Company' ),
    'SwSTEP 2.0',
    'SolidWorks 2014',
    '' );
FILE_SCHEMA (( 'CONFIG_CONTROL_DESIGN' ));
ENDSEC;

DATA;
#1 = CARTESIAN_POINT ( 'NONE',  ( 74.00000000000000000, 0.0000000000000000000, 0.0000000000000000000 ) ) ;
#2 = CC_DESIGN_APPROVAL ( #349, ( #288 ) ) ;
#3 = ADVANCED_FACE ( 'NONE', ( #130 ), #191, .T. ) ;
#4 = MANIFOLD_SOLID_BREP ( 'È¸Àü4', #233 ) ;
#5 = ORIENTED_EDGE ( 'NONE', *, *, #69, .F. ) ;
#6 = AXIS2_PLACEMENT_3D ( 'NONE', #112, #307, #143 ) ;
#7 = ORIENTED_EDGE ( 'NONE', *, *, #218, .F. ) ;
#8 = APPROVAL_DATE_TIME ( #81, #217 ) ;
#9 = VECTOR ( 'NONE', #178, 1000.000000000000000 ) ;
#10 = PRODUCT ( '03-3063', '03-3063', '', ( #85 ) ) ;
#11 = CARTESIAN_POINT ( 'NONE',  ( -63.50000000000000000, -3.888253587292846500E-015, 0.0000000000000000000 ) ) ;
#12 = EDGE_CURVE ( 'NONE', #106, #276, #49, .T. ) ;
#13 = ORIENTED_EDGE ( 'NONE', *, *, #361, .F. ) ;
#14 = CARTESIAN_POINT ( 'NONE',  ( 76.00000000000000000, 0.0000000000000000000, 8.000000000000000000 ) ) ;
#15 = ORIENTED_EDGE ( 'NONE', *, *, #127, .T. ) ;
#16 = DIRECTION ( 'NONE',  ( -1.000000000000000000, -0.0000000000000000000, -0.0000000000000000000 ) ) ;
#17 = CARTESIAN_POINT ( 'NONE',  ( 0.0000000000000000000, 0.0000000000000000000, 0.0000000000000000000 ) ) ;
#18 = CARTESIAN_POINT ( 'NONE',  ( -64.00000000000001400, -3.918869757271531100E-015, 0.0000000000000000000 ) ) ;
#19 = PERSON_AND_ORGANIZATION_ROLE ( 'creator' ) ;
#20 = APPROVAL_PERSON_ORGANIZATION ( #90, #217, #184 ) ;
#21 = FACE_OUTER_BOUND ( 'NONE', #202, .T. ) ;
#22 = CC_DESIGN_SECURITY_CLASSIFICATION ( #288, ( #194 ) ) ;
#23 = EDGE_LOOP ( 'NONE', ( #52, #155, #136, #13 ) ) ;
#24 = AXIS2_PLACEMENT_3D ( 'NONE', #165, #193, #29 ) ;
#25 = COORDINATED_UNIVERSAL_TIME_OFFSET ( 9, 0, .AHEAD. ) ;
#26 = FACE_OUTER_BOUND ( 'NONE', #257, .T. ) ;
#27 = DIRECTION ( 'NONE',  ( 0.0000000000000000000, 0.0000000000000000000, 1.000000000000000000 ) ) ;
#28 = ORIENTED_EDGE ( 'NONE', *, *, #53, .F. ) ;
#29 = DIRECTION ( 'NONE',  ( 0.0000000000000000000, 0.0000000000000000000, -1.000000000000000000 ) ) ;
#30 = ORIENTED_EDGE ( 'NONE', *, *, #218, .T. ) ;
#31 = ORIENTED_EDGE ( 'NONE', *, *, #341, .F. ) ;
#32 = EDGE_CURVE ( 'NONE', #311, #181, #54, .T. ) ;
#33 = ADVANCED_FACE ( 'NONE', ( #333 ), #141, .F. ) ;
#34 = ORIENTED_EDGE ( 'NONE', *, *, #275, .T. ) ;
#35 = CARTESIAN_POINT ( 'NONE',  ( 76.00000000000000000, 0.0000000000000000000, 0.0000000000000000000 ) ) ;
#36 = LOCAL_TIME ( 10, 14, 33.00000000000000000, #107 ) ;
#37 = CIRCLE ( 'NONE', #171, 9.499999999999996400 ) ;
#38 = DIRECTION ( 'NONE',  ( 0.0000000000000000000, 0.0000000000000000000, 1.000000000000000000 ) ) ;
#39 = DIRECTION ( 'NONE',  ( 0.0000000000000000000, 1.000000000000000000, 0.0000000000000000000 ) ) ;
#40 = FACE_OUTER_BOUND ( 'NONE', #103, .T. ) ;
#41 = VERTEX_POINT ( 'NONE', #109 ) ;
#42 = PRODUCT_RELATED_PRODUCT_CATEGORY ( 'detail', '', ( #10 ) ) ;
#43 = DIRECTION ( 'NONE',  ( -1.000000000000000000, -0.0000000000000000000, -0.0000000000000000000 ) ) ;
#44 = DIRECTION ( 'NONE',  ( 1.000000000000000000, 6.123233995736766000E-017, -0.0000000000000000000 ) ) ;
#45 = AXIS2_PLACEMENT_3D ( 'NONE', #250, #365, #338 ) ;
#46 = DIRECTION ( 'NONE',  ( 0.0000000000000000000, 1.000000000000000000, 0.0000000000000000000 ) ) ;
#47 = ORGANIZATION ( 'UNSPECIFIED', 'UNSPECIFIED', '' ) ;
#48 = SECURITY_CLASSIFICATION_LEVEL ( 'unclassified' ) ;
#49 = CIRCLE ( 'NONE', #331, 10.00000000000000000 ) ;
#50 = DIRECTION ( 'NONE',  ( 1.000000000000000000, 6.123233995736766000E-017, -0.0000000000000000000 ) ) ;
#51 = FACE_OUTER_BOUND ( 'NONE', #255, .T. ) ;
#52 = ORIENTED_EDGE ( 'NONE', *, *, #299, .F. ) ;
#53 = EDGE_CURVE ( 'NONE', #176, #311, #248, .T. ) ;
#54 = LINE ( 'NONE', #304, #268 ) ;
#55 = APPROVAL_DATE_TIME ( #135, #349 ) ;
#56 = VECTOR ( 'NONE', #182, 1000.000000000000000 ) ;
#57 = DIRECTION ( 'NONE',  ( 0.0000000000000000000, 0.0000000000000000000, 1.000000000000000000 ) ) ;
#58 = AXIS2_PLACEMENT_3D ( 'NONE', #264, #68, #289 ) ;
#59 = ADVANCED_FACE ( 'NONE', ( #325 ), #164, .T. ) ;
#60 = DIRECTION ( 'NONE',  ( -1.000000000000000000, -0.0000000000000000000, -0.0000000000000000000 ) ) ;
#61 = ORIENTED_EDGE ( 'NONE', *, *, #237, .T. ) ;
#62 = AXIS2_PLACEMENT_3D ( 'NONE', #209, #44, #238 ) ;
#63 = DIRECTION ( 'NONE',  ( 0.0000000000000000000, 0.0000000000000000000, 1.000000000000000000 ) ) ;
#64 = CARTESIAN_POINT ( 'NONE',  ( 74.00000000000000000, 0.0000000000000000000, 8.000000000000000000 ) ) ;
#65 = APPROVAL_PERSON_ORGANIZATION ( #139, #349, #98 ) ;
#66 = AXIS2_PLACEMENT_3D ( 'NONE', #17, #57, #252 ) ;
#67 = DIRECTION ( 'NONE',  ( 1.000000000000000000, 6.123233995736766000E-017, -0.0000000000000000000 ) ) ;
#68 = DIRECTION ( 'NONE',  ( -1.000000000000000000, -0.0000000000000000000, -0.0000000000000000000 ) ) ;
#69 = EDGE_CURVE ( 'NONE', #137, #181, #260, .T. ) ;
#70 = PLANE ( 'NONE',  #149 ) ;
#71 = CLOSED_SHELL ( 'NONE', ( #199, #86, #224, #3, #33, #281 ) ) ;
#72 = DIRECTION ( 'NONE',  ( 0.0000000000000000000, 0.0000000000000000000, 1.000000000000000000 ) ) ;
#73 = DIRECTION ( 'NONE',  ( -6.123233995736766000E-017, 1.000000000000000000, 0.0000000000000000000 ) ) ;
#74 = DATE_TIME_ROLE ( 'classification_date' ) ;
#75 = DIRECTION ( 'NONE',  ( -1.000000000000000000, -0.0000000000000000000, -0.0000000000000000000 ) ) ;
#76 = CARTESIAN_POINT ( 'NONE',  ( 0.9999999999999986700, 6.123233995736758600E-017, 0.0000000000000000000 ) ) ;
#77 = COORDINATED_UNIVERSAL_TIME_OFFSET ( 9, 0, .AHEAD. ) ;
#78 = FACE_OUTER_BOUND ( 'NONE', #339, .T. ) ;
#79 = ORIENTED_EDGE ( 'NONE', *, *, #275, .F. ) ;
#80 = AXIS2_PLACEMENT_3D ( 'NONE', #18, #212, #46 ) ;
#81 = DATE_AND_TIME ( #158, #228 ) ;
#82 = CYLINDRICAL_SURFACE ( 'NONE', #157, 10.00000000000000000 ) ;
#83 = CC_DESIGN_PERSON_AND_ORGANIZATION_ASSIGNMENT ( #332, #280, ( #10 ) ) ;
#84 =( LENGTH_UNIT ( ) NAMED_UNIT ( * ) SI_UNIT ( .MILLI., .METRE. ) );
#85 = MECHANICAL_CONTEXT ( 'NONE', #223, 'mechanical' ) ;
#86 = ADVANCED_FACE ( 'NONE', ( #344 ), #108, .T. ) ;
#87 = EDGE_CURVE ( 'NONE', #176, #137, #119, .T. ) ;
#88 = EDGE_LOOP ( 'NONE', ( #274, #265, #79, #190 ) ) ;
#89 = CARTESIAN_POINT ( 'NONE',  ( -63.50000000000000000, -9.999999999999998200, 1.224646799147352700E-015 ) ) ;
#90 = PERSON_AND_ORGANIZATION ( #121, #47 ) ;
#91 = CIRCLE ( 'NONE', #214, 9.999999999999994700 ) ;
#92 = DIRECTION ( 'NONE',  ( 0.0000000000000000000, 0.0000000000000000000, -1.000000000000000000 ) ) ;
#93 = CARTESIAN_POINT ( 'NONE',  ( 74.00000000000000000, 0.0000000000000000000, 0.0000000000000000000 ) ) ;
#94 = ORIENTED_EDGE ( 'NONE', *, *, #105, .T. ) ;
#95 = ORIENTED_EDGE ( 'NONE', *, *, #69, .T. ) ;
#96 = DIRECTION ( 'NONE',  ( -1.000000000000000000, -6.123233995736766000E-017, 0.0000000000000000000 ) ) ;
#97 = AXIS2_PLACEMENT_3D ( 'NONE', #1, #16, #72 ) ;
#98 = APPROVAL_ROLE ( '' ) ;
#99 = PERSON_AND_ORGANIZATION ( #121, #47 ) ;
#100 = CIRCLE ( 'NONE', #138, 10.00000000000000000 ) ;
#101 = DIRECTION ( 'NONE',  ( -6.505213034913026600E-017, 1.000000000000000000, 0.0000000000000000000 ) ) ;
#102 = PRODUCT_DEFINITION ( 'UNKNOWN', '', #194, #132 ) ;
#103 = EDGE_LOOP ( 'NONE', ( #245, #104 ) ) ;
#104 = ORIENTED_EDGE ( 'NONE', *, *, #180, .F. ) ;
#105 = EDGE_CURVE ( 'NONE', #219, #41, #186, .T. ) ;
#106 = VERTEX_POINT ( 'NONE', #293 ) ;
#107 = COORDINATED_UNIVERSAL_TIME_OFFSET ( 9, 0, .AHEAD. ) ;
#108 = TOROIDAL_SURFACE ( 'NONE', #97, 8.000000000000000000, 2.000000000000000900 ) ;
#109 = CARTESIAN_POINT ( 'NONE',  ( -64.00000000000001400, -9.500000000000000000, 1.194030629168668900E-015 ) ) ;
#110 = DIRECTION ( 'NONE',  ( 0.0000000000000000000, 0.0000000000000000000, 1.000000000000000000 ) ) ;
#111 = DIRECTION ( 'NONE',  ( -1.000000000000000000, -0.0000000000000000000, -0.0000000000000000000 ) ) ;
#112 = CARTESIAN_POINT ( 'NONE',  ( -63.50000000000000000, -3.888253587292846500E-015, 0.0000000000000000000 ) ) ;
#113 = ORIENTED_EDGE ( 'NONE', *, *, #32, .T. ) ;
#114 = APPLICATION_CONTEXT ( 'configuration controlled 3d designs of mechanical parts and assemblies' ) ;
#115 = ADVANCED_FACE ( 'NONE', ( #26 ), #82, .T. ) ;
#116 = PLANE ( 'NONE',  #203 ) ;
#117 = AXIS2_PLACEMENT_3D ( 'NONE', #242, #50, #294 ) ;
#118 = SHAPE_DEFINITION_REPRESENTATION ( #334, #169 ) ;
#119 = LINE ( 'NONE', #129, #241 ) ;
#120 = DIRECTION ( 'NONE',  ( -0.0000000000000000000, 1.000000000000000000, 1.224646799147353200E-016 ) ) ;
#121 = PERSON ( 'UNSPECIFIED', 'UNSPECIFIED', 'UNSPECIFIED', ('UNSPECIFIED'), ('UNSPECIFIED'), ('UNSPECIFIED') ) ;
#122 = APPROVAL ( #144, 'UNSPECIFIED' ) ;
#123 = FACE_OUTER_BOUND ( 'NONE', #146, .T. ) ;
#124 = ORIENTED_EDGE ( 'NONE', *, *, #201, .T. ) ;
#125 = DIRECTION ( 'NONE',  ( -6.123233995736766000E-017, 1.000000000000000000, 0.0000000000000000000 ) ) ;
#126 = CARTESIAN_POINT ( 'NONE',  ( 74.00000000000000000, 1.224646799147353300E-015, -10.00000000000000200 ) ) ;
#127 = EDGE_CURVE ( 'NONE', #41, #311, #173, .T. ) ;
#128 = ORIENTED_EDGE ( 'NONE', *, *, #180, .T. ) ;
#129 = CARTESIAN_POINT ( 'NONE',  ( -6.123233995736766300E-016, 10.00000000000000000, 0.0000000000000000000 ) ) ;
#130 = FACE_OUTER_BOUND ( 'NONE', #301, .T. ) ;
#131 = AXIS2_PLACEMENT_3D ( 'NONE', #93, #60, #258 ) ;
#132 = DESIGN_CONTEXT ( 'detailed design', #114, 'design' ) ;
#133 = CARTESIAN_POINT ( 'NONE',  ( 74.00000000000000000, 0.0000000000000000000, 10.00000000000000200 ) ) ;
#134 = CARTESIAN_POINT ( 'NONE',  ( -63.50000000000000000, 9.999999999999991100, 0.0000000000000000000 ) ) ;
#135 = DATE_AND_TIME ( #204, #278 ) ;
#136 = ORIENTED_EDGE ( 'NONE', *, *, #318, .T. ) ;
#137 = VERTEX_POINT ( 'NONE', #326 ) ;
#138 = AXIS2_PLACEMENT_3D ( 'NONE', #76, #271, #101 ) ;
#139 = PERSON_AND_ORGANIZATION ( #121, #47 ) ;
#140 = CIRCLE ( 'NONE', #296, 8.000000000000000000 ) ;
#141 = PLANE ( 'NONE',  #24 ) ;
#142 = CC_DESIGN_APPROVAL ( #122, ( #102 ) ) ;
#143 = DIRECTION ( 'NONE',  ( 0.0000000000000000000, 1.000000000000000000, 0.0000000000000000000 ) ) ;
#144 = APPROVAL_STATUS ( 'not_yet_approved' ) ;
#145 = EDGE_CURVE ( 'NONE', #219, #176, #229, .T. ) ;
#146 = EDGE_LOOP ( 'NONE', ( #322, #31 ) ) ;
#147 = DIRECTION ( 'NONE',  ( -1.000000000000000000, 0.0000000000000000000, -0.0000000000000000000 ) ) ;
#148 = DIRECTION ( 'NONE',  ( 1.000000000000000000, 6.123233995736766000E-017, -0.0000000000000000000 ) ) ;
#149 = AXIS2_PLACEMENT_3D ( 'NONE', #266, #96, #290 ) ;
#150 = DIRECTION ( 'NONE',  ( -6.123233995736766000E-017, 1.000000000000000000, 0.0000000000000000000 ) ) ;
#151 = PERSON_AND_ORGANIZATION ( #121, #47 ) ;
#152 = CIRCLE ( 'NONE', #131, 10.00000000000000000 ) ;
#153 = CARTESIAN_POINT ( 'NONE',  ( 76.00000000000000000, 0.0000000000000000000, 0.0000000000000000000 ) ) ;
#154 = VERTEX_POINT ( 'NONE', #133 ) ;
#155 = ORIENTED_EDGE ( 'NONE', *, *, #341, .T. ) ;
#156 = DATE_TIME_ROLE ( 'creation_date' ) ;
#157 = AXIS2_PLACEMENT_3D ( 'NONE', #355, #183, #73 ) ;
#158 = CALENDAR_DATE ( 2023, 3, 7 ) ;
#159 = CIRCLE ( 'NONE', #192, 10.00000000000000000 ) ;
#160 = CC_DESIGN_PERSON_AND_ORGANIZATION_ASSIGNMENT ( #99, #167, ( #102 ) ) ;
#161 = ORIENTED_EDGE ( 'NONE', *, *, #256, .F. ) ;
#162 = EDGE_CURVE ( 'NONE', #181, #137, #100, .T. ) ;
#163 = DATE_AND_TIME ( #240, #314 ) ;
#164 = CONICAL_SURFACE ( 'NONE', #45, 9.999999999999994700, 0.7853981633974327400 ) ;
#165 = CARTESIAN_POINT ( 'NONE',  ( 1.000000000000000700, 4.336808689942021400E-017, 0.0000000000000000000 ) ) ;
#166 =( NAMED_UNIT ( * ) SI_UNIT ( $, .STERADIAN. ) SOLID_ANGLE_UNIT ( ) );
#167 = PERSON_AND_ORGANIZATION_ROLE ( 'creator' ) ;
#168 = ORIENTED_EDGE ( 'NONE', *, *, #256, .T. ) ;
#169 = ADVANCED_BREP_SHAPE_REPRESENTATION ( '03-3063', ( #300, #4, #66 ), #316 ) ;
#170 = ADVANCED_FACE ( 'NONE', ( #21 ), #222, .T. ) ;
#171 = AXIS2_PLACEMENT_3D ( 'NONE', #230, #67, #263 ) ;
#172 = APPROVAL_DATE_TIME ( #247, #122 ) ;
#173 = LINE ( 'NONE', #269, #315 ) ;
#174 = DIRECTION ( 'NONE',  ( 1.000000000000000000, 6.123233995736766000E-017, -0.0000000000000000000 ) ) ;
#175 = DIRECTION ( 'NONE',  ( 0.0000000000000000000, 0.0000000000000000000, 1.000000000000000000 ) ) ;
#176 = VERTEX_POINT ( 'NONE', #134 ) ;
#177 = CC_DESIGN_DATE_AND_TIME_ASSIGNMENT ( #163, #156, ( #102 ) ) ;
#178 = DIRECTION ( 'NONE',  ( -1.000000000000000000, -0.0000000000000000000, -0.0000000000000000000 ) ) ;
#179 = ORIENTED_EDGE ( 'NONE', *, *, #237, .F. ) ;
#180 = EDGE_CURVE ( 'NONE', #41, #219, #37, .T. ) ;
#181 = VERTEX_POINT ( 'NONE', #298 ) ;
#182 = DIRECTION ( 'NONE',  ( -1.000000000000000000, -0.0000000000000000000, -0.0000000000000000000 ) ) ;
#183 = DIRECTION ( 'NONE',  ( 1.000000000000000000, 6.123233995736766000E-017, -0.0000000000000000000 ) ) ;
#184 = APPROVAL_ROLE ( '' ) ;
#185 = APPROVAL_PERSON_ORGANIZATION ( #259, #122, #340 ) ;
#186 = CIRCLE ( 'NONE', #80, 9.499999999999996400 ) ;
#187 = AXIS2_PLACEMENT_3D ( 'NONE', #35, #226, #63 ) ;
#188 = CARTESIAN_POINT ( 'NONE',  ( 0.0000000000000000000, 0.0000000000000000000, 0.0000000000000000000 ) ) ;
#189 = ORIENTED_EDGE ( 'NONE', *, *, #145, .T. ) ;
#190 = ORIENTED_EDGE ( 'NONE', *, *, #318, .F. ) ;
#191 = CYLINDRICAL_SURFACE ( 'NONE', #353, 10.00000000000000000 ) ;
#192 = AXIS2_PLACEMENT_3D ( 'NONE', #207, #43, #236 ) ;
#193 = DIRECTION ( 'NONE',  ( 1.000000000000000000, 0.0000000000000000000, 0.0000000000000000000 ) ) ;
#194 = PRODUCT_DEFINITION_FORMATION_WITH_SPECIFIED_SOURCE ( 'ANY', '', #10, .NOT_KNOWN. ) ;
#195 = FACE_OUTER_BOUND ( 'NONE', #282, .T. ) ;
#196 = EDGE_LOOP ( 'NONE', ( #61, #210 ) ) ;
#197 = APPLICATION_PROTOCOL_DEFINITION ( 'international standard', 'config_control_design', 1994, #223 ) ;
#198 = CARTESIAN_POINT ( 'NONE',  ( -63.50000000000000000, 9.999999999999991100, 0.0000000000000000000 ) ) ;
#199 = ADVANCED_FACE ( 'NONE', ( #78 ), #297, .T. ) ;
#200 = ORIENTED_EDGE ( 'NONE', *, *, #53, .T. ) ;
#201 = EDGE_CURVE ( 'NONE', #311, #176, #91, .T. ) ;
#202 = EDGE_LOOP ( 'NONE', ( #94, #15, #28, #243 ) ) ;
#203 = AXIS2_PLACEMENT_3D ( 'NONE', #312, #147, #343 ) ;
#204 = CALENDAR_DATE ( 2023, 3, 7 ) ;
#205 = CIRCLE ( 'NONE', #335, 10.00000000000000000 ) ;
#206 = DIRECTION ( 'NONE',  ( 1.000000000000000000, 6.123233995736766000E-017, -0.0000000000000000000 ) ) ;
#207 = CARTESIAN_POINT ( 'NONE',  ( 1.000000000000000400, 0.0000000000000000000, 0.0000000000000000000 ) ) ;
#208 = ORIENTED_EDGE ( 'NONE', *, *, #361, .T. ) ;
#209 = CARTESIAN_POINT ( 'NONE',  ( 0.9999999999999986700, 6.123233995736758600E-017, 0.0000000000000000000 ) ) ;
#210 = ORIENTED_EDGE ( 'NONE', *, *, #12, .T. ) ;
#211 = CARTESIAN_POINT ( 'NONE',  ( 1.000000000000000400, 0.0000000000000000000, 0.0000000000000000000 ) ) ;
#212 = DIRECTION ( 'NONE',  ( 1.000000000000000000, 6.123233995736766000E-017, -0.0000000000000000000 ) ) ;
#213 = PERSON_AND_ORGANIZATION_ROLE ( 'design_supplier' ) ;
#214 = AXIS2_PLACEMENT_3D ( 'NONE', #11, #206, #39 ) ;
#215 = DATE_AND_TIME ( #285, #363 ) ;
#216 = FACE_OUTER_BOUND ( 'NONE', #23, .T. ) ;
#217 = APPROVAL ( #356, 'UNSPECIFIED' ) ;
#218 = EDGE_CURVE ( 'NONE', #154, #276, #364, .T. ) ;
#219 = VERTEX_POINT ( 'NONE', #232 ) ;
#220 = AXIS2_PLACEMENT_3D ( 'NONE', #284, #120, #313 ) ;
#221 = PERSON_AND_ORGANIZATION ( #121, #47 ) ;
#222 = CONICAL_SURFACE ( 'NONE', #117, 9.999999999999994700, 0.7853981633974327400 ) ;
#223 = APPLICATION_CONTEXT ( 'configuration controlled 3d designs of mechanical parts and assemblies' ) ;
#224 = ADVANCED_FACE ( 'NONE', ( #216 ), #287, .T. ) ;
#225 = ORIENTED_EDGE ( 'NONE', *, *, #87, .T. ) ;
#226 = DIRECTION ( 'NONE',  ( -1.000000000000000000, -0.0000000000000000000, -0.0000000000000000000 ) ) ;
#227 = AXIS2_PLACEMENT_3D ( 'NONE', #188, #327, #38 ) ;
#228 = LOCAL_TIME ( 10, 14, 33.00000000000000000, #302 ) ;
#229 = LINE ( 'NONE', #198, #303 ) ;
#230 = CARTESIAN_POINT ( 'NONE',  ( -64.00000000000001400, -3.918869757271531100E-015, 0.0000000000000000000 ) ) ;
#231 = CC_DESIGN_APPROVAL ( #217, ( #194 ) ) ;
#232 = CARTESIAN_POINT ( 'NONE',  ( -64.00000000000001400, 9.499999999999992900, 0.0000000000000000000 ) ) ;
#233 = CLOSED_SHELL ( 'NONE', ( #342, #170, #310, #254, #59, #115 ) ) ;
#234 = UNCERTAINTY_MEASURE_WITH_UNIT (LENGTH_MEASURE( 1.000000000000000100E-005 ), #84, 'distance_accuracy_value', 'NONE');
#235 = VERTEX_POINT ( 'NONE', #126 ) ;
#236 = DIRECTION ( 'NONE',  ( 0.0000000000000000000, 0.0000000000000000000, 1.000000000000000000 ) ) ;
#237 = EDGE_CURVE ( 'NONE', #276, #106, #159, .T. ) ;
#238 = DIRECTION ( 'NONE',  ( -6.505213034913026600E-017, 1.000000000000000000, 0.0000000000000000000 ) ) ;
#239 = PERSON_AND_ORGANIZATION_ROLE ( 'classification_officer' ) ;
#240 = CALENDAR_DATE ( 2023, 3, 7 ) ;
#241 = VECTOR ( 'NONE', #323, 1000.000000000000000 ) ;
#242 = CARTESIAN_POINT ( 'NONE',  ( -63.50000000000000000, -3.888253587292846500E-015, 0.0000000000000000000 ) ) ;
#243 = ORIENTED_EDGE ( 'NONE', *, *, #145, .F. ) ;
#244 = ORIENTED_EDGE ( 'NONE', *, *, #12, .F. ) ;
#245 = ORIENTED_EDGE ( 'NONE', *, *, #105, .F. ) ;
#246 = ORIENTED_EDGE ( 'NONE', *, *, #162, .F. ) ;
#247 = DATE_AND_TIME ( #324, #36 ) ;
#248 = CIRCLE ( 'NONE', #6, 9.999999999999994700 ) ;
#249 = DIRECTION ( 'NONE',  ( -1.000000000000000000, -0.0000000000000000000, -0.0000000000000000000 ) ) ;
#250 = CARTESIAN_POINT ( 'NONE',  ( -63.50000000000000000, -3.888253587292846500E-015, 0.0000000000000000000 ) ) ;
#251 = CC_DESIGN_PERSON_AND_ORGANIZATION_ASSIGNMENT ( #295, #19, ( #194 ) ) ;
#252 = DIRECTION ( 'NONE',  ( 1.000000000000000000, 0.0000000000000000000, 0.0000000000000000000 ) ) ;
#253 = VERTEX_POINT ( 'NONE', #14 ) ;
#254 = ADVANCED_FACE ( 'NONE', ( #40 ), #70, .T. ) ;
#255 = EDGE_LOOP ( 'NONE', ( #95, #354 ) ) ;
#256 = EDGE_CURVE ( 'NONE', #235, #106, #347, .T. ) ;
#257 = EDGE_LOOP ( 'NONE', ( #350, #124, #225, #246 ) ) ;
#258 = DIRECTION ( 'NONE',  ( 0.0000000000000000000, 0.0000000000000000000, 1.000000000000000000 ) ) ;
#259 = PERSON_AND_ORGANIZATION ( #121, #47 ) ;
#260 = CIRCLE ( 'NONE', #62, 10.00000000000000000 ) ;
#261 = AXIS2_PLACEMENT_3D ( 'NONE', #64, #262, #92 ) ;
#262 = DIRECTION ( 'NONE',  ( 0.0000000000000000000, -1.000000000000000000, 0.0000000000000000000 ) ) ;
#263 = DIRECTION ( 'NONE',  ( 0.0000000000000000000, 1.000000000000000000, 0.0000000000000000000 ) ) ;
#264 = CARTESIAN_POINT ( 'NONE',  ( 74.00000000000000000, 0.0000000000000000000, 0.0000000000000000000 ) ) ;
#265 = ORIENTED_EDGE ( 'NONE', *, *, #299, .T. ) ;
#266 = CARTESIAN_POINT ( 'NONE',  ( -64.00000000000001400, -3.918869757271531100E-015, 0.0000000000000000000 ) ) ;
#267 = DIRECTION ( 'NONE',  ( 0.7071067811865584500, -0.7071067811865365800, 8.659560562354798500E-017 ) ) ;
#268 = VECTOR ( 'NONE', #336, 1000.000000000000000 ) ;
#269 = CARTESIAN_POINT ( 'NONE',  ( -63.50000000000000000, -9.999999999999998200, 1.224646799147352700E-015 ) ) ;
#270 = APPROVAL_STATUS ( 'not_yet_approved' ) ;
#271 = DIRECTION ( 'NONE',  ( 1.000000000000000000, 6.123233995736766000E-017, -0.0000000000000000000 ) ) ;
#272 = CIRCLE ( 'NONE', #187, 8.000000000000000000 ) ;
#273 = CC_DESIGN_PERSON_AND_ORGANIZATION_ASSIGNMENT ( #221, #213, ( #194 ) ) ;
#274 = ORIENTED_EDGE ( 'NONE', *, *, #292, .T. ) ;
#275 = EDGE_CURVE ( 'NONE', #154, #235, #152, .T. ) ;
#276 = VERTEX_POINT ( 'NONE', #321 ) ;
#277 = AXIS2_PLACEMENT_3D ( 'NONE', #283, #148, #125 ) ;
#278 = LOCAL_TIME ( 10, 14, 33.00000000000000000, #359 ) ;
#279 = CARTESIAN_POINT ( 'NONE',  ( 74.00000000000000000, 0.0000000000000000000, 0.0000000000000000000 ) ) ;
#280 = PERSON_AND_ORGANIZATION_ROLE ( 'design_owner' ) ;
#281 = ADVANCED_FACE ( 'NONE', ( #123 ), #116, .F. ) ;
#282 = EDGE_LOOP ( 'NONE', ( #200, #113, #5, #317 ) ) ;
#283 = CARTESIAN_POINT ( 'NONE',  ( 0.9999999999999988900, 10.00000000000000000, 0.0000000000000000000 ) ) ;
#284 = CARTESIAN_POINT ( 'NONE',  ( 74.00000000000000000, 9.797174393178825700E-016, -8.000000000000000000 ) ) ;
#285 = CALENDAR_DATE ( 2023, 3, 7 ) ;
#286 = CARTESIAN_POINT ( 'NONE',  ( 0.0000000000000000000, 0.0000000000000000000, 0.0000000000000000000 ) ) ;
#287 = TOROIDAL_SURFACE ( 'NONE', #58, 8.000000000000000000, 2.000000000000000900 ) ;
#288 = SECURITY_CLASSIFICATION ( '', '', #48 ) ;
#289 = DIRECTION ( 'NONE',  ( 0.0000000000000000000, 0.0000000000000000000, 1.000000000000000000 ) ) ;
#290 = DIRECTION ( 'NONE',  ( 6.123233995736766000E-017, -1.000000000000000000, 0.0000000000000000000 ) ) ;
#291 = ORIENTED_EDGE ( 'NONE', *, *, #201, .F. ) ;
#292 = EDGE_CURVE ( 'NONE', #253, #330, #272, .T. ) ;
#293 = CARTESIAN_POINT ( 'NONE',  ( 1.000000000000000400, 1.224646799147353300E-015, -10.00000000000000000 ) ) ;
#294 = DIRECTION ( 'NONE',  ( 0.0000000000000000000, 1.000000000000000000, 0.0000000000000000000 ) ) ;
#295 = PERSON_AND_ORGANIZATION ( #121, #47 ) ;
#296 = AXIS2_PLACEMENT_3D ( 'NONE', #153, #346, #175 ) ;
#297 = CYLINDRICAL_SURFACE ( 'NONE', #227, 10.00000000000000000 ) ;
#298 = CARTESIAN_POINT ( 'NONE',  ( 0.9999999999999993300, -10.00000000000000000, 1.224646799147353300E-015 ) ) ;
#299 = EDGE_CURVE ( 'NONE', #330, #235, #329, .T. ) ;
#300 = MANIFOLD_SOLID_BREP ( 'È¸Àü3', #71 ) ;
#301 = EDGE_LOOP ( 'NONE', ( #161, #208, #30, #244 ) ) ;
#302 = COORDINATED_UNIVERSAL_TIME_OFFSET ( 9, 0, .AHEAD. ) ;
#303 = VECTOR ( 'NONE', #357, 1000.000000000000100 ) ;
#304 = CARTESIAN_POINT ( 'NONE',  ( 6.123233995736766300E-016, -10.00000000000000000, 1.224646799147353300E-015 ) ) ;
#305 = CARTESIAN_POINT ( 'NONE',  ( 0.0000000000000000000, 0.0000000000000000000, 0.0000000000000000000 ) ) ;
#306 = DIRECTION ( 'NONE',  ( 0.0000000000000000000, 0.0000000000000000000, 1.000000000000000000 ) ) ;
#307 = DIRECTION ( 'NONE',  ( 1.000000000000000000, 6.123233995736766000E-017, -0.0000000000000000000 ) ) ;
#308 = CC_DESIGN_PERSON_AND_ORGANIZATION_ASSIGNMENT ( #151, #239, ( #288 ) ) ;
#309 = APPLICATION_PROTOCOL_DEFINITION ( 'international standard', 'config_control_design', 1994, #114 ) ;
#310 = ADVANCED_FACE ( 'NONE', ( #51 ), #351, .T. ) ;
#311 = VERTEX_POINT ( 'NONE', #89 ) ;
#312 = CARTESIAN_POINT ( 'NONE',  ( 76.00000000000000000, 0.0000000000000000000, 0.0000000000000000000 ) ) ;
#313 = DIRECTION ( 'NONE',  ( 0.0000000000000000000, -1.224646799147353500E-016, 1.000000000000000000 ) ) ;
#314 = LOCAL_TIME ( 10, 14, 33.00000000000000000, #25 ) ;
#315 = VECTOR ( 'NONE', #267, 1000.000000000000100 ) ;
#316 =( GEOMETRIC_REPRESENTATION_CONTEXT ( 3 ) GLOBAL_UNCERTAINTY_ASSIGNED_CONTEXT ( ( #234 ) ) GLOBAL_UNIT_ASSIGNED_CONTEXT ( ( #84, #337, #166 ) ) REPRESENTATION_CONTEXT ( 'NONE', 'WORKASPACE' ) );
#317 = ORIENTED_EDGE ( 'NONE', *, *, #87, .F. ) ;
#318 = EDGE_CURVE ( 'NONE', #253, #154, #360, .T. ) ;
#319 = CYLINDRICAL_SURFACE ( 'NONE', #358, 10.00000000000000000 ) ;
#320 = EDGE_LOOP ( 'NONE', ( #362, #128, #189, #291 ) ) ;
#321 = CARTESIAN_POINT ( 'NONE',  ( 1.000000000000000400, 0.0000000000000000000, 10.00000000000000000 ) ) ;
#322 = ORIENTED_EDGE ( 'NONE', *, *, #292, .F. ) ;
#323 = DIRECTION ( 'NONE',  ( 1.000000000000000000, 6.123233995736766000E-017, -0.0000000000000000000 ) ) ;
#324 = CALENDAR_DATE ( 2023, 3, 7 ) ;
#325 = FACE_OUTER_BOUND ( 'NONE', #320, .T. ) ;
#326 = CARTESIAN_POINT ( 'NONE',  ( 0.9999999999999981100, 10.00000000000000000, 0.0000000000000000000 ) ) ;
#327 = DIRECTION ( 'NONE',  ( -1.000000000000000000, -0.0000000000000000000, -0.0000000000000000000 ) ) ;
#328 = CC_DESIGN_DATE_AND_TIME_ASSIGNMENT ( #215, #74, ( #288 ) ) ;
#329 = CIRCLE ( 'NONE', #220, 2.000000000000000900 ) ;
#330 = VERTEX_POINT ( 'NONE', #345 ) ;
#331 = AXIS2_PLACEMENT_3D ( 'NONE', #211, #75, #110 ) ;
#332 = PERSON_AND_ORGANIZATION ( #121, #47 ) ;
#333 = FACE_OUTER_BOUND ( 'NONE', #196, .T. ) ;
#334 = PRODUCT_DEFINITION_SHAPE ( 'NONE', 'NONE',  #102 ) ;
#335 = AXIS2_PLACEMENT_3D ( 'NONE', #279, #111, #306 ) ;
#336 = DIRECTION ( 'NONE',  ( 1.000000000000000000, 6.123233995736766000E-017, -0.0000000000000000000 ) ) ;
#337 =( NAMED_UNIT ( * ) PLANE_ANGLE_UNIT ( ) SI_UNIT ( $, .RADIAN. ) );
#338 = DIRECTION ( 'NONE',  ( 0.0000000000000000000, 1.000000000000000000, 0.0000000000000000000 ) ) ;
#339 = EDGE_LOOP ( 'NONE', ( #34, #168, #179, #7 ) ) ;
#340 = APPROVAL_ROLE ( '' ) ;
#341 = EDGE_CURVE ( 'NONE', #330, #253, #140, .T. ) ;
#342 = ADVANCED_FACE ( 'NONE', ( #195 ), #319, .T. ) ;
#343 = DIRECTION ( 'NONE',  ( -0.0000000000000000000, 0.0000000000000000000, 1.000000000000000000 ) ) ;
#344 = FACE_OUTER_BOUND ( 'NONE', #88, .T. ) ;
#345 = CARTESIAN_POINT ( 'NONE',  ( 76.00000000000000000, 1.102182119232617900E-015, -8.000000000000000000 ) ) ;
#346 = DIRECTION ( 'NONE',  ( -1.000000000000000000, -0.0000000000000000000, -0.0000000000000000000 ) ) ;
#347 = LINE ( 'NONE', #352, #56 ) ;
#348 = CARTESIAN_POINT ( 'NONE',  ( 0.0000000000000000000, 0.0000000000000000000, 10.00000000000000000 ) ) ;
#349 = APPROVAL ( #270, 'UNSPECIFIED' ) ;
#350 = ORIENTED_EDGE ( 'NONE', *, *, #32, .F. ) ;
#351 = PLANE ( 'NONE',  #277 ) ;
#352 = CARTESIAN_POINT ( 'NONE',  ( 0.0000000000000000000, 1.224646799147353300E-015, -10.00000000000000000 ) ) ;
#353 = AXIS2_PLACEMENT_3D ( 'NONE', #305, #249, #27 ) ;
#354 = ORIENTED_EDGE ( 'NONE', *, *, #162, .T. ) ;
#355 = CARTESIAN_POINT ( 'NONE',  ( 0.0000000000000000000, 0.0000000000000000000, 0.0000000000000000000 ) ) ;
#356 = APPROVAL_STATUS ( 'not_yet_approved' ) ;
#357 = DIRECTION ( 'NONE',  ( 0.7071067811865584500, 0.7071067811865365800, 0.0000000000000000000 ) ) ;
#358 = AXIS2_PLACEMENT_3D ( 'NONE', #286, #174, #150 ) ;
#359 = COORDINATED_UNIVERSAL_TIME_OFFSET ( 9, 0, .AHEAD. ) ;
#360 = CIRCLE ( 'NONE', #261, 2.000000000000000900 ) ;
#361 = EDGE_CURVE ( 'NONE', #235, #154, #205, .T. ) ;
#362 = ORIENTED_EDGE ( 'NONE', *, *, #127, .F. ) ;
#363 = LOCAL_TIME ( 10, 14, 33.00000000000000000, #77 ) ;
#364 = LINE ( 'NONE', #348, #9 ) ;
#365 = DIRECTION ( 'NONE',  ( 1.000000000000000000, 6.123233995736766000E-017, -0.0000000000000000000 ) ) ;
ENDSEC;
END-ISO-10303-21;
