ISO-10303-21;
HEADER;
FILE_DESCRIPTION (( 'STEP AP203' ),
    '1' );
FILE_NAME ('03-3064.STEP',
    '2023-07-03T01:14:48',
    ( 'USER' ),
    ( 'Hewlett-Packard Company' ),
    'SwSTEP 2.0',
    'SolidWorks 2014',
    '' );
FILE_SCHEMA (( 'CONFIG_CONTROL_DESIGN' ));
ENDSEC;

DATA;
#1 = CIRCLE ( 'NONE', #262, 9.000000000000001800 ) ;
#2 = VERTEX_POINT ( 'NONE', #251 ) ;
#3 = AXIS2_PLACEMENT_3D ( 'NONE', #302, #137, #329 ) ;
#4 = APPROVAL_PERSON_ORGANIZATION ( #88, #271, #295 ) ;
#5 = EDGE_LOOP ( 'NONE', ( #61, #12, #186, #223 ) ) ;
#6 = ORIENTED_EDGE ( 'NONE', *, *, #23, .T. ) ;
#7 = DIRECTION ( 'NONE',  ( 0.0000000000000000000, 1.000000000000000000, 0.0000000000000000000 ) ) ;
#8 = DIRECTION ( 'NONE',  ( -6.123233995736766000E-017, 1.000000000000000000, 0.0000000000000000000 ) ) ;
#9 = DIRECTION ( 'NONE',  ( 1.000000000000000000, 6.123233995736766000E-017, -0.0000000000000000000 ) ) ;
#10 = ADVANCED_FACE ( 'NONE', ( #351 ), #139, .T. ) ;
#11 = DIRECTION ( 'NONE',  ( -1.000000000000000000, -0.0000000000000000000, -0.0000000000000000000 ) ) ;
#12 = ORIENTED_EDGE ( 'NONE', *, *, #310, .T. ) ;
#13 = DIRECTION ( 'NONE',  ( 0.0000000000000000000, 0.0000000000000000000, 1.000000000000000000 ) ) ;
#14 = CIRCLE ( 'NONE', #188, 1.000000000000000900 ) ;
#15 = CARTESIAN_POINT ( 'NONE',  ( 75.00000000000000000, 0.0000000000000000000, 0.0000000000000000000 ) ) ;
#16 = VERTEX_POINT ( 'NONE', #332 ) ;
#17 = VERTEX_POINT ( 'NONE', #236 ) ;
#18 = AXIS2_PLACEMENT_3D ( 'NONE', #266, #103, #294 ) ;
#19 = CLOSED_SHELL ( 'NONE', ( #48, #316, #10, #180, #208, #154 ) ) ;
#20 = ORIENTED_EDGE ( 'NONE', *, *, #134, .F. ) ;
#21 = CC_DESIGN_APPROVAL ( #364, ( #343 ) ) ;
#22 = FACE_OUTER_BOUND ( 'NONE', #26, .T. ) ;
#23 = EDGE_CURVE ( 'NONE', #241, #245, #175, .T. ) ;
#24 = ADVANCED_BREP_SHAPE_REPRESENTATION ( '03-3064', ( #94, #221, #218 ), #144 ) ;
#25 = CARTESIAN_POINT ( 'NONE',  ( 0.0000000000000000000, 1.224646799147353300E-015, -10.00000000000000000 ) ) ;
#26 = EDGE_LOOP ( 'NONE', ( #220, #37 ) ) ;
#27 = CARTESIAN_POINT ( 'NONE',  ( 76.00000000000000000, 1.163414459189985700E-015, -9.000000000000001800 ) ) ;
#28 = DIRECTION ( 'NONE',  ( -1.000000000000000000, 0.0000000000000000000, -0.0000000000000000000 ) ) ;
#29 = AXIS2_PLACEMENT_3D ( 'NONE', #66, #252, #87 ) ;
#30 = CARTESIAN_POINT ( 'NONE',  ( -63.50000000000000000, -3.888253587292846500E-015, 0.0000000000000000000 ) ) ;
#31 = ORIENTED_EDGE ( 'NONE', *, *, #212, .F. ) ;
#32 = DIRECTION ( 'NONE',  ( 6.123233995736766000E-017, -1.000000000000000000, 0.0000000000000000000 ) ) ;
#33 = ORIENTED_EDGE ( 'NONE', *, *, #174, .F. ) ;
#34 = CALENDAR_DATE ( 2023, 3, 7 ) ;
#35 = ORIENTED_EDGE ( 'NONE', *, *, #23, .F. ) ;
#36 = CIRCLE ( 'NONE', #113, 10.00000000000000000 ) ;
#37 = ORIENTED_EDGE ( 'NONE', *, *, #288, .F. ) ;
#38 = ORIENTED_EDGE ( 'NONE', *, *, #83, .T. ) ;
#39 = AXIS2_PLACEMENT_3D ( 'NONE', #46, #264, #100 ) ;
#40 = ORIENTED_EDGE ( 'NONE', *, *, #288, .T. ) ;
#41 = VECTOR ( 'NONE', #237, 1000.000000000000000 ) ;
#42 = ORIENTED_EDGE ( 'NONE', *, *, #134, .T. ) ;
#43 = CARTESIAN_POINT ( 'NONE',  ( 75.00000000000000000, 1.224646799147353300E-015, -10.00000000000000200 ) ) ;
#44 = CC_DESIGN_PERSON_AND_ORGANIZATION_ASSIGNMENT ( #124, #60, ( #343 ) ) ;
#45 = DATE_AND_TIME ( #117, #189 ) ;
#46 = CARTESIAN_POINT ( 'NONE',  ( 0.0000000000000000000, 0.0000000000000000000, 0.0000000000000000000 ) ) ;
#47 = TOROIDAL_SURFACE ( 'NONE', #95, 9.000000000000001800, 1.000000000000000000 ) ;
#48 = ADVANCED_FACE ( 'NONE', ( #279 ), #259, .T. ) ;
#49 = CARTESIAN_POINT ( 'NONE',  ( -64.00000000000001400, 9.499999999999992900, 0.0000000000000000000 ) ) ;
#50 = EDGE_LOOP ( 'NONE', ( #260, #242, #31, #203 ) ) ;
#51 = EDGE_CURVE ( 'NONE', #319, #355, #327, .T. ) ;
#52 = MECHANICAL_CONTEXT ( 'NONE', #183, 'mechanical' ) ;
#53 = ORIENTED_EDGE ( 'NONE', *, *, #69, .F. ) ;
#54 = DIRECTION ( 'NONE',  ( -1.000000000000000000, -0.0000000000000000000, -0.0000000000000000000 ) ) ;
#55 = VECTOR ( 'NONE', #176, 1000.000000000000000 ) ;
#56 = CLOSED_SHELL ( 'NONE', ( #238, #99, #74, #265, #291, #126 ) ) ;
#57 = AXIS2_PLACEMENT_3D ( 'NONE', #112, #192, #278 ) ;
#58 = PERSON_AND_ORGANIZATION ( #77, #233 ) ;
#59 = PRODUCT_DEFINITION_SHAPE ( 'NONE', 'NONE',  #256 ) ;
#60 = PERSON_AND_ORGANIZATION_ROLE ( 'creator' ) ;
#61 = ORIENTED_EDGE ( 'NONE', *, *, #346, .T. ) ;
#62 = DIRECTION ( 'NONE',  ( -1.000000000000000000, -0.0000000000000000000, -0.0000000000000000000 ) ) ;
#63 = EDGE_LOOP ( 'NONE', ( #201, #250 ) ) ;
#64 = LINE ( 'NONE', #123, #149 ) ;
#65 = AXIS2_PLACEMENT_3D ( 'NONE', #216, #54, #360 ) ;
#66 = CARTESIAN_POINT ( 'NONE',  ( -63.50000000000000000, -3.888253587292846500E-015, 0.0000000000000000000 ) ) ;
#67 = LOCAL_TIME ( 10, 14, 48.00000000000000000, #131 ) ;
#68 = CC_DESIGN_PERSON_AND_ORGANIZATION_ASSIGNMENT ( #58, #247, ( #343 ) ) ;
#69 = EDGE_CURVE ( 'NONE', #245, #241, #182, .T. ) ;
#70 = ORIENTED_EDGE ( 'NONE', *, *, #248, .F. ) ;
#71 = CIRCLE ( 'NONE', #352, 10.00000000000000000 ) ;
#72 = CALENDAR_DATE ( 2023, 3, 7 ) ;
#73 = VERTEX_POINT ( 'NONE', #49 ) ;
#74 = ADVANCED_FACE ( 'NONE', ( #119 ), #109, .T. ) ;
#75 = CARTESIAN_POINT ( 'NONE',  ( 0.0000000000000000000, 0.0000000000000000000, 0.0000000000000000000 ) ) ;
#76 = APPLICATION_CONTEXT ( 'configuration controlled 3d designs of mechanical parts and assemblies' ) ;
#77 = PERSON ( 'UNSPECIFIED', 'UNSPECIFIED', 'UNSPECIFIED', ('UNSPECIFIED'), ('UNSPECIFIED'), ('UNSPECIFIED') ) ;
#78 = CIRCLE ( 'NONE', #313, 10.00000000000000000 ) ;
#79 = AXIS2_PLACEMENT_3D ( 'NONE', #15, #11, #211 ) ;
#80 = DATE_AND_TIME ( #151, #228 ) ;
#81 = SECURITY_CLASSIFICATION ( '', '', #82 ) ;
#82 = SECURITY_CLASSIFICATION_LEVEL ( 'unclassified' ) ;
#83 = EDGE_CURVE ( 'NONE', #355, #245, #321, .T. ) ;
#84 = ORIENTED_EDGE ( 'NONE', *, *, #269, .F. ) ;
#85 = FACE_OUTER_BOUND ( 'NONE', #286, .T. ) ;
#86 = DIRECTION ( 'NONE',  ( -1.000000000000000000, -0.0000000000000000000, -0.0000000000000000000 ) ) ;
#87 = DIRECTION ( 'NONE',  ( 0.0000000000000000000, 1.000000000000000000, 0.0000000000000000000 ) ) ;
#88 = PERSON_AND_ORGANIZATION ( #77, #233 ) ;
#89 = AXIS2_PLACEMENT_3D ( 'NONE', #30, #197, #7 ) ;
#90 = DIRECTION ( 'NONE',  ( 0.0000000000000000000, -1.000000000000000000, 0.0000000000000000000 ) ) ;
#91 = ORIENTED_EDGE ( 'NONE', *, *, #292, .T. ) ;
#92 = EDGE_LOOP ( 'NONE', ( #6, #274 ) ) ;
#93 = FACE_OUTER_BOUND ( 'NONE', #222, .T. ) ;
#94 = MANIFOLD_SOLID_BREP ( 'È¸Àü3', #56 ) ;
#95 = AXIS2_PLACEMENT_3D ( 'NONE', #322, #297, #128 ) ;
#96 = ORIENTED_EDGE ( 'NONE', *, *, #191, .F. ) ;
#97 = ORIENTED_EDGE ( 'NONE', *, *, #269, .T. ) ;
#98 = CC_DESIGN_PERSON_AND_ORGANIZATION_ASSIGNMENT ( #337, #273, ( #81 ) ) ;
#99 = ADVANCED_FACE ( 'NONE', ( #173 ), #47, .T. ) ;
#100 = DIRECTION ( 'NONE',  ( -6.123233995736766000E-017, 1.000000000000000000, 0.0000000000000000000 ) ) ;
#101 = ORIENTED_EDGE ( 'NONE', *, *, #365, .T. ) ;
#102 = CIRCLE ( 'NONE', #65, 10.00000000000000000 ) ;
#103 = DIRECTION ( 'NONE',  ( 1.000000000000000000, 6.123233995736766000E-017, -0.0000000000000000000 ) ) ;
#104 = EDGE_CURVE ( 'NONE', #177, #181, #102, .T. ) ;
#105 = APPROVAL_STATUS ( 'not_yet_approved' ) ;
#106 = DIRECTION ( 'NONE',  ( 1.000000000000000000, 6.123233995736766000E-017, -0.0000000000000000000 ) ) ;
#107 = AXIS2_PLACEMENT_3D ( 'NONE', #168, #170, #361 ) ;
#108 = LOCAL_TIME ( 10, 14, 48.00000000000000000, #179 ) ;
#109 = TOROIDAL_SURFACE ( 'NONE', #79, 9.000000000000001800, 1.000000000000000000 ) ;
#110 = DATE_TIME_ROLE ( 'classification_date' ) ;
#111 = ORIENTED_EDGE ( 'NONE', *, *, #232, .F. ) ;
#112 = CARTESIAN_POINT ( 'NONE',  ( 0.0000000000000000000, 0.0000000000000000000, 0.0000000000000000000 ) ) ;
#113 = AXIS2_PLACEMENT_3D ( 'NONE', #169, #359, #196 ) ;
#114 = ORIENTED_EDGE ( 'NONE', *, *, #365, .F. ) ;
#115 = CARTESIAN_POINT ( 'NONE',  ( 1.000000000000000400, 0.0000000000000000000, 0.0000000000000000000 ) ) ;
#116 = DIRECTION ( 'NONE',  ( -6.123233995736766000E-017, 1.000000000000000000, 0.0000000000000000000 ) ) ;
#117 = CALENDAR_DATE ( 2023, 3, 7 ) ;
#118 = CC_DESIGN_DATE_AND_TIME_ASSIGNMENT ( #45, #110, ( #81 ) ) ;
#119 = FACE_OUTER_BOUND ( 'NONE', #253, .T. ) ;
#120 = EDGE_LOOP ( 'NONE', ( #96, #20 ) ) ;
#121 = EDGE_CURVE ( 'NONE', #317, #2, #36, .T. ) ;
#122 = AXIS2_PLACEMENT_3D ( 'NONE', #178, #9, #209 ) ;
#123 = CARTESIAN_POINT ( 'NONE',  ( -63.50000000000000000, 9.999999999999991100, 0.0000000000000000000 ) ) ;
#124 = PERSON_AND_ORGANIZATION ( #77, #233 ) ;
#125 =( NAMED_UNIT ( * ) SI_UNIT ( $, .STERADIAN. ) SOLID_ANGLE_UNIT ( ) );
#126 = ADVANCED_FACE ( 'NONE', ( #311 ), #185, .F. ) ;
#127 = PERSON_AND_ORGANIZATION_ROLE ( 'creator' ) ;
#128 = DIRECTION ( 'NONE',  ( 0.0000000000000000000, 0.0000000000000000000, 1.000000000000000000 ) ) ;
#129 = ORIENTED_EDGE ( 'NONE', *, *, #121, .F. ) ;
#130 = LINE ( 'NONE', #330, #270 ) ;
#131 = COORDINATED_UNIVERSAL_TIME_OFFSET ( 9, 0, .AHEAD. ) ;
#132 = APPROVAL ( #300, 'UNSPECIFIED' ) ;
#133 = APPROVAL_ROLE ( '' ) ;
#134 = EDGE_CURVE ( 'NONE', #243, #17, #165, .T. ) ;
#135 = EDGE_LOOP ( 'NONE', ( #111, #230, #194, #213 ) ) ;
#136 = CYLINDRICAL_SURFACE ( 'NONE', #3, 10.00000000000000000 ) ;
#137 = DIRECTION ( 'NONE',  ( -1.000000000000000000, -0.0000000000000000000, -0.0000000000000000000 ) ) ;
#138 = EDGE_LOOP ( 'NONE', ( #312, #38, #35, #114 ) ) ;
#139 = PLANE ( 'NONE',  #339 ) ;
#140 = DIRECTION ( 'NONE',  ( 0.0000000000000000000, 0.0000000000000000000, 1.000000000000000000 ) ) ;
#141 = CARTESIAN_POINT ( 'NONE',  ( 0.9999999999999988900, 10.00000000000000000, 0.0000000000000000000 ) ) ;
#142 = DIRECTION ( 'NONE',  ( 1.000000000000000000, 6.123233995736766000E-017, -0.0000000000000000000 ) ) ;
#143 = DIRECTION ( 'NONE',  ( -1.000000000000000000, -0.0000000000000000000, -0.0000000000000000000 ) ) ;
#144 =( GEOMETRIC_REPRESENTATION_CONTEXT ( 3 ) GLOBAL_UNCERTAINTY_ASSIGNED_CONTEXT ( ( #160 ) ) GLOBAL_UNIT_ASSIGNED_CONTEXT ( ( #315, #293, #125 ) ) REPRESENTATION_CONTEXT ( 'NONE', 'WORKASPACE' ) );
#145 = LOCAL_TIME ( 10, 14, 48.00000000000000000, #217 ) ;
#146 = CARTESIAN_POINT ( 'NONE',  ( 75.00000000000000000, 1.102182119232617900E-015, -9.000000000000001800 ) ) ;
#147 = DIRECTION ( 'NONE',  ( -1.000000000000000000, -0.0000000000000000000, -0.0000000000000000000 ) ) ;
#148 = ORIENTED_EDGE ( 'NONE', *, *, #310, .F. ) ;
#149 = VECTOR ( 'NONE', #314, 1000.000000000000100 ) ;
#150 = AXIS2_PLACEMENT_3D ( 'NONE', #306, #143, #335 ) ;
#151 = CALENDAR_DATE ( 2023, 3, 7 ) ;
#152 = CARTESIAN_POINT ( 'NONE',  ( -63.50000000000000000, -9.999999999999998200, 1.224646799147352700E-015 ) ) ;
#153 = CC_DESIGN_APPROVAL ( #132, ( #81 ) ) ;
#154 = ADVANCED_FACE ( 'NONE', ( #93 ), #231, .T. ) ;
#155 = DIRECTION ( 'NONE',  ( 1.000000000000000000, 6.123233995736766000E-017, -0.0000000000000000000 ) ) ;
#156 = APPLICATION_PROTOCOL_DEFINITION ( 'international standard', 'config_control_design', 1994, #183 ) ;
#157 = ORIENTED_EDGE ( 'NONE', *, *, #83, .F. ) ;
#158 = CARTESIAN_POINT ( 'NONE',  ( 0.9999999999999986700, 6.123233995736758600E-017, 0.0000000000000000000 ) ) ;
#159 = CIRCLE ( 'NONE', #333, 9.499999999999996400 ) ;
#160 = UNCERTAINTY_MEASURE_WITH_UNIT (LENGTH_MEASURE( 1.000000000000000100E-005 ), #315, 'distance_accuracy_value', 'NONE');
#161 = EDGE_CURVE ( 'NONE', #17, #2, #301, .T. ) ;
#162 = APPROVAL_STATUS ( 'not_yet_approved' ) ;
#163 = CARTESIAN_POINT ( 'NONE',  ( 76.00000000000000000, 0.0000000000000000000, 0.0000000000000000000 ) ) ;
#164 = PERSON_AND_ORGANIZATION ( #77, #233 ) ;
#165 = CIRCLE ( 'NONE', #150, 9.000000000000001800 ) ;
#166 = ORIENTED_EDGE ( 'NONE', *, *, #232, .T. ) ;
#167 = AXIS2_PLACEMENT_3D ( 'NONE', #163, #28, #227 ) ;
#168 = CARTESIAN_POINT ( 'NONE',  ( 1.000000000000000700, 4.336808689942021400E-017, 0.0000000000000000000 ) ) ;
#169 = CARTESIAN_POINT ( 'NONE',  ( 75.00000000000000000, 0.0000000000000000000, 0.0000000000000000000 ) ) ;
#170 = DIRECTION ( 'NONE',  ( 1.000000000000000000, 0.0000000000000000000, 0.0000000000000000000 ) ) ;
#171 = DIRECTION ( 'NONE',  ( 0.0000000000000000000, -1.224646799147351500E-016, 1.000000000000000000 ) ) ;
#172 = CC_DESIGN_SECURITY_CLASSIFICATION ( #81, ( #343 ) ) ;
#173 = FACE_OUTER_BOUND ( 'NONE', #50, .T. ) ;
#174 = EDGE_CURVE ( 'NONE', #243, #317, #14, .T. ) ;
#175 = CIRCLE ( 'NONE', #324, 10.00000000000000000 ) ;
#176 = DIRECTION ( 'NONE',  ( -1.000000000000000000, -0.0000000000000000000, -0.0000000000000000000 ) ) ;
#177 = VERTEX_POINT ( 'NONE', #198 ) ;
#178 = CARTESIAN_POINT ( 'NONE',  ( -64.00000000000001400, -3.918869757271531100E-015, 0.0000000000000000000 ) ) ;
#179 = COORDINATED_UNIVERSAL_TIME_OFFSET ( 9, 0, .AHEAD. ) ;
#180 = ADVANCED_FACE ( 'NONE', ( #22 ), #363, .T. ) ;
#181 = VERTEX_POINT ( 'NONE', #307 ) ;
#182 = CIRCLE ( 'NONE', #356, 10.00000000000000000 ) ;
#183 = APPLICATION_CONTEXT ( 'configuration controlled 3d designs of mechanical parts and assemblies' ) ;
#184 = DIRECTION ( 'NONE',  ( -6.505213034913026600E-017, 1.000000000000000000, 0.0000000000000000000 ) ) ;
#185 = PLANE ( 'NONE',  #167 ) ;
#186 = ORIENTED_EDGE ( 'NONE', *, *, #51, .F. ) ;
#187 = CONICAL_SURFACE ( 'NONE', #89, 9.999999999999994700, 0.7853981633974327400 ) ;
#188 = AXIS2_PLACEMENT_3D ( 'NONE', #146, #336, #171 ) ;
#189 = LOCAL_TIME ( 10, 14, 48.00000000000000000, #263 ) ;
#190 = PRODUCT_RELATED_PRODUCT_CATEGORY ( 'detail', '', ( #347 ) ) ;
#191 = EDGE_CURVE ( 'NONE', #17, #243, #1, .T. ) ;
#192 = DIRECTION ( 'NONE',  ( -1.000000000000000000, -0.0000000000000000000, -0.0000000000000000000 ) ) ;
#193 = CIRCLE ( 'NONE', #122, 9.499999999999996400 ) ;
#194 = ORIENTED_EDGE ( 'NONE', *, *, #328, .T. ) ;
#195 = PLANE ( 'NONE',  #107 ) ;
#196 = DIRECTION ( 'NONE',  ( 0.0000000000000000000, 0.0000000000000000000, 1.000000000000000000 ) ) ;
#197 = DIRECTION ( 'NONE',  ( 1.000000000000000000, 6.123233995736766000E-017, -0.0000000000000000000 ) ) ;
#198 = CARTESIAN_POINT ( 'NONE',  ( 1.000000000000000400, 1.224646799147353300E-015, -10.00000000000000000 ) ) ;
#199 = DIRECTION ( 'NONE',  ( -1.000000000000000000, -6.123233995736766000E-017, 0.0000000000000000000 ) ) ;
#200 = APPROVAL_DATE_TIME ( #272, #364 ) ;
#201 = ORIENTED_EDGE ( 'NONE', *, *, #248, .T. ) ;
#202 = LINE ( 'NONE', #344, #41 ) ;
#203 = ORIENTED_EDGE ( 'NONE', *, *, #161, .F. ) ;
#204 = AXIS2_PLACEMENT_3D ( 'NONE', #255, #90, #282 ) ;
#205 = APPROVAL_PERSON_ORGANIZATION ( #283, #364, #219 ) ;
#206 = CARTESIAN_POINT ( 'NONE',  ( 0.0000000000000000000, 0.0000000000000000000, 10.00000000000000000 ) ) ;
#207 = DESIGN_CONTEXT ( 'detailed design', #76, 'design' ) ;
#208 = ADVANCED_FACE ( 'NONE', ( #85 ), #354, .T. ) ;
#209 = DIRECTION ( 'NONE',  ( 0.0000000000000000000, 1.000000000000000000, 0.0000000000000000000 ) ) ;
#210 = DIRECTION ( 'NONE',  ( 1.000000000000000000, 0.0000000000000000000, 0.0000000000000000000 ) ) ;
#211 = DIRECTION ( 'NONE',  ( 0.0000000000000000000, 0.0000000000000000000, 1.000000000000000000 ) ) ;
#212 = EDGE_CURVE ( 'NONE', #2, #317, #78, .T. ) ;
#213 = ORIENTED_EDGE ( 'NONE', *, *, #104, .F. ) ;
#214 = FACE_OUTER_BOUND ( 'NONE', #63, .T. ) ;
#215 = ORIENTED_EDGE ( 'NONE', *, *, #212, .T. ) ;
#216 = CARTESIAN_POINT ( 'NONE',  ( 1.000000000000000400, 0.0000000000000000000, 0.0000000000000000000 ) ) ;
#217 = COORDINATED_UNIVERSAL_TIME_OFFSET ( 9, 0, .AHEAD. ) ;
#218 = AXIS2_PLACEMENT_3D ( 'NONE', #75, #13, #210 ) ;
#219 = APPROVAL_ROLE ( '' ) ;
#220 = ORIENTED_EDGE ( 'NONE', *, *, #346, .F. ) ;
#221 = MANIFOLD_SOLID_BREP ( 'È¸Àü4', #19 ) ;
#222 = EDGE_LOOP ( 'NONE', ( #157, #97, #101, #53 ) ) ;
#223 = ORIENTED_EDGE ( 'NONE', *, *, #292, .F. ) ;
#224 = VECTOR ( 'NONE', #62, 1000.000000000000000 ) ;
#225 = CARTESIAN_POINT ( 'NONE',  ( 0.9999999999999993300, -10.00000000000000000, 1.224646799147353300E-015 ) ) ;
#226 = AXIS2_PLACEMENT_3D ( 'NONE', #281, #254, #116 ) ;
#227 = DIRECTION ( 'NONE',  ( -0.0000000000000000000, 0.0000000000000000000, 1.000000000000000000 ) ) ;
#228 = LOCAL_TIME ( 10, 14, 48.00000000000000000, #299 ) ;
#229 = CARTESIAN_POINT ( 'NONE',  ( -63.50000000000000000, -3.888253587292846500E-015, 0.0000000000000000000 ) ) ;
#230 = ORIENTED_EDGE ( 'NONE', *, *, #121, .T. ) ;
#231 = CYLINDRICAL_SURFACE ( 'NONE', #226, 10.00000000000000000 ) ;
#232 = EDGE_CURVE ( 'NONE', #317, #177, #296, .T. ) ;
#233 = ORGANIZATION ( 'UNSPECIFIED', 'UNSPECIFIED', '' ) ;
#234 = CC_DESIGN_PERSON_AND_ORGANIZATION_ASSIGNMENT ( #164, #240, ( #347 ) ) ;
#235 = CARTESIAN_POINT ( 'NONE',  ( -63.50000000000000000, 9.999999999999991100, 0.0000000000000000000 ) ) ;
#236 = CARTESIAN_POINT ( 'NONE',  ( 76.00000000000000000, 0.0000000000000000000, 9.000000000000001800 ) ) ;
#237 = DIRECTION ( 'NONE',  ( 1.000000000000000000, 6.123233995736766000E-017, -0.0000000000000000000 ) ) ;
#238 = ADVANCED_FACE ( 'NONE', ( #287 ), #136, .T. ) ;
#239 = FACE_OUTER_BOUND ( 'NONE', #135, .T. ) ;
#240 = PERSON_AND_ORGANIZATION_ROLE ( 'design_owner' ) ;
#241 = VERTEX_POINT ( 'NONE', #357 ) ;
#242 = ORIENTED_EDGE ( 'NONE', *, *, #174, .T. ) ;
#243 = VERTEX_POINT ( 'NONE', #27 ) ;
#244 = APPROVAL_DATE_TIME ( #318, #132 ) ;
#245 = VERTEX_POINT ( 'NONE', #225 ) ;
#246 = VECTOR ( 'NONE', #106, 1000.000000000000000 ) ;
#247 = PERSON_AND_ORGANIZATION_ROLE ( 'design_supplier' ) ;
#248 = EDGE_CURVE ( 'NONE', #181, #177, #71, .T. ) ;
#249 = CARTESIAN_POINT ( 'NONE',  ( 75.00000000000000000, 0.0000000000000000000, 0.0000000000000000000 ) ) ;
#250 = ORIENTED_EDGE ( 'NONE', *, *, #104, .T. ) ;
#251 = CARTESIAN_POINT ( 'NONE',  ( 75.00000000000000000, 0.0000000000000000000, 10.00000000000000200 ) ) ;
#252 = DIRECTION ( 'NONE',  ( 1.000000000000000000, 6.123233995736766000E-017, -0.0000000000000000000 ) ) ;
#253 = EDGE_LOOP ( 'NONE', ( #33, #42, #349, #129 ) ) ;
#254 = DIRECTION ( 'NONE',  ( 1.000000000000000000, 6.123233995736766000E-017, -0.0000000000000000000 ) ) ;
#255 = CARTESIAN_POINT ( 'NONE',  ( 75.00000000000000000, 0.0000000000000000000, 9.000000000000001800 ) ) ;
#256 = PRODUCT_DEFINITION ( 'UNKNOWN', '', #343, #207 ) ;
#257 = DIRECTION ( 'NONE',  ( 1.000000000000000000, 6.123233995736766000E-017, -0.0000000000000000000 ) ) ;
#258 = APPROVAL_PERSON_ORGANIZATION ( #326, #132, #133 ) ;
#259 = CYLINDRICAL_SURFACE ( 'NONE', #39, 10.00000000000000000 ) ;
#260 = ORIENTED_EDGE ( 'NONE', *, *, #191, .T. ) ;
#261 = LINE ( 'NONE', #206, #55 ) ;
#262 = AXIS2_PLACEMENT_3D ( 'NONE', #309, #147, #338 ) ;
#263 = COORDINATED_UNIVERSAL_TIME_OFFSET ( 9, 0, .AHEAD. ) ;
#264 = DIRECTION ( 'NONE',  ( 1.000000000000000000, 6.123233995736766000E-017, -0.0000000000000000000 ) ) ;
#265 = ADVANCED_FACE ( 'NONE', ( #239 ), #276, .T. ) ;
#266 = CARTESIAN_POINT ( 'NONE',  ( -63.50000000000000000, -3.888253587292846500E-015, 0.0000000000000000000 ) ) ;
#267 = APPLICATION_PROTOCOL_DEFINITION ( 'international standard', 'config_control_design', 1994, #76 ) ;
#268 = CARTESIAN_POINT ( 'NONE',  ( 6.123233995736766300E-016, -10.00000000000000000, 1.224646799147353300E-015 ) ) ;
#269 = EDGE_CURVE ( 'NONE', #355, #319, #350, .T. ) ;
#270 = VECTOR ( 'NONE', #341, 1000.000000000000100 ) ;
#271 = APPROVAL ( #105, 'UNSPECIFIED' ) ;
#272 = DATE_AND_TIME ( #342, #67 ) ;
#273 = PERSON_AND_ORGANIZATION_ROLE ( 'classification_officer' ) ;
#274 = ORIENTED_EDGE ( 'NONE', *, *, #69, .T. ) ;
#275 = DIRECTION ( 'NONE',  ( 0.0000000000000000000, 0.0000000000000000000, 1.000000000000000000 ) ) ;
#276 = CYLINDRICAL_SURFACE ( 'NONE', #57, 10.00000000000000000 ) ;
#277 = ORIENTED_EDGE ( 'NONE', *, *, #328, .F. ) ;
#278 = DIRECTION ( 'NONE',  ( 0.0000000000000000000, 0.0000000000000000000, 1.000000000000000000 ) ) ;
#279 = FACE_OUTER_BOUND ( 'NONE', #138, .T. ) ;
#280 = AXIS2_PLACEMENT_3D ( 'NONE', #331, #199, #32 ) ;
#281 = CARTESIAN_POINT ( 'NONE',  ( 0.0000000000000000000, 0.0000000000000000000, 0.0000000000000000000 ) ) ;
#282 = DIRECTION ( 'NONE',  ( 0.0000000000000000000, 0.0000000000000000000, -1.000000000000000000 ) ) ;
#283 = PERSON_AND_ORGANIZATION ( #77, #233 ) ;
#284 = DIRECTION ( 'NONE',  ( 0.0000000000000000000, 1.000000000000000000, 0.0000000000000000000 ) ) ;
#285 = EDGE_LOOP ( 'NONE', ( #215, #166, #70, #277 ) ) ;
#286 = EDGE_LOOP ( 'NONE', ( #148, #40, #91, #84 ) ) ;
#287 = FACE_OUTER_BOUND ( 'NONE', #285, .T. ) ;
#288 = EDGE_CURVE ( 'NONE', #16, #73, #159, .T. ) ;
#289 = PERSON_AND_ORGANIZATION ( #77, #233 ) ;
#290 = CC_DESIGN_APPROVAL ( #271, ( #256 ) ) ;
#291 = ADVANCED_FACE ( 'NONE', ( #214 ), #195, .F. ) ;
#292 = EDGE_CURVE ( 'NONE', #73, #319, #64, .T. ) ;
#293 =( NAMED_UNIT ( * ) PLANE_ANGLE_UNIT ( ) SI_UNIT ( $, .RADIAN. ) );
#294 = DIRECTION ( 'NONE',  ( 0.0000000000000000000, 1.000000000000000000, 0.0000000000000000000 ) ) ;
#295 = APPROVAL_ROLE ( '' ) ;
#296 = LINE ( 'NONE', #25, #224 ) ;
#297 = DIRECTION ( 'NONE',  ( -1.000000000000000000, -0.0000000000000000000, -0.0000000000000000000 ) ) ;
#298 = AXIS2_PLACEMENT_3D ( 'NONE', #229, #257, #284 ) ;
#299 = COORDINATED_UNIVERSAL_TIME_OFFSET ( 9, 0, .AHEAD. ) ;
#300 = APPROVAL_STATUS ( 'not_yet_approved' ) ;
#301 = CIRCLE ( 'NONE', #204, 1.000000000000000900 ) ;
#302 = CARTESIAN_POINT ( 'NONE',  ( 0.0000000000000000000, 0.0000000000000000000, 0.0000000000000000000 ) ) ;
#303 = DIRECTION ( 'NONE',  ( -1.000000000000000000, -0.0000000000000000000, -0.0000000000000000000 ) ) ;
#304 = CARTESIAN_POINT ( 'NONE',  ( -64.00000000000001400, -3.918869757271531100E-015, 0.0000000000000000000 ) ) ;
#305 = SHAPE_DEFINITION_REPRESENTATION ( #59, #24 ) ;
#306 = CARTESIAN_POINT ( 'NONE',  ( 76.00000000000000000, 0.0000000000000000000, 0.0000000000000000000 ) ) ;
#307 = CARTESIAN_POINT ( 'NONE',  ( 1.000000000000000400, 0.0000000000000000000, 10.00000000000000000 ) ) ;
#308 = CC_DESIGN_PERSON_AND_ORGANIZATION_ASSIGNMENT ( #289, #127, ( #256 ) ) ;
#309 = CARTESIAN_POINT ( 'NONE',  ( 76.00000000000000000, 0.0000000000000000000, 0.0000000000000000000 ) ) ;
#310 = EDGE_CURVE ( 'NONE', #16, #355, #130, .T. ) ;
#311 = FACE_OUTER_BOUND ( 'NONE', #120, .T. ) ;
#312 = ORIENTED_EDGE ( 'NONE', *, *, #51, .T. ) ;
#313 = AXIS2_PLACEMENT_3D ( 'NONE', #249, #86, #275 ) ;
#314 = DIRECTION ( 'NONE',  ( 0.7071067811865584500, 0.7071067811865365800, 0.0000000000000000000 ) ) ;
#315 =( LENGTH_UNIT ( ) NAMED_UNIT ( * ) SI_UNIT ( .MILLI., .METRE. ) );
#316 = ADVANCED_FACE ( 'NONE', ( #340 ), #187, .T. ) ;
#317 = VERTEX_POINT ( 'NONE', #43 ) ;
#318 = DATE_AND_TIME ( #34, #108 ) ;
#319 = VERTEX_POINT ( 'NONE', #235 ) ;
#320 = CARTESIAN_POINT ( 'NONE',  ( 0.9999999999999986700, 6.123233995736758600E-017, 0.0000000000000000000 ) ) ;
#321 = LINE ( 'NONE', #268, #246 ) ;
#322 = CARTESIAN_POINT ( 'NONE',  ( 75.00000000000000000, 0.0000000000000000000, 0.0000000000000000000 ) ) ;
#323 = DATE_TIME_ROLE ( 'creation_date' ) ;
#324 = AXIS2_PLACEMENT_3D ( 'NONE', #320, #155, #345 ) ;
#325 = CC_DESIGN_DATE_AND_TIME_ASSIGNMENT ( #353, #323, ( #256 ) ) ;
#326 = PERSON_AND_ORGANIZATION ( #77, #233 ) ;
#327 = CIRCLE ( 'NONE', #18, 9.999999999999994700 ) ;
#328 = EDGE_CURVE ( 'NONE', #2, #181, #261, .T. ) ;
#329 = DIRECTION ( 'NONE',  ( 0.0000000000000000000, 0.0000000000000000000, 1.000000000000000000 ) ) ;
#330 = CARTESIAN_POINT ( 'NONE',  ( -63.50000000000000000, -9.999999999999998200, 1.224646799147352700E-015 ) ) ;
#331 = CARTESIAN_POINT ( 'NONE',  ( -64.00000000000001400, -3.918869757271531100E-015, 0.0000000000000000000 ) ) ;
#332 = CARTESIAN_POINT ( 'NONE',  ( -64.00000000000001400, -9.500000000000000000, 1.194030629168668900E-015 ) ) ;
#333 = AXIS2_PLACEMENT_3D ( 'NONE', #304, #142, #334 ) ;
#334 = DIRECTION ( 'NONE',  ( 0.0000000000000000000, 1.000000000000000000, 0.0000000000000000000 ) ) ;
#335 = DIRECTION ( 'NONE',  ( 0.0000000000000000000, 0.0000000000000000000, 1.000000000000000000 ) ) ;
#336 = DIRECTION ( 'NONE',  ( -0.0000000000000000000, 1.000000000000000000, 1.224646799147353200E-016 ) ) ;
#337 = PERSON_AND_ORGANIZATION ( #77, #233 ) ;
#338 = DIRECTION ( 'NONE',  ( 0.0000000000000000000, 0.0000000000000000000, 1.000000000000000000 ) ) ;
#339 = AXIS2_PLACEMENT_3D ( 'NONE', #141, #358, #8 ) ;
#340 = FACE_OUTER_BOUND ( 'NONE', #5, .T. ) ;
#341 = DIRECTION ( 'NONE',  ( 0.7071067811865584500, -0.7071067811865365800, 8.659560562354798500E-017 ) ) ;
#342 = CALENDAR_DATE ( 2023, 3, 7 ) ;
#343 = PRODUCT_DEFINITION_FORMATION_WITH_SPECIFIED_SOURCE ( 'ANY', '', #347, .NOT_KNOWN. ) ;
#344 = CARTESIAN_POINT ( 'NONE',  ( -6.123233995736766300E-016, 10.00000000000000000, 0.0000000000000000000 ) ) ;
#345 = DIRECTION ( 'NONE',  ( -6.505213034913026600E-017, 1.000000000000000000, 0.0000000000000000000 ) ) ;
#346 = EDGE_CURVE ( 'NONE', #73, #16, #193, .T. ) ;
#347 = PRODUCT ( '03-3064', '03-3064', '', ( #52 ) ) ;
#348 = DIRECTION ( 'NONE',  ( 1.000000000000000000, 6.123233995736766000E-017, -0.0000000000000000000 ) ) ;
#349 = ORIENTED_EDGE ( 'NONE', *, *, #161, .T. ) ;
#350 = CIRCLE ( 'NONE', #29, 9.999999999999994700 ) ;
#351 = FACE_OUTER_BOUND ( 'NONE', #92, .T. ) ;
#352 = AXIS2_PLACEMENT_3D ( 'NONE', #115, #303, #140 ) ;
#353 = DATE_AND_TIME ( #72, #145 ) ;
#354 = CONICAL_SURFACE ( 'NONE', #298, 9.999999999999994700, 0.7853981633974327400 ) ;
#355 = VERTEX_POINT ( 'NONE', #152 ) ;
#356 = AXIS2_PLACEMENT_3D ( 'NONE', #158, #348, #184 ) ;
#357 = CARTESIAN_POINT ( 'NONE',  ( 0.9999999999999981100, 10.00000000000000000, 0.0000000000000000000 ) ) ;
#358 = DIRECTION ( 'NONE',  ( 1.000000000000000000, 6.123233995736766000E-017, -0.0000000000000000000 ) ) ;
#359 = DIRECTION ( 'NONE',  ( -1.000000000000000000, -0.0000000000000000000, -0.0000000000000000000 ) ) ;
#360 = DIRECTION ( 'NONE',  ( 0.0000000000000000000, 0.0000000000000000000, 1.000000000000000000 ) ) ;
#361 = DIRECTION ( 'NONE',  ( 0.0000000000000000000, 0.0000000000000000000, -1.000000000000000000 ) ) ;
#362 = APPROVAL_DATE_TIME ( #80, #271 ) ;
#363 = PLANE ( 'NONE',  #280 ) ;
#364 = APPROVAL ( #162, 'UNSPECIFIED' ) ;
#365 = EDGE_CURVE ( 'NONE', #319, #241, #202, .T. ) ;
ENDSEC;
END-ISO-10303-21;
