ISO-10303-21;
HEADER;
FILE_DESCRIPTION (( 'STEP AP203' ),
    '1' );
FILE_NAME ('03-3065.STEP',
    '2023-07-03T01:15:05',
    ( 'USER' ),
    ( 'Hewlett-Packard Company' ),
    'SwSTEP 2.0',
    'SolidWorks 2014',
    '' );
FILE_SCHEMA (( 'CONFIG_CONTROL_DESIGN' ));
ENDSEC;

DATA;
#1 = ORIENTED_EDGE ( 'NONE', *, *, #182, .T. ) ;
#2 = CARTESIAN_POINT ( 'NONE',  ( 0.9999999999999995600, 0.0000000000000000000, 0.0000000000000000000 ) ) ;
#3 = EDGE_CURVE ( 'NONE', #122, #216, #31, .T. ) ;
#4 = DATE_TIME_ROLE ( 'creation_date' ) ;
#5 = FACE_OUTER_BOUND ( 'NONE', #115, .T. ) ;
#6 = AXIS2_PLACEMENT_3D ( 'NONE', #114, #61, #260 ) ;
#7 = SHAPE_DEFINITION_REPRESENTATION ( #169, #11 ) ;
#8 = ORIENTED_EDGE ( 'NONE', *, *, #297, .F. ) ;
#9 = LINE ( 'NONE', #303, #146 ) ;
#10 = VERTEX_POINT ( 'NONE', #111 ) ;
#11 = ADVANCED_BREP_SHAPE_REPRESENTATION ( '03-3065', ( #78, #213, #6 ), #300 ) ;
#12 = AXIS2_PLACEMENT_3D ( 'NONE', #308, #105, #280 ) ;
#13 = ORIENTED_EDGE ( 'NONE', *, *, #297, .T. ) ;
#14 = PLANE ( 'NONE',  #177 ) ;
#15 = DIRECTION ( 'NONE',  ( 0.0000000000000000000, 1.000000000000000000, 0.0000000000000000000 ) ) ;
#16 = CARTESIAN_POINT ( 'NONE',  ( 0.9999999999999985600, -8.000000000000000000, 9.797174393178825700E-016 ) ) ;
#17 = DATE_AND_TIME ( #92, #173 ) ;
#18 = CARTESIAN_POINT ( 'NONE',  ( -58.99999999999999300, 7.499999999999992900, 0.0000000000000000000 ) ) ;
#19 = FACE_OUTER_BOUND ( 'NONE', #145, .T. ) ;
#20 = EDGE_CURVE ( 'NONE', #324, #90, #183, .T. ) ;
#21 = DIRECTION ( 'NONE',  ( 1.000000000000000000, 0.0000000000000000000, 0.0000000000000000000 ) ) ;
#22 = DIRECTION ( 'NONE',  ( 0.0000000000000000000, 0.0000000000000000000, 1.000000000000000000 ) ) ;
#23 = CYLINDRICAL_SURFACE ( 'NONE', #317, 8.000000000000000000 ) ;
#24 = CARTESIAN_POINT ( 'NONE',  ( 64.50000000000000000, 7.960204194457796500E-016, -6.500000000000000900 ) ) ;
#25 = EDGE_LOOP ( 'NONE', ( #269, #13, #129, #352 ) ) ;
#26 = CC_DESIGN_PERSON_AND_ORGANIZATION_ASSIGNMENT ( #230, #291, ( #96 ) ) ;
#27 = DIRECTION ( 'NONE',  ( 0.0000000000000000000, 0.0000000000000000000, -1.000000000000000000 ) ) ;
#28 = CARTESIAN_POINT ( 'NONE',  ( 0.0000000000000000000, 0.0000000000000000000, 0.0000000000000000000 ) ) ;
#29 = DIRECTION ( 'NONE',  ( 0.0000000000000000000, 0.0000000000000000000, 1.000000000000000000 ) ) ;
#30 = PERSON_AND_ORGANIZATION ( #217, #301 ) ;
#31 = CIRCLE ( 'NONE', #94, 7.999999999999994700 ) ;
#32 = ORIENTED_EDGE ( 'NONE', *, *, #155, .T. ) ;
#33 = APPROVAL_ROLE ( '' ) ;
#34 = AXIS2_PLACEMENT_3D ( 'NONE', #161, #79, #130 ) ;
#35 = CYLINDRICAL_SURFACE ( 'NONE', #283, 8.000000000000000000 ) ;
#36 = EDGE_LOOP ( 'NONE', ( #318, #356, #32, #179 ) ) ;
#37 = PERSON_AND_ORGANIZATION ( #217, #301 ) ;
#38 = ORIENTED_EDGE ( 'NONE', *, *, #241, .T. ) ;
#39 = EDGE_CURVE ( 'NONE', #122, #324, #320, .T. ) ;
#40 = ADVANCED_FACE ( 'NONE', ( #247 ), #14, .T. ) ;
#41 = FACE_OUTER_BOUND ( 'NONE', #53, .T. ) ;
#42 = EDGE_LOOP ( 'NONE', ( #348, #125, #148, #212 ) ) ;
#43 = PRODUCT_DEFINITION ( 'UNKNOWN', '', #136, #325 ) ;
#44 = CARTESIAN_POINT ( 'NONE',  ( -59.00000000000000000, -3.612708057484691600E-015, 0.0000000000000000000 ) ) ;
#45 = CARTESIAN_POINT ( 'NONE',  ( 0.0000000000000000000, 0.0000000000000000000, 0.0000000000000000000 ) ) ;
#46 = CALENDAR_DATE ( 2023, 3, 7 ) ;
#47 = ORIENTED_EDGE ( 'NONE', *, *, #276, .F. ) ;
#48 = CARTESIAN_POINT ( 'NONE',  ( 64.50000000000000000, 0.0000000000000000000, 0.0000000000000000000 ) ) ;
#49 = DIRECTION ( 'NONE',  ( -1.000000000000000000, -0.0000000000000000000, -0.0000000000000000000 ) ) ;
#50 = FACE_OUTER_BOUND ( 'NONE', #274, .T. ) ;
#51 = AXIS2_PLACEMENT_3D ( 'NONE', #227, #52, #250 ) ;
#52 = DIRECTION ( 'NONE',  ( -1.000000000000000000, -0.0000000000000000000, -0.0000000000000000000 ) ) ;
#53 = EDGE_LOOP ( 'NONE', ( #236, #67, #252, #71 ) ) ;
#54 = DIRECTION ( 'NONE',  ( 0.0000000000000000000, -1.224646799147353500E-016, 1.000000000000000000 ) ) ;
#55 = DIRECTION ( 'NONE',  ( 0.0000000000000000000, 1.000000000000000000, 0.0000000000000000000 ) ) ;
#56 = DATE_AND_TIME ( #128, #211 ) ;
#57 = DIRECTION ( 'NONE',  ( -1.000000000000000000, -0.0000000000000000000, -0.0000000000000000000 ) ) ;
#58 = ORIENTED_EDGE ( 'NONE', *, *, #20, .F. ) ;
#59 = CARTESIAN_POINT ( 'NONE',  ( 0.0000000000000000000, 0.0000000000000000000, 0.0000000000000000000 ) ) ;
#60 = FACE_OUTER_BOUND ( 'NONE', #42, .T. ) ;
#61 = DIRECTION ( 'NONE',  ( 0.0000000000000000000, 0.0000000000000000000, 1.000000000000000000 ) ) ;
#62 = EDGE_CURVE ( 'NONE', #139, #295, #102, .T. ) ;
#63 = CIRCLE ( 'NONE', #185, 6.500000000000000900 ) ;
#64 = EDGE_LOOP ( 'NONE', ( #1, #330 ) ) ;
#65 = APPROVAL ( #141, 'UNSPECIFIED' ) ;
#66 = APPROVAL_DATE_TIME ( #137, #65 ) ;
#67 = ORIENTED_EDGE ( 'NONE', *, *, #205, .T. ) ;
#68 = ADVANCED_FACE ( 'NONE', ( #19 ), #305, .T. ) ;
#69 = APPROVAL_PERSON_ORGANIZATION ( #144, #65, #341 ) ;
#70 = DIRECTION ( 'NONE',  ( -1.000000000000000000, -6.123233995736766000E-017, 0.0000000000000000000 ) ) ;
#71 = ORIENTED_EDGE ( 'NONE', *, *, #155, .F. ) ;
#72 = DIRECTION ( 'NONE',  ( 1.000000000000000000, 6.123233995736766000E-017, -0.0000000000000000000 ) ) ;
#73 = ADVANCED_FACE ( 'NONE', ( #242 ), #316, .T. ) ;
#74 = DIRECTION ( 'NONE',  ( 0.0000000000000000000, 0.0000000000000000000, 1.000000000000000000 ) ) ;
#75 = CARTESIAN_POINT ( 'NONE',  ( -58.99999999999999300, -3.612708057484691600E-015, 0.0000000000000000000 ) ) ;
#76 = EDGE_CURVE ( 'NONE', #295, #216, #93, .T. ) ;
#77 = TOROIDAL_SURFACE ( 'NONE', #215, 6.500000000000000900, 1.500000000000000400 ) ;
#78 = MANIFOLD_SOLID_BREP ( 'È¸Àü3', #339 ) ;
#79 = DIRECTION ( 'NONE',  ( 1.000000000000000000, 6.123233995736766000E-017, -0.0000000000000000000 ) ) ;
#80 = CARTESIAN_POINT ( 'NONE',  ( 0.9999999999999985600, 8.000000000000000000, 0.0000000000000000000 ) ) ;
#81 = DIRECTION ( 'NONE',  ( -1.000000000000000000, 0.0000000000000000000, -0.0000000000000000000 ) ) ;
#82 = CC_DESIGN_APPROVAL ( #65, ( #43 ) ) ;
#83 = CARTESIAN_POINT ( 'NONE',  ( 66.00000000000000000, 0.0000000000000000000, 0.0000000000000000000 ) ) ;
#84 = ORIENTED_EDGE ( 'NONE', *, *, #225, .F. ) ;
#85 = CARTESIAN_POINT ( 'NONE',  ( -4.898587196589412800E-016, 8.000000000000000000, 0.0000000000000000000 ) ) ;
#86 = EDGE_CURVE ( 'NONE', #139, #122, #9, .T. ) ;
#87 = MECHANICAL_CONTEXT ( 'NONE', #234, 'mechanical' ) ;
#88 = VECTOR ( 'NONE', #357, 999.9999999999998900 ) ;
#89 = AXIS2_PLACEMENT_3D ( 'NONE', #24, #229, #54 ) ;
#90 = VERTEX_POINT ( 'NONE', #16 ) ;
#91 = VECTOR ( 'NONE', #49, 1000.000000000000000 ) ;
#92 = CALENDAR_DATE ( 2023, 3, 7 ) ;
#93 = LINE ( 'NONE', #154, #88 ) ;
#94 = AXIS2_PLACEMENT_3D ( 'NONE', #170, #265, #55 ) ;
#95 = ADVANCED_FACE ( 'NONE', ( #5 ), #77, .T. ) ;
#96 = PRODUCT ( '03-3065', '03-3065', '', ( #87 ) ) ;
#97 = ORIENTED_EDGE ( 'NONE', *, *, #140, .T. ) ;
#98 = CC_DESIGN_PERSON_AND_ORGANIZATION_ASSIGNMENT ( #354, #176, ( #43 ) ) ;
#99 = DIRECTION ( 'NONE',  ( 0.7071067811865440200, 0.7071067811865511300, 0.0000000000000000000 ) ) ;
#100 = EDGE_CURVE ( 'NONE', #90, #324, #235, .T. ) ;
#101 = DATE_AND_TIME ( #181, #255 ) ;
#102 = CIRCLE ( 'NONE', #147, 7.499999999999996400 ) ;
#103 = DIRECTION ( 'NONE',  ( 0.0000000000000000000, 1.000000000000000000, 0.0000000000000000000 ) ) ;
#104 = DIRECTION ( 'NONE',  ( -1.000000000000000000, -0.0000000000000000000, -0.0000000000000000000 ) ) ;
#105 = DIRECTION ( 'NONE',  ( 1.000000000000000000, 6.123233995736766000E-017, -0.0000000000000000000 ) ) ;
#106 = AXIS2_PLACEMENT_3D ( 'NONE', #80, #282, #108 ) ;
#107 = LINE ( 'NONE', #338, #323 ) ;
#108 = DIRECTION ( 'NONE',  ( -6.123233995736766000E-017, 1.000000000000000000, 0.0000000000000000000 ) ) ;
#109 = VERTEX_POINT ( 'NONE', #245 ) ;
#110 = DIRECTION ( 'NONE',  ( 0.0000000000000000000, 0.0000000000000000000, 1.000000000000000000 ) ) ;
#111 = CARTESIAN_POINT ( 'NONE',  ( 66.00000000000000000, 0.0000000000000000000, 6.500000000000000900 ) ) ;
#112 = DIRECTION ( 'NONE',  ( -1.000000000000000000, -0.0000000000000000000, -0.0000000000000000000 ) ) ;
#113 = PERSON_AND_ORGANIZATION ( #217, #301 ) ;
#114 = CARTESIAN_POINT ( 'NONE',  ( 0.0000000000000000000, 0.0000000000000000000, 0.0000000000000000000 ) ) ;
#115 = EDGE_LOOP ( 'NONE', ( #38, #336, #84, #47 ) ) ;
#116 = APPLICATION_CONTEXT ( 'configuration controlled 3d designs of mechanical parts and assemblies' ) ;
#117 = AXIS2_PLACEMENT_3D ( 'NONE', #150, #353, #187 ) ;
#118 = CIRCLE ( 'NONE', #262, 8.000000000000000000 ) ;
#119 = ORIENTED_EDGE ( 'NONE', *, *, #62, .F. ) ;
#120 = CC_DESIGN_DATE_AND_TIME_ASSIGNMENT ( #56, #4, ( #43 ) ) ;
#121 = LOCAL_TIME ( 10, 15, 5.000000000000000000, #202 ) ;
#122 = VERTEX_POINT ( 'NONE', #328 ) ;
#123 = EDGE_CURVE ( 'NONE', #295, #139, #298, .T. ) ;
#124 = CONICAL_SURFACE ( 'NONE', #12, 7.999999999999994700, 0.7853981633974533900 ) ;
#125 = ORIENTED_EDGE ( 'NONE', *, *, #123, .T. ) ;
#126 = LINE ( 'NONE', #249, #91 ) ;
#127 = DIRECTION ( 'NONE',  ( -6.123233995736766000E-017, 1.000000000000000000, 0.0000000000000000000 ) ) ;
#128 = CALENDAR_DATE ( 2023, 3, 7 ) ;
#129 = ORIENTED_EDGE ( 'NONE', *, *, #276, .T. ) ;
#130 = DIRECTION ( 'NONE',  ( -6.123233995736766000E-017, 1.000000000000000000, 0.0000000000000000000 ) ) ;
#131 = CARTESIAN_POINT ( 'NONE',  ( 64.50000000000000000, 9.797174393178827600E-016, -8.000000000000000000 ) ) ;
#132 = CIRCLE ( 'NONE', #362, 8.000000000000000000 ) ;
#133 = CARTESIAN_POINT ( 'NONE',  ( 64.50000000000000000, 0.0000000000000000000, 0.0000000000000000000 ) ) ;
#134 = ORIENTED_EDGE ( 'NONE', *, *, #349, .F. ) ;
#135 = CARTESIAN_POINT ( 'NONE',  ( 66.00000000000000000, 8.878689293818310100E-016, -6.500000000000000900 ) ) ;
#136 = PRODUCT_DEFINITION_FORMATION_WITH_SPECIFIED_SOURCE ( 'ANY', '', #96, .NOT_KNOWN. ) ;
#137 = DATE_AND_TIME ( #219, #294 ) ;
#138 = DIRECTION ( 'NONE',  ( -1.000000000000000000, -0.0000000000000000000, -0.0000000000000000000 ) ) ;
#139 = VERTEX_POINT ( 'NONE', #18 ) ;
#140 = EDGE_CURVE ( 'NONE', #216, #122, #346, .T. ) ;
#141 = APPROVAL_STATUS ( 'not_yet_approved' ) ;
#142 = UNCERTAINTY_MEASURE_WITH_UNIT (LENGTH_MEASURE( 1.000000000000000100E-005 ), #290, 'distance_accuracy_value', 'NONE');
#143 = AXIS2_PLACEMENT_3D ( 'NONE', #364, #200, #27 ) ;
#144 = PERSON_AND_ORGANIZATION ( #217, #301 ) ;
#145 = EDGE_LOOP ( 'NONE', ( #244, #289, #258, #186 ) ) ;
#146 = VECTOR ( 'NONE', #99, 999.9999999999998900 ) ;
#147 = AXIS2_PLACEMENT_3D ( 'NONE', #355, #188, #15 ) ;
#148 = ORIENTED_EDGE ( 'NONE', *, *, #86, .T. ) ;
#149 = ADVANCED_FACE ( 'NONE', ( #238 ), #331, .F. ) ;
#150 = CARTESIAN_POINT ( 'NONE',  ( 0.9999999999999981100, 6.123233995736753700E-017, 0.0000000000000000000 ) ) ;
#151 = EDGE_LOOP ( 'NONE', ( #198, #310, #58, #281 ) ) ;
#152 = APPROVAL ( #207, 'UNSPECIFIED' ) ;
#153 = DIRECTION ( 'NONE',  ( 1.000000000000000000, 6.123233995736766000E-017, -0.0000000000000000000 ) ) ;
#154 = CARTESIAN_POINT ( 'NONE',  ( -58.50000000000000000, -7.999999999999998200, 9.797174393178819700E-016 ) ) ;
#155 = EDGE_CURVE ( 'NONE', #302, #109, #220, .T. ) ;
#156 = PERSON_AND_ORGANIZATION_ROLE ( 'design_supplier' ) ;
#157 = CARTESIAN_POINT ( 'NONE',  ( 0.9999999999999981100, 6.123233995736753700E-017, 0.0000000000000000000 ) ) ;
#158 = CYLINDRICAL_SURFACE ( 'NONE', #34, 8.000000000000000000 ) ;
#159 = CARTESIAN_POINT ( 'NONE',  ( -58.50000000000000000, -3.582091887506007800E-015, 0.0000000000000000000 ) ) ;
#160 = ORIENTED_EDGE ( 'NONE', *, *, #100, .F. ) ;
#161 = CARTESIAN_POINT ( 'NONE',  ( 0.0000000000000000000, 0.0000000000000000000, 0.0000000000000000000 ) ) ;
#162 = DATE_TIME_ROLE ( 'classification_date' ) ;
#163 = DIRECTION ( 'NONE',  ( 0.0000000000000000000, 0.0000000000000000000, 1.000000000000000000 ) ) ;
#164 = CARTESIAN_POINT ( 'NONE',  ( -58.50000000000000000, -7.999999999999998200, 9.797174393178819700E-016 ) ) ;
#165 = AXIS2_PLACEMENT_3D ( 'NONE', #166, #81, #284 ) ;
#166 = CARTESIAN_POINT ( 'NONE',  ( 66.00000000000000000, 0.0000000000000000000, 0.0000000000000000000 ) ) ;
#167 = CARTESIAN_POINT ( 'NONE',  ( 64.50000000000000000, 0.0000000000000000000, 0.0000000000000000000 ) ) ;
#168 = VERTEX_POINT ( 'NONE', #307 ) ;
#169 = PRODUCT_DEFINITION_SHAPE ( 'NONE', 'NONE',  #43 ) ;
#170 = CARTESIAN_POINT ( 'NONE',  ( -58.50000000000000000, -3.582091887506007800E-015, 0.0000000000000000000 ) ) ;
#171 = DIRECTION ( 'NONE',  ( 0.0000000000000000000, 0.0000000000000000000, 1.000000000000000000 ) ) ;
#172 = DIRECTION ( 'NONE',  ( 1.000000000000000000, 6.123233995736766000E-017, -0.0000000000000000000 ) ) ;
#173 = LOCAL_TIME ( 10, 15, 5.000000000000000000, #246 ) ;
#174 =( NAMED_UNIT ( * ) SI_UNIT ( $, .STERADIAN. ) SOLID_ANGLE_UNIT ( ) );
#175 = VECTOR ( 'NONE', #218, 1000.000000000000000 ) ;
#176 = PERSON_AND_ORGANIZATION_ROLE ( 'creator' ) ;
#177 = AXIS2_PLACEMENT_3D ( 'NONE', #44, #70, #270 ) ;
#178 = FACE_OUTER_BOUND ( 'NONE', #36, .T. ) ;
#179 = ORIENTED_EDGE ( 'NONE', *, *, #332, .F. ) ;
#180 = CC_DESIGN_APPROVAL ( #152, ( #136 ) ) ;
#181 = CALENDAR_DATE ( 2023, 3, 7 ) ;
#182 = EDGE_CURVE ( 'NONE', #109, #168, #275, .T. ) ;
#183 = CIRCLE ( 'NONE', #117, 8.000000000000000000 ) ;
#184 = ADVANCED_FACE ( 'NONE', ( #273 ), #158, .T. ) ;
#185 = AXIS2_PLACEMENT_3D ( 'NONE', #83, #285, #110 ) ;
#186 = ORIENTED_EDGE ( 'NONE', *, *, #86, .F. ) ;
#187 = DIRECTION ( 'NONE',  ( -5.421010862427522200E-017, 1.000000000000000000, 0.0000000000000000000 ) ) ;
#188 = DIRECTION ( 'NONE',  ( 1.000000000000000000, 6.123233995736766000E-017, -0.0000000000000000000 ) ) ;
#189 = PERSON_AND_ORGANIZATION ( #217, #301 ) ;
#190 = ORIENTED_EDGE ( 'NONE', *, *, #100, .T. ) ;
#191 = DIRECTION ( 'NONE',  ( -5.421010862427522200E-017, 1.000000000000000000, 0.0000000000000000000 ) ) ;
#192 = DIRECTION ( 'NONE',  ( 0.0000000000000000000, 1.000000000000000000, 0.0000000000000000000 ) ) ;
#193 = AXIS2_PLACEMENT_3D ( 'NONE', #326, #153, #223 ) ;
#194 = DIRECTION ( 'NONE',  ( -1.000000000000000000, -0.0000000000000000000, -0.0000000000000000000 ) ) ;
#195 = APPROVAL_ROLE ( '' ) ;
#196 = FACE_OUTER_BOUND ( 'NONE', #25, .T. ) ;
#197 = PLANE ( 'NONE',  #106 ) ;
#198 = ORIENTED_EDGE ( 'NONE', *, *, #3, .T. ) ;
#199 = CARTESIAN_POINT ( 'NONE',  ( -58.99999999999999300, -7.500000000000000000, 9.491012693391981900E-016 ) ) ;
#200 = DIRECTION ( 'NONE',  ( 0.0000000000000000000, -1.000000000000000000, 0.0000000000000000000 ) ) ;
#201 = CC_DESIGN_PERSON_AND_ORGANIZATION_ASSIGNMENT ( #189, #363, ( #136 ) ) ;
#202 = COORDINATED_UNIVERSAL_TIME_OFFSET ( 9, 0, .AHEAD. ) ;
#203 = DIRECTION ( 'NONE',  ( -1.000000000000000000, -0.0000000000000000000, -0.0000000000000000000 ) ) ;
#204 = EDGE_LOOP ( 'NONE', ( #134, #97, #222, #160 ) ) ;
#205 = EDGE_CURVE ( 'NONE', #209, #168, #126, .T. ) ;
#206 = APPLICATION_PROTOCOL_DEFINITION ( 'international standard', 'config_control_design', 1994, #234 ) ;
#207 = APPROVAL_STATUS ( 'not_yet_approved' ) ;
#208 = CIRCLE ( 'NONE', #89, 1.500000000000000400 ) ;
#209 = VERTEX_POINT ( 'NONE', #131 ) ;
#210 = AXIS2_PLACEMENT_3D ( 'NONE', #233, #57, #254 ) ;
#211 = LOCAL_TIME ( 10, 15, 5.000000000000000000, #286 ) ;
#212 = ORIENTED_EDGE ( 'NONE', *, *, #140, .F. ) ;
#213 = MANIFOLD_SOLID_BREP ( 'È¸Àü4', #293 ) ;
#214 = ADVANCED_FACE ( 'NONE', ( #60 ), #124, .T. ) ;
#215 = AXIS2_PLACEMENT_3D ( 'NONE', #48, #224, #74 ) ;
#216 = VERTEX_POINT ( 'NONE', #164 ) ;
#217 = PERSON ( 'UNSPECIFIED', 'UNSPECIFIED', 'UNSPECIFIED', ('UNSPECIFIED'), ('UNSPECIFIED'), ('UNSPECIFIED') ) ;
#218 = DIRECTION ( 'NONE',  ( 1.000000000000000000, 6.123233995736766000E-017, -0.0000000000000000000 ) ) ;
#219 = CALENDAR_DATE ( 2023, 3, 7 ) ;
#220 = LINE ( 'NONE', #278, #257 ) ;
#221 = CC_DESIGN_PERSON_AND_ORGANIZATION_ASSIGNMENT ( #113, #156, ( #136 ) ) ;
#222 = ORIENTED_EDGE ( 'NONE', *, *, #39, .T. ) ;
#223 = DIRECTION ( 'NONE',  ( 0.0000000000000000000, 1.000000000000000000, 0.0000000000000000000 ) ) ;
#224 = DIRECTION ( 'NONE',  ( -1.000000000000000000, -0.0000000000000000000, -0.0000000000000000000 ) ) ;
#225 = EDGE_CURVE ( 'NONE', #302, #209, #132, .T. ) ;
#226 = DIRECTION ( 'NONE',  ( 0.0000000000000000000, 0.0000000000000000000, -1.000000000000000000 ) ) ;
#227 = CARTESIAN_POINT ( 'NONE',  ( 66.00000000000000000, 0.0000000000000000000, 0.0000000000000000000 ) ) ;
#228 = AXIS2_PLACEMENT_3D ( 'NONE', #167, #309, #311 ) ;
#229 = DIRECTION ( 'NONE',  ( -0.0000000000000000000, 1.000000000000000000, 1.224646799147353200E-016 ) ) ;
#230 = PERSON_AND_ORGANIZATION ( #217, #301 ) ;
#231 = CARTESIAN_POINT ( 'NONE',  ( 64.50000000000000000, 0.0000000000000000000, 8.000000000000000000 ) ) ;
#232 = ORIENTED_EDGE ( 'NONE', *, *, #20, .T. ) ;
#233 = CARTESIAN_POINT ( 'NONE',  ( 64.50000000000000000, 0.0000000000000000000, 0.0000000000000000000 ) ) ;
#234 = APPLICATION_CONTEXT ( 'configuration controlled 3d designs of mechanical parts and assemblies' ) ;
#235 = CIRCLE ( 'NONE', #237, 8.000000000000000000 ) ;
#236 = ORIENTED_EDGE ( 'NONE', *, *, #225, .T. ) ;
#237 = AXIS2_PLACEMENT_3D ( 'NONE', #157, #358, #191 ) ;
#238 = FACE_OUTER_BOUND ( 'NONE', #64, .T. ) ;
#239 = ORIENTED_EDGE ( 'NONE', *, *, #123, .F. ) ;
#240 = SECURITY_CLASSIFICATION ( '', '', #287 ) ;
#241 = EDGE_CURVE ( 'NONE', #10, #264, #351, .T. ) ;
#242 = FACE_OUTER_BOUND ( 'NONE', #204, .T. ) ;
#243 = ADVANCED_FACE ( 'NONE', ( #279 ), #197, .T. ) ;
#244 = ORIENTED_EDGE ( 'NONE', *, *, #62, .T. ) ;
#245 = CARTESIAN_POINT ( 'NONE',  ( 0.9999999999999995600, 0.0000000000000000000, 8.000000000000000000 ) ) ;
#246 = COORDINATED_UNIVERSAL_TIME_OFFSET ( 9, 0, .AHEAD. ) ;
#247 = FACE_OUTER_BOUND ( 'NONE', #306, .T. ) ;
#248 = AXIS2_PLACEMENT_3D ( 'NONE', #45, #72, #127 ) ;
#249 = CARTESIAN_POINT ( 'NONE',  ( 0.0000000000000000000, 9.797174393178825700E-016, -8.000000000000000000 ) ) ;
#250 = DIRECTION ( 'NONE',  ( 0.0000000000000000000, 0.0000000000000000000, 1.000000000000000000 ) ) ;
#251 = PLANE ( 'NONE',  #165 ) ;
#252 = ORIENTED_EDGE ( 'NONE', *, *, #182, .F. ) ;
#253 = CC_DESIGN_PERSON_AND_ORGANIZATION_ASSIGNMENT ( #37, #333, ( #240 ) ) ;
#254 = DIRECTION ( 'NONE',  ( 0.0000000000000000000, 0.0000000000000000000, 1.000000000000000000 ) ) ;
#255 = LOCAL_TIME ( 10, 15, 5.000000000000000000, #329 ) ;
#256 = DIRECTION ( 'NONE',  ( 0.0000000000000000000, 0.0000000000000000000, 1.000000000000000000 ) ) ;
#257 = VECTOR ( 'NONE', #104, 1000.000000000000000 ) ;
#258 = ORIENTED_EDGE ( 'NONE', *, *, #3, .F. ) ;
#259 = EDGE_CURVE ( 'NONE', #264, #209, #208, .T. ) ;
#260 = DIRECTION ( 'NONE',  ( 1.000000000000000000, 0.0000000000000000000, 0.0000000000000000000 ) ) ;
#261 = ORIENTED_EDGE ( 'NONE', *, *, #241, .F. ) ;
#262 = AXIS2_PLACEMENT_3D ( 'NONE', #2, #203, #29 ) ;
#263 = APPROVAL_DATE_TIME ( #337, #152 ) ;
#264 = VERTEX_POINT ( 'NONE', #135 ) ;
#265 = DIRECTION ( 'NONE',  ( 1.000000000000000000, 6.123233995736766000E-017, -0.0000000000000000000 ) ) ;
#266 = AXIS2_PLACEMENT_3D ( 'NONE', #75, #277, #103 ) ;
#267 = ADVANCED_FACE ( 'NONE', ( #50 ), #251, .F. ) ;
#268 = TOROIDAL_SURFACE ( 'NONE', #228, 6.500000000000000900, 1.500000000000000400 ) ;
#269 = ORIENTED_EDGE ( 'NONE', *, *, #259, .F. ) ;
#270 = DIRECTION ( 'NONE',  ( 6.123233995736766000E-017, -1.000000000000000000, 0.0000000000000000000 ) ) ;
#271 = CC_DESIGN_DATE_AND_TIME_ASSIGNMENT ( #101, #162, ( #240 ) ) ;
#272 = APPROVAL_PERSON_ORGANIZATION ( #345, #152, #33 ) ;
#273 = FACE_OUTER_BOUND ( 'NONE', #151, .T. ) ;
#274 = EDGE_LOOP ( 'NONE', ( #261, #8 ) ) ;
#275 = CIRCLE ( 'NONE', #322, 8.000000000000000000 ) ;
#276 = EDGE_CURVE ( 'NONE', #10, #302, #343, .T. ) ;
#277 = DIRECTION ( 'NONE',  ( 1.000000000000000000, 6.123233995736766000E-017, -0.0000000000000000000 ) ) ;
#278 = CARTESIAN_POINT ( 'NONE',  ( 0.0000000000000000000, 0.0000000000000000000, 8.000000000000000000 ) ) ;
#279 = FACE_OUTER_BOUND ( 'NONE', #344, .T. ) ;
#280 = DIRECTION ( 'NONE',  ( 0.0000000000000000000, 1.000000000000000000, 0.0000000000000000000 ) ) ;
#281 = ORIENTED_EDGE ( 'NONE', *, *, #39, .F. ) ;
#282 = DIRECTION ( 'NONE',  ( 1.000000000000000000, 6.123233995736766000E-017, -0.0000000000000000000 ) ) ;
#283 = AXIS2_PLACEMENT_3D ( 'NONE', #28, #138, #171 ) ;
#284 = DIRECTION ( 'NONE',  ( -0.0000000000000000000, 0.0000000000000000000, 1.000000000000000000 ) ) ;
#285 = DIRECTION ( 'NONE',  ( -1.000000000000000000, -0.0000000000000000000, -0.0000000000000000000 ) ) ;
#286 = COORDINATED_UNIVERSAL_TIME_OFFSET ( 9, 0, .AHEAD. ) ;
#287 = SECURITY_CLASSIFICATION_LEVEL ( 'unclassified' ) ;
#288 = CARTESIAN_POINT ( 'NONE',  ( 0.9999999999999976700, 8.000000000000000000, 0.0000000000000000000 ) ) ;
#289 = ORIENTED_EDGE ( 'NONE', *, *, #76, .T. ) ;
#290 =( LENGTH_UNIT ( ) NAMED_UNIT ( * ) SI_UNIT ( .MILLI., .METRE. ) );
#291 = PERSON_AND_ORGANIZATION_ROLE ( 'design_owner' ) ;
#292 = AXIS2_PLACEMENT_3D ( 'NONE', #159, #359, #192 ) ;
#293 = CLOSED_SHELL ( 'NONE', ( #184, #68, #243, #40, #214, #73 ) ) ;
#294 = LOCAL_TIME ( 10, 15, 5.000000000000000000, #365 ) ;
#295 = VERTEX_POINT ( 'NONE', #199 ) ;
#296 = APPROVAL ( #361, 'UNSPECIFIED' ) ;
#297 = EDGE_CURVE ( 'NONE', #264, #10, #63, .T. ) ;
#298 = CIRCLE ( 'NONE', #266, 7.499999999999996400 ) ;
#299 = ADVANCED_FACE ( 'NONE', ( #196 ), #268, .T. ) ;
#300 =( GEOMETRIC_REPRESENTATION_CONTEXT ( 3 ) GLOBAL_UNCERTAINTY_ASSIGNED_CONTEXT ( ( #142 ) ) GLOBAL_UNIT_ASSIGNED_CONTEXT ( ( #290, #340, #174 ) ) REPRESENTATION_CONTEXT ( 'NONE', 'WORKASPACE' ) );
#301 = ORGANIZATION ( 'UNSPECIFIED', 'UNSPECIFIED', '' ) ;
#302 = VERTEX_POINT ( 'NONE', #231 ) ;
#303 = CARTESIAN_POINT ( 'NONE',  ( -58.50000000000000000, 7.999999999999991100, 0.0000000000000000000 ) ) ;
#304 = CARTESIAN_POINT ( 'NONE',  ( 1.000000000000000200, 1.626303258728257900E-016, 0.0000000000000000000 ) ) ;
#305 = CONICAL_SURFACE ( 'NONE', #193, 7.999999999999994700, 0.7853981633974533900 ) ;
#306 = EDGE_LOOP ( 'NONE', ( #119, #239 ) ) ;
#307 = CARTESIAN_POINT ( 'NONE',  ( 0.9999999999999995600, 9.797174393178825700E-016, -8.000000000000000000 ) ) ;
#308 = CARTESIAN_POINT ( 'NONE',  ( -58.50000000000000000, -3.582091887506007800E-015, 0.0000000000000000000 ) ) ;
#309 = DIRECTION ( 'NONE',  ( -1.000000000000000000, -0.0000000000000000000, -0.0000000000000000000 ) ) ;
#310 = ORIENTED_EDGE ( 'NONE', *, *, #349, .T. ) ;
#311 = DIRECTION ( 'NONE',  ( 0.0000000000000000000, 0.0000000000000000000, 1.000000000000000000 ) ) ;
#312 = CC_DESIGN_APPROVAL ( #296, ( #240 ) ) ;
#313 = APPROVAL_DATE_TIME ( #17, #296 ) ;
#314 = EDGE_CURVE ( 'NONE', #209, #302, #335, .T. ) ;
#315 = APPLICATION_PROTOCOL_DEFINITION ( 'international standard', 'config_control_design', 1994, #116 ) ;
#316 = CYLINDRICAL_SURFACE ( 'NONE', #248, 8.000000000000000000 ) ;
#317 = AXIS2_PLACEMENT_3D ( 'NONE', #59, #112, #256 ) ;
#318 = ORIENTED_EDGE ( 'NONE', *, *, #205, .F. ) ;
#319 = APPROVAL_PERSON_ORGANIZATION ( #30, #296, #195 ) ;
#320 = LINE ( 'NONE', #85, #175 ) ;
#321 = ADVANCED_FACE ( 'NONE', ( #41 ), #35, .T. ) ;
#322 = AXIS2_PLACEMENT_3D ( 'NONE', #360, #194, #22 ) ;
#323 = VECTOR ( 'NONE', #172, 1000.000000000000000 ) ;
#324 = VERTEX_POINT ( 'NONE', #288 ) ;
#325 = DESIGN_CONTEXT ( 'detailed design', #116, 'design' ) ;
#326 = CARTESIAN_POINT ( 'NONE',  ( -58.50000000000000000, -3.582091887506007800E-015, 0.0000000000000000000 ) ) ;
#327 = CC_DESIGN_SECURITY_CLASSIFICATION ( #240, ( #136 ) ) ;
#328 = CARTESIAN_POINT ( 'NONE',  ( -58.50000000000000000, 7.999999999999991100, 0.0000000000000000000 ) ) ;
#329 = COORDINATED_UNIVERSAL_TIME_OFFSET ( 9, 0, .AHEAD. ) ;
#330 = ORIENTED_EDGE ( 'NONE', *, *, #332, .T. ) ;
#331 = PLANE ( 'NONE',  #342 ) ;
#332 = EDGE_CURVE ( 'NONE', #168, #109, #118, .T. ) ;
#333 = PERSON_AND_ORGANIZATION_ROLE ( 'classification_officer' ) ;
#334 = DIRECTION ( 'NONE',  ( -1.000000000000000000, -0.0000000000000000000, -0.0000000000000000000 ) ) ;
#335 = CIRCLE ( 'NONE', #210, 8.000000000000000000 ) ;
#336 = ORIENTED_EDGE ( 'NONE', *, *, #259, .T. ) ;
#337 = DATE_AND_TIME ( #46, #121 ) ;
#338 = CARTESIAN_POINT ( 'NONE',  ( 4.898587196589412800E-016, -8.000000000000000000, 9.797174393178825700E-016 ) ) ;
#339 = CLOSED_SHELL ( 'NONE', ( #321, #95, #299, #350, #149, #267 ) ) ;
#340 =( NAMED_UNIT ( * ) PLANE_ANGLE_UNIT ( ) SI_UNIT ( $, .RADIAN. ) );
#341 = APPROVAL_ROLE ( '' ) ;
#342 = AXIS2_PLACEMENT_3D ( 'NONE', #304, #21, #226 ) ;
#343 = CIRCLE ( 'NONE', #143, 1.500000000000000400 ) ;
#344 = EDGE_LOOP ( 'NONE', ( #232, #190 ) ) ;
#345 = PERSON_AND_ORGANIZATION ( #217, #301 ) ;
#346 = CIRCLE ( 'NONE', #292, 7.999999999999994700 ) ;
#347 = PRODUCT_RELATED_PRODUCT_CATEGORY ( 'detail', '', ( #96 ) ) ;
#348 = ORIENTED_EDGE ( 'NONE', *, *, #76, .F. ) ;
#349 = EDGE_CURVE ( 'NONE', #216, #90, #107, .T. ) ;
#350 = ADVANCED_FACE ( 'NONE', ( #178 ), #23, .T. ) ;
#351 = CIRCLE ( 'NONE', #51, 6.500000000000000900 ) ;
#352 = ORIENTED_EDGE ( 'NONE', *, *, #314, .F. ) ;
#353 = DIRECTION ( 'NONE',  ( 1.000000000000000000, 6.123233995736766000E-017, -0.0000000000000000000 ) ) ;
#354 = PERSON_AND_ORGANIZATION ( #217, #301 ) ;
#355 = CARTESIAN_POINT ( 'NONE',  ( -58.99999999999999300, -3.612708057484691600E-015, 0.0000000000000000000 ) ) ;
#356 = ORIENTED_EDGE ( 'NONE', *, *, #314, .T. ) ;
#357 = DIRECTION ( 'NONE',  ( 0.7071067811865440200, -0.7071067811865511300, 8.659560562354978500E-017 ) ) ;
#358 = DIRECTION ( 'NONE',  ( 1.000000000000000000, 6.123233995736766000E-017, -0.0000000000000000000 ) ) ;
#359 = DIRECTION ( 'NONE',  ( 1.000000000000000000, 6.123233995736766000E-017, -0.0000000000000000000 ) ) ;
#360 = CARTESIAN_POINT ( 'NONE',  ( 0.9999999999999995600, 0.0000000000000000000, 0.0000000000000000000 ) ) ;
#361 = APPROVAL_STATUS ( 'not_yet_approved' ) ;
#362 = AXIS2_PLACEMENT_3D ( 'NONE', #133, #334, #163 ) ;
#363 = PERSON_AND_ORGANIZATION_ROLE ( 'creator' ) ;
#364 = CARTESIAN_POINT ( 'NONE',  ( 64.50000000000000000, 0.0000000000000000000, 6.500000000000000900 ) ) ;
#365 = COORDINATED_UNIVERSAL_TIME_OFFSET ( 9, 0, .AHEAD. ) ;
ENDSEC;
END-ISO-10303-21;
