ISO-10303-21;
HEADER;
FILE_DESCRIPTION (( 'STEP AP203' ),
    '1' );
FILE_NAME ('03-3066.STEP',
    '2023-07-03T01:15:21',
    ( 'USER' ),
    ( 'Hewlett-Packard Company' ),
    'SwSTEP 2.0',
    'SolidWorks 2014',
    '' );
FILE_SCHEMA (( 'CONFIG_CONTROL_DESIGN' ));
ENDSEC;

DATA;
#1 = LOCAL_TIME ( 10, 15, 21.00000000000000000, #85 ) ;
#2 = DIRECTION ( 'NONE',  ( 0.0000000000000000000, 0.0000000000000000000, 1.000000000000000000 ) ) ;
#3 = EDGE_LOOP ( 'NONE', ( #11, #102, #66, #246 ) ) ;
#4 = AXIS2_PLACEMENT_3D ( 'NONE', #311, #147, #337 ) ;
#5 = AXIS2_PLACEMENT_3D ( 'NONE', #222, #43, #14 ) ;
#6 = AXIS2_PLACEMENT_3D ( 'NONE', #176, #360, #205 ) ;
#7 = CIRCLE ( 'NONE', #186, 5.499999999999998200 ) ;
#8 = ORIENTED_EDGE ( 'NONE', *, *, #152, .F. ) ;
#9 = AXIS2_PLACEMENT_3D ( 'NONE', #52, #204, #229 ) ;
#10 = CALENDAR_DATE ( 2023, 3, 7 ) ;
#11 = ORIENTED_EDGE ( 'NONE', *, *, #157, .T. ) ;
#12 = CARTESIAN_POINT ( 'NONE',  ( 0.9999999999999988900, 6.000000000000000000, 0.0000000000000000000 ) ) ;
#13 = CARTESIAN_POINT ( 'NONE',  ( -53.49999999999999300, 5.999999999999992900, 0.0000000000000000000 ) ) ;
#14 = DIRECTION ( 'NONE',  ( -6.123233995736768500E-017, 1.000000000000000000, 0.0000000000000000000 ) ) ;
#15 = CC_DESIGN_DATE_AND_TIME_ASSIGNMENT ( #348, #50, ( #345 ) ) ;
#16 = VECTOR ( 'NONE', #60, 1000.000000000000000 ) ;
#17 = ORIENTED_EDGE ( 'NONE', *, *, #155, .T. ) ;
#18 = DIRECTION ( 'NONE',  ( 1.000000000000000000, 0.0000000000000000000, 0.0000000000000000000 ) ) ;
#19 = AXIS2_PLACEMENT_3D ( 'NONE', #231, #53, #259 ) ;
#20 = DIRECTION ( 'NONE',  ( 1.000000000000000000, 0.0000000000000000000, 0.0000000000000000000 ) ) ;
#21 = ADVANCED_FACE ( 'NONE', ( #294 ), #218, .T. ) ;
#22 = SECURITY_CLASSIFICATION_LEVEL ( 'unclassified' ) ;
#23 = DATE_AND_TIME ( #105, #184 ) ;
#24 = ORIENTED_EDGE ( 'NONE', *, *, #157, .F. ) ;
#25 = AXIS2_PLACEMENT_3D ( 'NONE', #209, #27, #235 ) ;
#26 = AXIS2_PLACEMENT_3D ( 'NONE', #77, #111, #303 ) ;
#27 = DIRECTION ( 'NONE',  ( -1.000000000000000000, -0.0000000000000000000, -0.0000000000000000000 ) ) ;
#28 = AXIS2_PLACEMENT_3D ( 'NONE', #335, #175, #357 ) ;
#29 = LINE ( 'NONE', #30, #16 ) ;
#30 = CARTESIAN_POINT ( 'NONE',  ( -3.673940397442060900E-016, 6.000000000000000000, 0.0000000000000000000 ) ) ;
#31 = DIRECTION ( 'NONE',  ( 0.0000000000000000000, 1.000000000000000000, 0.0000000000000000000 ) ) ;
#32 = PERSON_AND_ORGANIZATION ( #291, #190 ) ;
#33 = AXIS2_PLACEMENT_3D ( 'NONE', #266, #181, #234 ) ;
#34 = ORIENTED_EDGE ( 'NONE', *, *, #183, .T. ) ;
#35 = CIRCLE ( 'NONE', #253, 4.500000000000000900 ) ;
#36 = APPROVAL ( #255, 'UNSPECIFIED' ) ;
#37 = AXIS2_PLACEMENT_3D ( 'NONE', #142, #334, #171 ) ;
#38 = ORIENTED_EDGE ( 'NONE', *, *, #131, .F. ) ;
#39 = AXIS2_PLACEMENT_3D ( 'NONE', #312, #149, #340 ) ;
#40 = DIRECTION ( 'NONE',  ( 1.000000000000000000, 6.123233995736767300E-017, -0.0000000000000000000 ) ) ;
#41 = AXIS2_PLACEMENT_3D ( 'NONE', #137, #18, #223 ) ;
#42 = CIRCLE ( 'NONE', #28, 4.500000000000000900 ) ;
#43 = DIRECTION ( 'NONE',  ( 1.000000000000000000, 6.123233995736767300E-017, -0.0000000000000000000 ) ) ;
#44 = VERTEX_POINT ( 'NONE', #292 ) ;
#45 = AXIS2_PLACEMENT_3D ( 'NONE', #123, #98, #268 ) ;
#46 = CARTESIAN_POINT ( 'NONE',  ( -53.49999999999999300, -6.000000000000000000, 7.347880794884115800E-016 ) ) ;
#47 = PERSON_AND_ORGANIZATION_ROLE ( 'design_owner' ) ;
#48 = ADVANCED_FACE ( 'NONE', ( #69 ), #316, .T. ) ;
#49 = ORIENTED_EDGE ( 'NONE', *, *, #100, .F. ) ;
#50 = DATE_TIME_ROLE ( 'classification_date' ) ;
#51 = AXIS2_PLACEMENT_3D ( 'NONE', #84, #282, #118 ) ;
#52 = CARTESIAN_POINT ( 'NONE',  ( -53.49999999999999300, -3.275930187719169900E-015, 0.0000000000000000000 ) ) ;
#53 = DIRECTION ( 'NONE',  ( -0.0000000000000000000, 1.000000000000000000, 1.224646799147353200E-016 ) ) ;
#54 = ADVANCED_BREP_SHAPE_REPRESENTATION ( '03-3066', ( #192, #258, #126 ), #350 ) ;
#55 = LOCAL_TIME ( 10, 15, 21.00000000000000000, #132 ) ;
#56 = CARTESIAN_POINT ( 'NONE',  ( 56.00000000000000000, 0.0000000000000000000, 0.0000000000000000000 ) ) ;
#57 = CIRCLE ( 'NONE', #25, 6.000000000000000000 ) ;
#58 = EDGE_LOOP ( 'NONE', ( #191, #300, #168, #272 ) ) ;
#59 = DIRECTION ( 'NONE',  ( -1.000000000000000000, -0.0000000000000000000, -0.0000000000000000000 ) ) ;
#60 = DIRECTION ( 'NONE',  ( 1.000000000000000000, 6.123233995736767300E-017, -0.0000000000000000000 ) ) ;
#61 = CC_DESIGN_APPROVAL ( #36, ( #345 ) ) ;
#62 = CARTESIAN_POINT ( 'NONE',  ( 56.00000000000000000, 0.0000000000000000000, 0.0000000000000000000 ) ) ;
#63 = AXIS2_PLACEMENT_3D ( 'NONE', #65, #365, #2 ) ;
#64 = FACE_OUTER_BOUND ( 'NONE', #151, .T. ) ;
#65 = CARTESIAN_POINT ( 'NONE',  ( 54.50000000000000000, 0.0000000000000000000, 0.0000000000000000000 ) ) ;
#66 = ORIENTED_EDGE ( 'NONE', *, *, #133, .F. ) ;
#67 = CALENDAR_DATE ( 2023, 3, 7 ) ;
#68 = AXIS2_PLACEMENT_3D ( 'NONE', #264, #90, #286 ) ;
#69 = FACE_OUTER_BOUND ( 'NONE', #225, .T. ) ;
#70 = ORIENTED_EDGE ( 'NONE', *, *, #129, .T. ) ;
#71 = EDGE_CURVE ( 'NONE', #318, #92, #285, .T. ) ;
#72 = PERSON_AND_ORGANIZATION ( #291, #190 ) ;
#73 = CARTESIAN_POINT ( 'NONE',  ( -53.49999999999999300, 5.999999999999992900, 0.0000000000000000000 ) ) ;
#74 = VERTEX_POINT ( 'NONE', #287 ) ;
#75 = CARTESIAN_POINT ( 'NONE',  ( 0.0000000000000000000, 0.0000000000000000000, 0.0000000000000000000 ) ) ;
#76 = CARTESIAN_POINT ( 'NONE',  ( 0.9999999999999997800, -6.000000000000000000, 7.347880794884119700E-016 ) ) ;
#77 = CARTESIAN_POINT ( 'NONE',  ( 0.0000000000000000000, 0.0000000000000000000, 0.0000000000000000000 ) ) ;
#78 = CC_DESIGN_SECURITY_CLASSIFICATION ( #345, ( #262 ) ) ;
#79 = FACE_OUTER_BOUND ( 'NONE', #212, .T. ) ;
#80 = ORIENTED_EDGE ( 'NONE', *, *, #89, .F. ) ;
#81 = APPLICATION_PROTOCOL_DEFINITION ( 'international standard', 'config_control_design', 1994, #252 ) ;
#82 = APPROVAL_ROLE ( '' ) ;
#83 = ADVANCED_FACE ( 'NONE', ( #134 ), #275, .T. ) ;
#84 = CARTESIAN_POINT ( 'NONE',  ( 54.50000000000000000, 0.0000000000000000000, 0.0000000000000000000 ) ) ;
#85 = COORDINATED_UNIVERSAL_TIME_OFFSET ( 9, 0, .AHEAD. ) ;
#86 = ORIENTED_EDGE ( 'NONE', *, *, #104, .T. ) ;
#87 = AXIS2_PLACEMENT_3D ( 'NONE', #261, #59, #178 ) ;
#88 = DIRECTION ( 'NONE',  ( 0.0000000000000000000, 0.0000000000000000000, 1.000000000000000000 ) ) ;
#89 = EDGE_CURVE ( 'NONE', #92, #74, #344, .T. ) ;
#90 = DIRECTION ( 'NONE',  ( 1.000000000000000000, 6.123233995736767300E-017, -0.0000000000000000000 ) ) ;
#91 = CIRCLE ( 'NONE', #146, 6.000000000000000000 ) ;
#92 = VERTEX_POINT ( 'NONE', #95 ) ;
#93 = PRODUCT ( '03-3066', '03-3066', '', ( #226 ) ) ;
#94 = DIRECTION ( 'NONE',  ( -1.000000000000000000, 0.0000000000000000000, -0.0000000000000000000 ) ) ;
#95 = CARTESIAN_POINT ( 'NONE',  ( 1.000000000000000400, 0.0000000000000000000, 6.000000000000000000 ) ) ;
#96 = EDGE_CURVE ( 'NONE', #280, #74, #208, .T. ) ;
#97 = LOCAL_TIME ( 10, 15, 21.00000000000000000, #172 ) ;
#98 = DIRECTION ( 'NONE',  ( -1.000000000000000000, -6.123233995736767300E-017, 0.0000000000000000000 ) ) ;
#99 = ORIENTED_EDGE ( 'NONE', *, *, #96, .F. ) ;
#100 = EDGE_CURVE ( 'NONE', #318, #280, #214, .T. ) ;
#101 = CIRCLE ( 'NONE', #107, 5.499999999999998200 ) ;
#102 = ORIENTED_EDGE ( 'NONE', *, *, #166, .T. ) ;
#103 = PRODUCT_RELATED_PRODUCT_CATEGORY ( 'detail', '', ( #93 ) ) ;
#104 = EDGE_CURVE ( 'NONE', #244, #185, #42, .T. ) ;
#105 = CALENDAR_DATE ( 2023, 3, 7 ) ;
#106 = ORIENTED_EDGE ( 'NONE', *, *, #104, .F. ) ;
#107 = AXIS2_PLACEMENT_3D ( 'NONE', #362, #211, #31 ) ;
#108 = DIRECTION ( 'NONE',  ( 0.0000000000000000000, 0.0000000000000000000, 1.000000000000000000 ) ) ;
#109 = VECTOR ( 'NONE', #144, 1000.000000000000000 ) ;
#110 = EDGE_CURVE ( 'NONE', #185, #280, #351, .T. ) ;
#111 = DIRECTION ( 'NONE',  ( 1.000000000000000000, 6.123233995736767300E-017, -0.0000000000000000000 ) ) ;
#112 =( NAMED_UNIT ( * ) PLANE_ANGLE_UNIT ( ) SI_UNIT ( $, .RADIAN. ) );
#113 = APPROVAL_ROLE ( '' ) ;
#114 = PERSON_AND_ORGANIZATION ( #291, #190 ) ;
#115 = ADVANCED_FACE ( 'NONE', ( #338 ), #263, .T. ) ;
#116 = ORIENTED_EDGE ( 'NONE', *, *, #133, .T. ) ;
#117 = EDGE_CURVE ( 'NONE', #244, #318, #326, .T. ) ;
#118 = DIRECTION ( 'NONE',  ( 0.0000000000000000000, 0.0000000000000000000, 1.000000000000000000 ) ) ;
#119 = EDGE_CURVE ( 'NONE', #185, #244, #35, .T. ) ;
#120 = CIRCLE ( 'NONE', #4, 6.000000000000000000 ) ;
#121 = DIRECTION ( 'NONE',  ( 0.7071067811865536800, -0.7071067811865414700, 8.659560562354857700E-017 ) ) ;
#122 = EDGE_CURVE ( 'NONE', #280, #318, #120, .T. ) ;
#123 = CARTESIAN_POINT ( 'NONE',  ( -53.99999999999999300, -3.306546357697853300E-015, 0.0000000000000000000 ) ) ;
#124 = ORIENTED_EDGE ( 'NONE', *, *, #155, .F. ) ;
#125 = UNCERTAINTY_MEASURE_WITH_UNIT (LENGTH_MEASURE( 1.000000000000000100E-005 ), #251, 'distance_accuracy_value', 'NONE');
#126 = AXIS2_PLACEMENT_3D ( 'NONE', #329, #199, #20 ) ;
#127 = VECTOR ( 'NONE', #203, 1000.000000000000000 ) ;
#128 = ORIENTED_EDGE ( 'NONE', *, *, #119, .F. ) ;
#129 = EDGE_CURVE ( 'NONE', #74, #92, #57, .T. ) ;
#130 = EDGE_LOOP ( 'NONE', ( #99, #180, #139, #271 ) ) ;
#131 = EDGE_CURVE ( 'NONE', #323, #237, #195, .T. ) ;
#132 = COORDINATED_UNIVERSAL_TIME_OFFSET ( 9, 0, .AHEAD. ) ;
#133 = EDGE_CURVE ( 'NONE', #250, #323, #270, .T. ) ;
#134 = FACE_OUTER_BOUND ( 'NONE', #159, .T. ) ;
#135 = DIRECTION ( 'NONE',  ( 1.000000000000000000, 6.123233995736767300E-017, -0.0000000000000000000 ) ) ;
#136 = CARTESIAN_POINT ( 'NONE',  ( 0.9999999999999993300, 6.000000000000000000, 0.0000000000000000000 ) ) ;
#137 = CARTESIAN_POINT ( 'NONE',  ( 1.000000000000000700, 7.228014483236702000E-017, 0.0000000000000000000 ) ) ;
#138 = CYLINDRICAL_SURFACE ( 'NONE', #5, 6.000000000000000000 ) ;
#139 = ORIENTED_EDGE ( 'NONE', *, *, #71, .T. ) ;
#140 = DATE_TIME_ROLE ( 'creation_date' ) ;
#141 = ADVANCED_FACE ( 'NONE', ( #188 ), #320, .T. ) ;
#142 = CARTESIAN_POINT ( 'NONE',  ( 1.000000000000000400, 0.0000000000000000000, 0.0000000000000000000 ) ) ;
#143 = LOCAL_TIME ( 10, 15, 21.00000000000000000, #217 ) ;
#144 = DIRECTION ( 'NONE',  ( 1.000000000000000000, 6.123233995736767300E-017, -0.0000000000000000000 ) ) ;
#145 = VECTOR ( 'NONE', #341, 1000.000000000000000 ) ;
#146 = AXIS2_PLACEMENT_3D ( 'NONE', #324, #161, #349 ) ;
#147 = DIRECTION ( 'NONE',  ( -1.000000000000000000, -0.0000000000000000000, -0.0000000000000000000 ) ) ;
#148 = CC_DESIGN_PERSON_AND_ORGANIZATION_ASSIGNMENT ( #114, #47, ( #93 ) ) ;
#149 = DIRECTION ( 'NONE',  ( 1.000000000000000000, 6.123233995736767300E-017, -0.0000000000000000000 ) ) ;
#150 = CYLINDRICAL_SURFACE ( 'NONE', #283, 6.000000000000000000 ) ;
#151 = EDGE_LOOP ( 'NONE', ( #295, #70 ) ) ;
#152 = EDGE_CURVE ( 'NONE', #201, #237, #249, .T. ) ;
#153 = APPROVAL_DATE_TIME ( #230, #277 ) ;
#154 = ORIENTED_EDGE ( 'NONE', *, *, #173, .T. ) ;
#155 = EDGE_CURVE ( 'NONE', #250, #201, #29, .T. ) ;
#156 = EDGE_LOOP ( 'NONE', ( #106, #128 ) ) ;
#157 = EDGE_CURVE ( 'NONE', #354, #44, #101, .T. ) ;
#158 = APPROVAL_PERSON_ORGANIZATION ( #240, #277, #170 ) ;
#159 = EDGE_LOOP ( 'NONE', ( #359, #257, #80, #267 ) ) ;
#160 = PRODUCT_DEFINITION_SHAPE ( 'NONE', 'NONE',  #164 ) ;
#161 = DIRECTION ( 'NONE',  ( 1.000000000000000000, 6.123233995736767300E-017, -0.0000000000000000000 ) ) ;
#162 = AXIS2_PLACEMENT_3D ( 'NONE', #62, #94, #288 ) ;
#163 = DIRECTION ( 'NONE',  ( -1.000000000000000000, -0.0000000000000000000, -0.0000000000000000000 ) ) ;
#164 = PRODUCT_DEFINITION ( 'UNKNOWN', '', #262, #319 ) ;
#165 = DIRECTION ( 'NONE',  ( -6.123233995736767300E-017, 1.000000000000000000, 0.0000000000000000000 ) ) ;
#166 = EDGE_CURVE ( 'NONE', #44, #323, #179, .T. ) ;
#167 = VECTOR ( 'NONE', #121, 1000.000000000000000 ) ;
#168 = ORIENTED_EDGE ( 'NONE', *, *, #117, .T. ) ;
#169 = ADVANCED_FACE ( 'NONE', ( #314 ), #238, .F. ) ;
#170 = APPROVAL_ROLE ( '' ) ;
#171 = DIRECTION ( 'NONE',  ( 0.0000000000000000000, 0.0000000000000000000, 1.000000000000000000 ) ) ;
#172 = COORDINATED_UNIVERSAL_TIME_OFFSET ( 9, 0, .AHEAD. ) ;
#173 = EDGE_CURVE ( 'NONE', #354, #250, #304, .T. ) ;
#174 = CLOSED_SHELL ( 'NONE', ( #333, #228, #254, #48, #115, #281 ) ) ;
#175 = DIRECTION ( 'NONE',  ( -1.000000000000000000, -0.0000000000000000000, -0.0000000000000000000 ) ) ;
#176 = CARTESIAN_POINT ( 'NONE',  ( 54.50000000000000000, 0.0000000000000000000, 4.500000000000000900 ) ) ;
#177 = EDGE_CURVE ( 'NONE', #237, #201, #91, .T. ) ;
#178 = DIRECTION ( 'NONE',  ( 0.0000000000000000000, 0.0000000000000000000, 1.000000000000000000 ) ) ;
#179 = LINE ( 'NONE', #182, #167 ) ;
#180 = ORIENTED_EDGE ( 'NONE', *, *, #122, .T. ) ;
#181 = DIRECTION ( 'NONE',  ( -1.000000000000000000, -0.0000000000000000000, -0.0000000000000000000 ) ) ;
#182 = CARTESIAN_POINT ( 'NONE',  ( -53.49999999999999300, -6.000000000000000000, 7.347880794884115800E-016 ) ) ;
#183 = EDGE_CURVE ( 'NONE', #44, #354, #7, .T. ) ;
#184 = LOCAL_TIME ( 10, 15, 21.00000000000000000, #256 ) ;
#185 = VERTEX_POINT ( 'NONE', #247 ) ;
#186 = AXIS2_PLACEMENT_3D ( 'NONE', #219, #40, #248 ) ;
#187 = APPROVAL ( #279, 'UNSPECIFIED' ) ;
#188 = FACE_OUTER_BOUND ( 'NONE', #58, .T. ) ;
#189 = EDGE_CURVE ( 'NONE', #323, #250, #236, .T. ) ;
#190 = ORGANIZATION ( 'UNSPECIFIED', 'UNSPECIFIED', '' ) ;
#191 = ORIENTED_EDGE ( 'NONE', *, *, #110, .F. ) ;
#192 = MANIFOLD_SOLID_BREP ( 'È¸Àü3', #196 ) ;
#193 = DIRECTION ( 'NONE',  ( 0.0000000000000000000, 1.000000000000000000, 0.0000000000000000000 ) ) ;
#194 = DIRECTION ( 'NONE',  ( 1.000000000000000000, 6.123233995736767300E-017, -0.0000000000000000000 ) ) ;
#195 = LINE ( 'NONE', #233, #109 ) ;
#196 = CLOSED_SHELL ( 'NONE', ( #83, #21, #141, #202, #356, #169 ) ) ;
#197 = CARTESIAN_POINT ( 'NONE',  ( 54.50000000000000000, 7.347880794884120700E-016, -6.000000000000000000 ) ) ;
#198 = PLANE ( 'NONE',  #41 ) ;
#199 = DIRECTION ( 'NONE',  ( 0.0000000000000000000, 0.0000000000000000000, 1.000000000000000000 ) ) ;
#200 = PERSON_AND_ORGANIZATION_ROLE ( 'design_supplier' ) ;
#201 = VERTEX_POINT ( 'NONE', #12 ) ;
#202 = ADVANCED_FACE ( 'NONE', ( #363 ), #150, .T. ) ;
#203 = DIRECTION ( 'NONE',  ( -1.000000000000000000, -0.0000000000000000000, -0.0000000000000000000 ) ) ;
#204 = DIRECTION ( 'NONE',  ( 1.000000000000000000, 6.123233995736767300E-017, -0.0000000000000000000 ) ) ;
#205 = DIRECTION ( 'NONE',  ( 0.0000000000000000000, 0.0000000000000000000, -1.000000000000000000 ) ) ;
#206 = APPROVAL_DATE_TIME ( #274, #36 ) ;
#207 = AXIS2_PLACEMENT_3D ( 'NONE', #301, #135, #325 ) ;
#208 = LINE ( 'NONE', #308, #127 ) ;
#209 = CARTESIAN_POINT ( 'NONE',  ( 1.000000000000000400, 0.0000000000000000000, 0.0000000000000000000 ) ) ;
#210 = CC_DESIGN_APPROVAL ( #187, ( #164 ) ) ;
#211 = DIRECTION ( 'NONE',  ( 1.000000000000000000, 6.123233995736767300E-017, -0.0000000000000000000 ) ) ;
#212 = EDGE_LOOP ( 'NONE', ( #38, #310, #17, #347 ) ) ;
#213 = APPROVAL_PERSON_ORGANIZATION ( #284, #36, #82 ) ;
#214 = CIRCLE ( 'NONE', #51, 6.000000000000000000 ) ;
#215 = CONICAL_SURFACE ( 'NONE', #269, 5.999999999999996400, 0.7853981633974396200 ) ;
#216 = EDGE_LOOP ( 'NONE', ( #321, #290 ) ) ;
#217 = COORDINATED_UNIVERSAL_TIME_OFFSET ( 9, 0, .AHEAD. ) ;
#218 = TOROIDAL_SURFACE ( 'NONE', #63, 4.500000000000000900, 1.500000000000000400 ) ;
#219 = CARTESIAN_POINT ( 'NONE',  ( -54.00000000000000000, -3.306546357697854500E-015, 0.0000000000000000000 ) ) ;
#220 = CARTESIAN_POINT ( 'NONE',  ( -53.49999999999999300, -3.275930187719169900E-015, 0.0000000000000000000 ) ) ;
#221 = CC_DESIGN_PERSON_AND_ORGANIZATION_ASSIGNMENT ( #245, #307, ( #164 ) ) ;
#222 = CARTESIAN_POINT ( 'NONE',  ( 0.0000000000000000000, 0.0000000000000000000, 0.0000000000000000000 ) ) ;
#223 = DIRECTION ( 'NONE',  ( 0.0000000000000000000, 0.0000000000000000000, -1.000000000000000000 ) ) ;
#224 = FACE_OUTER_BOUND ( 'NONE', #241, .T. ) ;
#225 = EDGE_LOOP ( 'NONE', ( #24, #339 ) ) ;
#226 = MECHANICAL_CONTEXT ( 'NONE', #353, 'mechanical' ) ;
#227 = PERSON_AND_ORGANIZATION_ROLE ( 'classification_officer' ) ;
#228 = ADVANCED_FACE ( 'NONE', ( #297 ), #215, .T. ) ;
#229 = DIRECTION ( 'NONE',  ( 0.0000000000000000000, 1.000000000000000000, 0.0000000000000000000 ) ) ;
#230 = DATE_AND_TIME ( #299, #1 ) ;
#231 = CARTESIAN_POINT ( 'NONE',  ( 54.50000000000000000, 5.510910596163089600E-016, -4.500000000000000900 ) ) ;
#232 = ORIENTED_EDGE ( 'NONE', *, *, #131, .T. ) ;
#233 = CARTESIAN_POINT ( 'NONE',  ( 3.673940397442060900E-016, -6.000000000000000000, 7.347880794884119700E-016 ) ) ;
#234 = DIRECTION ( 'NONE',  ( 0.0000000000000000000, 0.0000000000000000000, 1.000000000000000000 ) ) ;
#235 = DIRECTION ( 'NONE',  ( 0.0000000000000000000, 0.0000000000000000000, 1.000000000000000000 ) ) ;
#236 = CIRCLE ( 'NONE', #207, 5.999999999999996400 ) ;
#237 = VERTEX_POINT ( 'NONE', #76 ) ;
#238 = PLANE ( 'NONE',  #162 ) ;
#239 = CARTESIAN_POINT ( 'NONE',  ( 0.0000000000000000000, 0.0000000000000000000, 6.000000000000000000 ) ) ;
#240 = PERSON_AND_ORGANIZATION ( #291, #190 ) ;
#241 = EDGE_LOOP ( 'NONE', ( #116, #232, #8, #124 ) ) ;
#242 = CC_DESIGN_DATE_AND_TIME_ASSIGNMENT ( #309, #140, ( #164 ) ) ;
#243 = VECTOR ( 'NONE', #273, 1000.000000000000000 ) ;
#244 = VERTEX_POINT ( 'NONE', #276 ) ;
#245 = PERSON_AND_ORGANIZATION ( #291, #190 ) ;
#246 = ORIENTED_EDGE ( 'NONE', *, *, #173, .F. ) ;
#247 = CARTESIAN_POINT ( 'NONE',  ( 56.00000000000000000, 6.429395695523605100E-016, -4.500000000000000900 ) ) ;
#248 = DIRECTION ( 'NONE',  ( 0.0000000000000000000, 1.000000000000000000, 0.0000000000000000000 ) ) ;
#249 = CIRCLE ( 'NONE', #68, 6.000000000000000000 ) ;
#250 = VERTEX_POINT ( 'NONE', #13 ) ;
#251 =( LENGTH_UNIT ( ) NAMED_UNIT ( * ) SI_UNIT ( .MILLI., .METRE. ) );
#252 = APPLICATION_CONTEXT ( 'configuration controlled 3d designs of mechanical parts and assemblies' ) ;
#253 = AXIS2_PLACEMENT_3D ( 'NONE', #56, #260, #88 ) ;
#254 = ADVANCED_FACE ( 'NONE', ( #289 ), #302, .T. ) ;
#255 = APPROVAL_STATUS ( 'not_yet_approved' ) ;
#256 = COORDINATED_UNIVERSAL_TIME_OFFSET ( 9, 0, .AHEAD. ) ;
#257 = ORIENTED_EDGE ( 'NONE', *, *, #96, .T. ) ;
#258 = MANIFOLD_SOLID_BREP ( 'È¸Àü4', #174 ) ;
#259 = DIRECTION ( 'NONE',  ( 0.0000000000000000000, -1.224646799147353500E-016, 1.000000000000000000 ) ) ;
#260 = DIRECTION ( 'NONE',  ( -1.000000000000000000, -0.0000000000000000000, -0.0000000000000000000 ) ) ;
#261 = CARTESIAN_POINT ( 'NONE',  ( 54.50000000000000000, 0.0000000000000000000, 0.0000000000000000000 ) ) ;
#262 = PRODUCT_DEFINITION_FORMATION_WITH_SPECIFIED_SOURCE ( 'ANY', '', #93, .NOT_KNOWN. ) ;
#263 = CONICAL_SURFACE ( 'NONE', #9, 5.999999999999996400, 0.7853981633974396200 ) ;
#264 = CARTESIAN_POINT ( 'NONE',  ( 0.9999999999999993300, 6.123233995736763600E-017, 0.0000000000000000000 ) ) ;
#265 = SHAPE_DEFINITION_REPRESENTATION ( #160, #54 ) ;
#266 = CARTESIAN_POINT ( 'NONE',  ( 0.0000000000000000000, 0.0000000000000000000, 0.0000000000000000000 ) ) ;
#267 = ORIENTED_EDGE ( 'NONE', *, *, #71, .F. ) ;
#268 = DIRECTION ( 'NONE',  ( 6.123233995736767300E-017, -1.000000000000000000, 0.0000000000000000000 ) ) ;
#269 = AXIS2_PLACEMENT_3D ( 'NONE', #220, #194, #193 ) ;
#270 = CIRCLE ( 'NONE', #39, 5.999999999999996400 ) ;
#271 = ORIENTED_EDGE ( 'NONE', *, *, #129, .F. ) ;
#272 = ORIENTED_EDGE ( 'NONE', *, *, #122, .F. ) ;
#273 = DIRECTION ( 'NONE',  ( 0.7071067811865536800, 0.7071067811865414700, 0.0000000000000000000 ) ) ;
#274 = DATE_AND_TIME ( #343, #55 ) ;
#275 = CYLINDRICAL_SURFACE ( 'NONE', #33, 6.000000000000000000 ) ;
#276 = CARTESIAN_POINT ( 'NONE',  ( 56.00000000000000000, 0.0000000000000000000, 4.500000000000000900 ) ) ;
#277 = APPROVAL ( #331, 'UNSPECIFIED' ) ;
#278 = CARTESIAN_POINT ( 'NONE',  ( 54.50000000000000000, 0.0000000000000000000, 6.000000000000000000 ) ) ;
#279 = APPROVAL_STATUS ( 'not_yet_approved' ) ;
#280 = VERTEX_POINT ( 'NONE', #197 ) ;
#281 = ADVANCED_FACE ( 'NONE', ( #79 ), #138, .T. ) ;
#282 = DIRECTION ( 'NONE',  ( -1.000000000000000000, -0.0000000000000000000, -0.0000000000000000000 ) ) ;
#283 = AXIS2_PLACEMENT_3D ( 'NONE', #75, #163, #108 ) ;
#284 = PERSON_AND_ORGANIZATION ( #291, #190 ) ;
#285 = LINE ( 'NONE', #239, #145 ) ;
#286 = DIRECTION ( 'NONE',  ( -7.228014483236695800E-017, 1.000000000000000000, 0.0000000000000000000 ) ) ;
#287 = CARTESIAN_POINT ( 'NONE',  ( 1.000000000000000400, 7.347880794884119700E-016, -6.000000000000000000 ) ) ;
#288 = DIRECTION ( 'NONE',  ( -0.0000000000000000000, 0.0000000000000000000, 1.000000000000000000 ) ) ;
#289 = FACE_OUTER_BOUND ( 'NONE', #216, .T. ) ;
#290 = ORIENTED_EDGE ( 'NONE', *, *, #177, .T. ) ;
#291 = PERSON ( 'UNSPECIFIED', 'UNSPECIFIED', 'UNSPECIFIED', ('UNSPECIFIED'), ('UNSPECIFIED'), ('UNSPECIFIED') ) ;
#292 = CARTESIAN_POINT ( 'NONE',  ( -54.00000000000000000, -5.500000000000001800, 7.041719095097277900E-016 ) ) ;
#293 = PERSON_AND_ORGANIZATION ( #291, #190 ) ;
#294 = FACE_OUTER_BOUND ( 'NONE', #332, .T. ) ;
#295 = ORIENTED_EDGE ( 'NONE', *, *, #89, .T. ) ;
#296 = CC_DESIGN_APPROVAL ( #277, ( #262 ) ) ;
#297 = FACE_OUTER_BOUND ( 'NONE', #3, .T. ) ;
#298 = ORIENTED_EDGE ( 'NONE', *, *, #166, .F. ) ;
#299 = CALENDAR_DATE ( 2023, 3, 7 ) ;
#300 = ORIENTED_EDGE ( 'NONE', *, *, #119, .T. ) ;
#301 = CARTESIAN_POINT ( 'NONE',  ( -53.49999999999999300, -3.275930187719169900E-015, 0.0000000000000000000 ) ) ;
#302 = PLANE ( 'NONE',  #336 ) ;
#303 = DIRECTION ( 'NONE',  ( -6.123233995736768500E-017, 1.000000000000000000, 0.0000000000000000000 ) ) ;
#304 = LINE ( 'NONE', #73, #243 ) ;
#305 = ORIENTED_EDGE ( 'NONE', *, *, #189, .F. ) ;
#306 =( NAMED_UNIT ( * ) SI_UNIT ( $, .STERADIAN. ) SOLID_ANGLE_UNIT ( ) );
#307 = PERSON_AND_ORGANIZATION_ROLE ( 'creator' ) ;
#308 = CARTESIAN_POINT ( 'NONE',  ( 0.0000000000000000000, 7.347880794884119700E-016, -6.000000000000000000 ) ) ;
#309 = DATE_AND_TIME ( #10, #97 ) ;
#310 = ORIENTED_EDGE ( 'NONE', *, *, #189, .T. ) ;
#311 = CARTESIAN_POINT ( 'NONE',  ( 54.50000000000000000, 0.0000000000000000000, 0.0000000000000000000 ) ) ;
#312 = CARTESIAN_POINT ( 'NONE',  ( -53.49999999999999300, -3.275930187719169900E-015, 0.0000000000000000000 ) ) ;
#313 = CC_DESIGN_PERSON_AND_ORGANIZATION_ASSIGNMENT ( #72, #355, ( #262 ) ) ;
#314 = FACE_OUTER_BOUND ( 'NONE', #156, .T. ) ;
#315 = ORIENTED_EDGE ( 'NONE', *, *, #110, .T. ) ;
#316 = PLANE ( 'NONE',  #45 ) ;
#317 = APPROVAL_DATE_TIME ( #23, #187 ) ;
#318 = VERTEX_POINT ( 'NONE', #278 ) ;
#319 = DESIGN_CONTEXT ( 'detailed design', #252, 'design' ) ;
#320 = TOROIDAL_SURFACE ( 'NONE', #87, 4.500000000000000900, 1.500000000000000400 ) ;
#321 = ORIENTED_EDGE ( 'NONE', *, *, #152, .T. ) ;
#322 = APPROVAL_PERSON_ORGANIZATION ( #32, #187, #113 ) ;
#323 = VERTEX_POINT ( 'NONE', #46 ) ;
#324 = CARTESIAN_POINT ( 'NONE',  ( 0.9999999999999993300, 6.123233995736763600E-017, 0.0000000000000000000 ) ) ;
#325 = DIRECTION ( 'NONE',  ( 0.0000000000000000000, 1.000000000000000000, 0.0000000000000000000 ) ) ;
#326 = CIRCLE ( 'NONE', #6, 1.500000000000000400 ) ;
#327 = DIRECTION ( 'NONE',  ( 1.000000000000000000, 6.123233995736767300E-017, -0.0000000000000000000 ) ) ;
#328 = CC_DESIGN_PERSON_AND_ORGANIZATION_ASSIGNMENT ( #358, #200, ( #262 ) ) ;
#329 = CARTESIAN_POINT ( 'NONE',  ( 0.0000000000000000000, 0.0000000000000000000, 0.0000000000000000000 ) ) ;
#330 = APPLICATION_PROTOCOL_DEFINITION ( 'international standard', 'config_control_design', 1994, #353 ) ;
#331 = APPROVAL_STATUS ( 'not_yet_approved' ) ;
#332 = EDGE_LOOP ( 'NONE', ( #86, #315, #49, #364 ) ) ;
#333 = ADVANCED_FACE ( 'NONE', ( #224 ), #346, .T. ) ;
#334 = DIRECTION ( 'NONE',  ( -1.000000000000000000, -0.0000000000000000000, -0.0000000000000000000 ) ) ;
#335 = CARTESIAN_POINT ( 'NONE',  ( 56.00000000000000000, 0.0000000000000000000, 0.0000000000000000000 ) ) ;
#336 = AXIS2_PLACEMENT_3D ( 'NONE', #136, #327, #165 ) ;
#337 = DIRECTION ( 'NONE',  ( 0.0000000000000000000, 0.0000000000000000000, 1.000000000000000000 ) ) ;
#338 = FACE_OUTER_BOUND ( 'NONE', #342, .T. ) ;
#339 = ORIENTED_EDGE ( 'NONE', *, *, #183, .F. ) ;
#340 = DIRECTION ( 'NONE',  ( 0.0000000000000000000, 1.000000000000000000, 0.0000000000000000000 ) ) ;
#341 = DIRECTION ( 'NONE',  ( -1.000000000000000000, -0.0000000000000000000, -0.0000000000000000000 ) ) ;
#342 = EDGE_LOOP ( 'NONE', ( #298, #34, #154, #305 ) ) ;
#343 = CALENDAR_DATE ( 2023, 3, 7 ) ;
#344 = CIRCLE ( 'NONE', #37, 6.000000000000000000 ) ;
#345 = SECURITY_CLASSIFICATION ( '', '', #22 ) ;
#346 = CYLINDRICAL_SURFACE ( 'NONE', #26, 6.000000000000000000 ) ;
#347 = ORIENTED_EDGE ( 'NONE', *, *, #177, .F. ) ;
#348 = DATE_AND_TIME ( #67, #143 ) ;
#349 = DIRECTION ( 'NONE',  ( -7.228014483236695800E-017, 1.000000000000000000, 0.0000000000000000000 ) ) ;
#350 =( GEOMETRIC_REPRESENTATION_CONTEXT ( 3 ) GLOBAL_UNCERTAINTY_ASSIGNED_CONTEXT ( ( #125 ) ) GLOBAL_UNIT_ASSIGNED_CONTEXT ( ( #251, #112, #306 ) ) REPRESENTATION_CONTEXT ( 'NONE', 'WORKASPACE' ) );
#351 = CIRCLE ( 'NONE', #19, 1.500000000000000400 ) ;
#352 = CARTESIAN_POINT ( 'NONE',  ( -54.00000000000000000, 5.499999999999994700, 0.0000000000000000000 ) ) ;
#353 = APPLICATION_CONTEXT ( 'configuration controlled 3d designs of mechanical parts and assemblies' ) ;
#354 = VERTEX_POINT ( 'NONE', #352 ) ;
#355 = PERSON_AND_ORGANIZATION_ROLE ( 'creator' ) ;
#356 = ADVANCED_FACE ( 'NONE', ( #64 ), #198, .F. ) ;
#357 = DIRECTION ( 'NONE',  ( 0.0000000000000000000, 0.0000000000000000000, 1.000000000000000000 ) ) ;
#358 = PERSON_AND_ORGANIZATION ( #291, #190 ) ;
#359 = ORIENTED_EDGE ( 'NONE', *, *, #100, .T. ) ;
#360 = DIRECTION ( 'NONE',  ( 0.0000000000000000000, -1.000000000000000000, 0.0000000000000000000 ) ) ;
#361 = CC_DESIGN_PERSON_AND_ORGANIZATION_ASSIGNMENT ( #293, #227, ( #345 ) ) ;
#362 = CARTESIAN_POINT ( 'NONE',  ( -54.00000000000000000, -3.306546357697854500E-015, 0.0000000000000000000 ) ) ;
#363 = FACE_OUTER_BOUND ( 'NONE', #130, .T. ) ;
#364 = ORIENTED_EDGE ( 'NONE', *, *, #117, .F. ) ;
#365 = DIRECTION ( 'NONE',  ( -1.000000000000000000, -0.0000000000000000000, -0.0000000000000000000 ) ) ;
ENDSEC;
END-ISO-10303-21;
