ISO-10303-21;
HEADER;
FILE_DESCRIPTION (( 'STEP AP203' ),
    '1' );
FILE_NAME ('03-3067.STEP',
    '2023-07-03T01:15:36',
    ( 'USER' ),
    ( 'Hewlett-Packard Company' ),
    'SwSTEP 2.0',
    'SolidWorks 2014',
    '' );
FILE_SCHEMA (( 'CONFIG_CONTROL_DESIGN' ));
ENDSEC;

DATA;
#1 = FACE_OUTER_BOUND ( 'NONE', #10, .T. ) ;
#2 = VERTEX_POINT ( 'NONE', #123 ) ;
#3 = ORIENTED_EDGE ( 'NONE', *, *, #38, .T. ) ;
#4 = DIRECTION ( 'NONE',  ( -7.228014483236695800E-017, 1.000000000000000000, 0.0000000000000000000 ) ) ;
#5 = EDGE_CURVE ( 'NONE', #312, #17, #347, .T. ) ;
#6 = AXIS2_PLACEMENT_3D ( 'NONE', #101, #360, #253 ) ;
#7 = DIRECTION ( 'NONE',  ( 1.000000000000000000, 6.123233995736767300E-017, -0.0000000000000000000 ) ) ;
#8 = DIRECTION ( 'NONE',  ( -1.000000000000000000, -0.0000000000000000000, -0.0000000000000000000 ) ) ;
#9 = ORIENTED_EDGE ( 'NONE', *, *, #216, .F. ) ;
#10 = EDGE_LOOP ( 'NONE', ( #118, #148, #53, #193 ) ) ;
#11 = EDGE_LOOP ( 'NONE', ( #218, #58, #261, #160 ) ) ;
#12 =( NAMED_UNIT ( * ) SI_UNIT ( $, .STERADIAN. ) SOLID_ANGLE_UNIT ( ) );
#13 = PRODUCT_RELATED_PRODUCT_CATEGORY ( 'detail', '', ( #96 ) ) ;
#14 = PERSON_AND_ORGANIZATION_ROLE ( 'creator' ) ;
#15 = EDGE_CURVE ( 'NONE', #2, #25, #78, .T. ) ;
#16 = CIRCLE ( 'NONE', #116, 6.000000000000000000 ) ;
#17 = VERTEX_POINT ( 'NONE', #198 ) ;
#18 = ORIENTED_EDGE ( 'NONE', *, *, #216, .T. ) ;
#19 = ORIENTED_EDGE ( 'NONE', *, *, #179, .T. ) ;
#20 = ORIENTED_EDGE ( 'NONE', *, *, #268, .T. ) ;
#21 = ORIENTED_EDGE ( 'NONE', *, *, #353, .F. ) ;
#22 = ADVANCED_FACE ( 'NONE', ( #211 ), #274, .F. ) ;
#23 = CIRCLE ( 'NONE', #75, 5.499999999999998200 ) ;
#24 = EDGE_LOOP ( 'NONE', ( #30, #29, #138, #52 ) ) ;
#25 = VERTEX_POINT ( 'NONE', #325 ) ;
#26 = AXIS2_PLACEMENT_3D ( 'NONE', #254, #154, #72 ) ;
#27 = DESIGN_CONTEXT ( 'detailed design', #315, 'design' ) ;
#28 = LOCAL_TIME ( 10, 15, 36.00000000000000000, #117 ) ;
#29 = ORIENTED_EDGE ( 'NONE', *, *, #5, .T. ) ;
#30 = ORIENTED_EDGE ( 'NONE', *, *, #282, .F. ) ;
#31 = CARTESIAN_POINT ( 'NONE',  ( 1.000000000000000400, 0.0000000000000000000, 6.000000000000000000 ) ) ;
#32 = CARTESIAN_POINT ( 'NONE',  ( 0.9999999999999988900, 6.000000000000000000, 0.0000000000000000000 ) ) ;
#33 = DIRECTION ( 'NONE',  ( -7.228014483236695800E-017, 1.000000000000000000, 0.0000000000000000000 ) ) ;
#34 = VECTOR ( 'NONE', #102, 1000.000000000000000 ) ;
#35 = CARTESIAN_POINT ( 'NONE',  ( -53.49999999999999300, -6.000000000000000000, 7.347880794884115800E-016 ) ) ;
#36 = ORIENTED_EDGE ( 'NONE', *, *, #228, .F. ) ;
#37 = VERTEX_POINT ( 'NONE', #326 ) ;
#38 = EDGE_CURVE ( 'NONE', #106, #2, #69, .T. ) ;
#39 = CARTESIAN_POINT ( 'NONE',  ( -3.673940397442060900E-016, 6.000000000000000000, 0.0000000000000000000 ) ) ;
#40 = ORGANIZATION ( 'UNSPECIFIED', 'UNSPECIFIED', '' ) ;
#41 = EDGE_LOOP ( 'NONE', ( #328, #61, #224, #64 ) ) ;
#42 = ORIENTED_EDGE ( 'NONE', *, *, #353, .T. ) ;
#43 = CARTESIAN_POINT ( 'NONE',  ( 55.19999999999999600, 0.0000000000000000000, 0.0000000000000000000 ) ) ;
#44 = AXIS2_PLACEMENT_3D ( 'NONE', #263, #265, #113 ) ;
#45 = DIRECTION ( 'NONE',  ( 0.0000000000000000000, 0.0000000000000000000, 1.000000000000000000 ) ) ;
#46 = APPLICATION_PROTOCOL_DEFINITION ( 'international standard', 'config_control_design', 1994, #80 ) ;
#47 = APPROVAL_STATUS ( 'not_yet_approved' ) ;
#48 = LINE ( 'NONE', #226, #343 ) ;
#49 = EDGE_LOOP ( 'NONE', ( #20, #111, #100, #36 ) ) ;
#50 = AXIS2_PLACEMENT_3D ( 'NONE', #334, #131, #178 ) ;
#51 = EDGE_LOOP ( 'NONE', ( #3, #168, #92, #21 ) ) ;
#52 = ORIENTED_EDGE ( 'NONE', *, *, #163, .F. ) ;
#53 = ORIENTED_EDGE ( 'NONE', *, *, #268, .F. ) ;
#54 = DIRECTION ( 'NONE',  ( -6.123233995736768500E-017, 1.000000000000000000, 0.0000000000000000000 ) ) ;
#55 = VECTOR ( 'NONE', #152, 1000.000000000000000 ) ;
#56 = ORIENTED_EDGE ( 'NONE', *, *, #336, .F. ) ;
#57 = ADVANCED_FACE ( 'NONE', ( #153 ), #203, .T. ) ;
#58 = ORIENTED_EDGE ( 'NONE', *, *, #318, .T. ) ;
#59 = EDGE_CURVE ( 'NONE', #37, #25, #271, .T. ) ;
#60 = DIRECTION ( 'NONE',  ( 1.000000000000000000, 6.123233995736767300E-017, -0.0000000000000000000 ) ) ;
#61 = ORIENTED_EDGE ( 'NONE', *, *, #83, .T. ) ;
#62 = DATE_AND_TIME ( #250, #269 ) ;
#63 = ORIENTED_EDGE ( 'NONE', *, *, #163, .T. ) ;
#64 = ORIENTED_EDGE ( 'NONE', *, *, #124, .F. ) ;
#65 = CARTESIAN_POINT ( 'NONE',  ( -54.00000000000000000, -5.500000000000001800, 7.041719095097277900E-016 ) ) ;
#66 = CC_DESIGN_PERSON_AND_ORGANIZATION_ASSIGNMENT ( #319, #140, ( #96 ) ) ;
#67 = CARTESIAN_POINT ( 'NONE',  ( 55.99999999999999300, 0.0000000000000000000, 5.200000000000000200 ) ) ;
#68 = DIRECTION ( 'NONE',  ( -1.000000000000000000, -0.0000000000000000000, -0.0000000000000000000 ) ) ;
#69 = CIRCLE ( 'NONE', #192, 5.200000000000000200 ) ;
#70 = ORIENTED_EDGE ( 'NONE', *, *, #197, .F. ) ;
#71 = VERTEX_POINT ( 'NONE', #65 ) ;
#72 = DIRECTION ( 'NONE',  ( 0.0000000000000000000, 1.000000000000000000, 0.0000000000000000000 ) ) ;
#73 = CARTESIAN_POINT ( 'NONE',  ( -53.49999999999999300, -3.275930187719169900E-015, 0.0000000000000000000 ) ) ;
#74 = DIRECTION ( 'NONE',  ( 1.000000000000000000, 6.123233995736767300E-017, -0.0000000000000000000 ) ) ;
#75 = AXIS2_PLACEMENT_3D ( 'NONE', #182, #365, #205 ) ;
#76 = ADVANCED_BREP_SHAPE_REPRESENTATION ( '03-3067', ( #145, #259, #44 ), #321 ) ;
#77 = DIRECTION ( 'NONE',  ( 0.0000000000000000000, 0.0000000000000000000, 1.000000000000000000 ) ) ;
#78 = CIRCLE ( 'NONE', #156, 0.7999999999999977100 ) ;
#79 = ORIENTED_EDGE ( 'NONE', *, *, #213, .F. ) ;
#80 = APPLICATION_CONTEXT ( 'configuration controlled 3d designs of mechanical parts and assemblies' ) ;
#81 = PERSON_AND_ORGANIZATION_ROLE ( 'creator' ) ;
#82 = COORDINATED_UNIVERSAL_TIME_OFFSET ( 9, 0, .AHEAD. ) ;
#83 = EDGE_CURVE ( 'NONE', #25, #187, #141, .T. ) ;
#84 = TOROIDAL_SURFACE ( 'NONE', #301, 5.200000000000000200, 0.7999999999999977100 ) ;
#85 = PRODUCT_DEFINITION ( 'UNKNOWN', '', #176, #27 ) ;
#86 = ORIENTED_EDGE ( 'NONE', *, *, #244, .T. ) ;
#87 = DIRECTION ( 'NONE',  ( 1.000000000000000000, 6.123233995736767300E-017, -0.0000000000000000000 ) ) ;
#88 = ADVANCED_FACE ( 'NONE', ( #147 ), #335, .T. ) ;
#89 = DIRECTION ( 'NONE',  ( 0.0000000000000000000, 1.000000000000000000, 0.0000000000000000000 ) ) ;
#90 = LOCAL_TIME ( 10, 15, 36.00000000000000000, #164 ) ;
#91 = FACE_OUTER_BOUND ( 'NONE', #236, .T. ) ;
#92 = ORIENTED_EDGE ( 'NONE', *, *, #59, .F. ) ;
#93 = EDGE_LOOP ( 'NONE', ( #70, #18, #19, #99 ) ) ;
#94 = AXIS2_PLACEMENT_3D ( 'NONE', #232, #74, #258 ) ;
#95 = CARTESIAN_POINT ( 'NONE',  ( 55.19999999999999600, 0.0000000000000000000, 0.0000000000000000000 ) ) ;
#96 = PRODUCT ( '03-3067', '03-3067', '', ( #291 ) ) ;
#97 = VERTEX_POINT ( 'NONE', #31 ) ;
#98 = PLANE ( 'NONE',  #327 ) ;
#99 = ORIENTED_EDGE ( 'NONE', *, *, #5, .F. ) ;
#100 = ORIENTED_EDGE ( 'NONE', *, *, #244, .F. ) ;
#101 = CARTESIAN_POINT ( 'NONE',  ( 0.0000000000000000000, 0.0000000000000000000, 0.0000000000000000000 ) ) ;
#102 = DIRECTION ( 'NONE',  ( 1.000000000000000000, 6.123233995736767300E-017, -0.0000000000000000000 ) ) ;
#103 = CIRCLE ( 'NONE', #94, 5.999999999999996400 ) ;
#104 = EDGE_CURVE ( 'NONE', #97, #187, #280, .T. ) ;
#105 = ORIENTED_EDGE ( 'NONE', *, *, #336, .T. ) ;
#106 = VERTEX_POINT ( 'NONE', #67 ) ;
#107 = CARTESIAN_POINT ( 'NONE',  ( -53.99999999999999300, -3.306546357697853300E-015, 0.0000000000000000000 ) ) ;
#108 = DIRECTION ( 'NONE',  ( -1.000000000000000000, -6.123233995736767300E-017, 0.0000000000000000000 ) ) ;
#109 = CARTESIAN_POINT ( 'NONE',  ( 0.9999999999999997800, -6.000000000000000000, 7.347880794884119700E-016 ) ) ;
#110 = DIRECTION ( 'NONE',  ( 0.0000000000000000000, 0.0000000000000000000, -1.000000000000000000 ) ) ;
#111 = ORIENTED_EDGE ( 'NONE', *, *, #282, .T. ) ;
#112 = APPROVAL ( #344, 'UNSPECIFIED' ) ;
#113 = DIRECTION ( 'NONE',  ( 1.000000000000000000, 0.0000000000000000000, 0.0000000000000000000 ) ) ;
#114 = SECURITY_CLASSIFICATION_LEVEL ( 'unclassified' ) ;
#115 = CIRCLE ( 'NONE', #308, 5.499999999999998200 ) ;
#116 = AXIS2_PLACEMENT_3D ( 'NONE', #338, #183, #4 ) ;
#117 = COORDINATED_UNIVERSAL_TIME_OFFSET ( 9, 0, .AHEAD. ) ;
#118 = ORIENTED_EDGE ( 'NONE', *, *, #213, .T. ) ;
#119 = APPROVAL_DATE_TIME ( #62, #194 ) ;
#120 = ADVANCED_FACE ( 'NONE', ( #196 ), #98, .T. ) ;
#121 = CYLINDRICAL_SURFACE ( 'NONE', #6, 6.000000000000000000 ) ;
#122 = EDGE_LOOP ( 'NONE', ( #86, #63 ) ) ;
#123 = CARTESIAN_POINT ( 'NONE',  ( 55.99999999999999300, 6.858022075225175600E-016, -5.200000000000000200 ) ) ;
#124 = EDGE_CURVE ( 'NONE', #37, #97, #48, .T. ) ;
#125 = SHAPE_DEFINITION_REPRESENTATION ( #234, #76 ) ;
#126 = VERTEX_POINT ( 'NONE', #32 ) ;
#127 = DIRECTION ( 'NONE',  ( 0.0000000000000000000, 0.0000000000000000000, 1.000000000000000000 ) ) ;
#128 = PERSON ( 'UNSPECIFIED', 'UNSPECIFIED', 'UNSPECIFIED', ('UNSPECIFIED'), ('UNSPECIFIED'), ('UNSPECIFIED') ) ;
#129 = CC_DESIGN_APPROVAL ( #112, ( #85 ) ) ;
#130 = DIRECTION ( 'NONE',  ( -1.000000000000000000, -0.0000000000000000000, -0.0000000000000000000 ) ) ;
#131 = DIRECTION ( 'NONE',  ( -1.000000000000000000, -0.0000000000000000000, -0.0000000000000000000 ) ) ;
#132 = LINE ( 'NONE', #35, #305 ) ;
#133 = DIRECTION ( 'NONE',  ( 1.000000000000000000, 6.123233995736767300E-017, -0.0000000000000000000 ) ) ;
#134 = AXIS2_PLACEMENT_3D ( 'NONE', #337, #180, #256 ) ;
#135 = EDGE_LOOP ( 'NONE', ( #359, #56 ) ) ;
#136 = COORDINATED_UNIVERSAL_TIME_OFFSET ( 9, 0, .AHEAD. ) ;
#137 = CARTESIAN_POINT ( 'NONE',  ( 1.000000000000000400, 0.0000000000000000000, 0.0000000000000000000 ) ) ;
#138 = ORIENTED_EDGE ( 'NONE', *, *, #228, .T. ) ;
#139 = CARTESIAN_POINT ( 'NONE',  ( 55.19999999999999600, 0.0000000000000000000, 5.200000000000000200 ) ) ;
#140 = PERSON_AND_ORGANIZATION_ROLE ( 'design_owner' ) ;
#141 = LINE ( 'NONE', #251, #55 ) ;
#142 = DATE_TIME_ROLE ( 'classification_date' ) ;
#143 = AXIS2_PLACEMENT_3D ( 'NONE', #354, #60, #89 ) ;
#144 = COORDINATED_UNIVERSAL_TIME_OFFSET ( 9, 0, .AHEAD. ) ;
#145 = MANIFOLD_SOLID_BREP ( 'È¸Àü3', #362 ) ;
#146 = CC_DESIGN_PERSON_AND_ORGANIZATION_ASSIGNMENT ( #329, #14, ( #85 ) ) ;
#147 = FACE_OUTER_BOUND ( 'NONE', #51, .T. ) ;
#148 = ORIENTED_EDGE ( 'NONE', *, *, #197, .T. ) ;
#149 = ADVANCED_FACE ( 'NONE', ( #324 ), #121, .T. ) ;
#150 = APPROVAL_DATE_TIME ( #214, #314 ) ;
#151 = CONICAL_SURFACE ( 'NONE', #167, 5.999999999999996400, 0.7853981633974396200 ) ;
#152 = DIRECTION ( 'NONE',  ( -1.000000000000000000, -0.0000000000000000000, -0.0000000000000000000 ) ) ;
#153 = FACE_OUTER_BOUND ( 'NONE', #49, .T. ) ;
#154 = DIRECTION ( 'NONE',  ( 1.000000000000000000, 6.123233995736767300E-017, -0.0000000000000000000 ) ) ;
#155 = APPROVAL_PERSON_ORGANIZATION ( #220, #314, #165 ) ;
#156 = AXIS2_PLACEMENT_3D ( 'NONE', #352, #169, #323 ) ;
#157 = FACE_OUTER_BOUND ( 'NONE', #290, .T. ) ;
#158 = DIRECTION ( 'NONE',  ( 0.0000000000000000000, 0.0000000000000000000, 1.000000000000000000 ) ) ;
#159 = CC_DESIGN_DATE_AND_TIME_ASSIGNMENT ( #242, #212, ( #85 ) ) ;
#160 = ORIENTED_EDGE ( 'NONE', *, *, #299, .F. ) ;
#161 = DIRECTION ( 'NONE',  ( 0.0000000000000000000, 0.0000000000000000000, -1.000000000000000000 ) ) ;
#162 = APPLICATION_PROTOCOL_DEFINITION ( 'international standard', 'config_control_design', 1994, #315 ) ;
#163 = EDGE_CURVE ( 'NONE', #302, #126, #191, .T. ) ;
#164 = COORDINATED_UNIVERSAL_TIME_OFFSET ( 9, 0, .AHEAD. ) ;
#165 = APPROVAL_ROLE ( '' ) ;
#166 = VECTOR ( 'NONE', #184, 1000.000000000000000 ) ;
#167 = AXIS2_PLACEMENT_3D ( 'NONE', #73, #7, #207 ) ;
#168 = ORIENTED_EDGE ( 'NONE', *, *, #15, .T. ) ;
#169 = DIRECTION ( 'NONE',  ( -0.0000000000000000000, 1.000000000000000000, 1.224646799147353200E-016 ) ) ;
#170 = ADVANCED_FACE ( 'NONE', ( #266 ), #246, .T. ) ;
#171 = CONICAL_SURFACE ( 'NONE', #26, 5.999999999999996400, 0.7853981633974396200 ) ;
#172 = DIRECTION ( 'NONE',  ( -0.0000000000000000000, 0.0000000000000000000, 1.000000000000000000 ) ) ;
#173 = CARTESIAN_POINT ( 'NONE',  ( 55.99999999999999300, 0.0000000000000000000, 0.0000000000000000000 ) ) ;
#174 = DIRECTION ( 'NONE',  ( 0.0000000000000000000, 0.0000000000000000000, 1.000000000000000000 ) ) ;
#175 = ORIENTED_EDGE ( 'NONE', *, *, #104, .T. ) ;
#176 = PRODUCT_DEFINITION_FORMATION_WITH_SPECIFIED_SOURCE ( 'ANY', '', #96, .NOT_KNOWN. ) ;
#177 = DIRECTION ( 'NONE',  ( -6.123233995736767300E-017, 1.000000000000000000, 0.0000000000000000000 ) ) ;
#178 = DIRECTION ( 'NONE',  ( 0.0000000000000000000, 0.0000000000000000000, 1.000000000000000000 ) ) ;
#179 = EDGE_CURVE ( 'NONE', #295, #17, #317, .T. ) ;
#180 = DIRECTION ( 'NONE',  ( -1.000000000000000000, -0.0000000000000000000, -0.0000000000000000000 ) ) ;
#181 = FACE_OUTER_BOUND ( 'NONE', #93, .T. ) ;
#182 = CARTESIAN_POINT ( 'NONE',  ( -54.00000000000000000, -3.306546357697854500E-015, 0.0000000000000000000 ) ) ;
#183 = DIRECTION ( 'NONE',  ( 1.000000000000000000, 6.123233995736767300E-017, -0.0000000000000000000 ) ) ;
#184 = DIRECTION ( 'NONE',  ( 1.000000000000000000, 6.123233995736767300E-017, -0.0000000000000000000 ) ) ;
#185 = AXIS2_PLACEMENT_3D ( 'NONE', #107, #108, #286 ) ;
#186 = APPROVAL_PERSON_ORGANIZATION ( #247, #112, #190 ) ;
#187 = VERTEX_POINT ( 'NONE', #281 ) ;
#188 = CARTESIAN_POINT ( 'NONE',  ( 55.99999999999999300, 0.0000000000000000000, 0.0000000000000000000 ) ) ;
#189 =( NAMED_UNIT ( * ) PLANE_ANGLE_UNIT ( ) SI_UNIT ( $, .RADIAN. ) );
#190 = APPROVAL_ROLE ( '' ) ;
#191 = CIRCLE ( 'NONE', #346, 6.000000000000000000 ) ;
#192 = AXIS2_PLACEMENT_3D ( 'NONE', #173, #330, #174 ) ;
#193 = ORIENTED_EDGE ( 'NONE', *, *, #179, .F. ) ;
#194 = APPROVAL ( #47, 'UNSPECIFIED' ) ;
#195 = ADVANCED_FACE ( 'NONE', ( #181 ), #171, .T. ) ;
#196 = FACE_OUTER_BOUND ( 'NONE', #122, .T. ) ;
#197 = EDGE_CURVE ( 'NONE', #71, #312, #132, .T. ) ;
#198 = CARTESIAN_POINT ( 'NONE',  ( -53.49999999999999300, 5.999999999999992900, 0.0000000000000000000 ) ) ;
#199 = PERSON_AND_ORGANIZATION ( #128, #40 ) ;
#200 = UNCERTAINTY_MEASURE_WITH_UNIT (LENGTH_MEASURE( 1.000000000000000100E-005 ), #289, 'distance_accuracy_value', 'NONE');
#201 = AXIS2_PLACEMENT_3D ( 'NONE', #137, #310, #158 ) ;
#202 = CARTESIAN_POINT ( 'NONE',  ( 55.19999999999999600, 0.0000000000000000000, 0.0000000000000000000 ) ) ;
#203 = CYLINDRICAL_SURFACE ( 'NONE', #257, 6.000000000000000000 ) ;
#204 = DIRECTION ( 'NONE',  ( 1.000000000000000000, 6.123233995736767300E-017, -0.0000000000000000000 ) ) ;
#205 = DIRECTION ( 'NONE',  ( 0.0000000000000000000, 1.000000000000000000, 0.0000000000000000000 ) ) ;
#206 = AXIS2_PLACEMENT_3D ( 'NONE', #245, #297, #172 ) ;
#207 = DIRECTION ( 'NONE',  ( 0.0000000000000000000, 1.000000000000000000, 0.0000000000000000000 ) ) ;
#208 = DIRECTION ( 'NONE',  ( -1.000000000000000000, -0.0000000000000000000, -0.0000000000000000000 ) ) ;
#209 = DIRECTION ( 'NONE',  ( 0.0000000000000000000, 0.0000000000000000000, 1.000000000000000000 ) ) ;
#210 = CC_DESIGN_APPROVAL ( #194, ( #176 ) ) ;
#211 = FACE_OUTER_BOUND ( 'NONE', #135, .T. ) ;
#212 = DATE_TIME_ROLE ( 'creation_date' ) ;
#213 = EDGE_CURVE ( 'NONE', #295, #71, #115, .T. ) ;
#214 = DATE_AND_TIME ( #284, #355 ) ;
#215 = CIRCLE ( 'NONE', #201, 6.000000000000000000 ) ;
#216 = EDGE_CURVE ( 'NONE', #71, #295, #23, .T. ) ;
#217 = AXIS2_PLACEMENT_3D ( 'NONE', #43, #235, #77 ) ;
#218 = ORIENTED_EDGE ( 'NONE', *, *, #83, .F. ) ;
#219 = ADVANCED_FACE ( 'NONE', ( #238 ), #231, .T. ) ;
#220 = PERSON_AND_ORGANIZATION ( #128, #40 ) ;
#221 = LINE ( 'NONE', #340, #166 ) ;
#222 = PERSON_AND_ORGANIZATION ( #128, #40 ) ;
#223 = AXIS2_PLACEMENT_3D ( 'NONE', #278, #130, #303 ) ;
#224 = ORIENTED_EDGE ( 'NONE', *, *, #104, .F. ) ;
#225 = CC_DESIGN_PERSON_AND_ORGANIZATION_ASSIGNMENT ( #222, #81, ( #176 ) ) ;
#226 = CARTESIAN_POINT ( 'NONE',  ( 0.0000000000000000000, 0.0000000000000000000, 6.000000000000000000 ) ) ;
#227 = CARTESIAN_POINT ( 'NONE',  ( -53.49999999999999300, 5.999999999999992900, 0.0000000000000000000 ) ) ;
#228 = EDGE_CURVE ( 'NONE', #17, #126, #300, .T. ) ;
#229 = PERSON_AND_ORGANIZATION ( #128, #40 ) ;
#230 = DIRECTION ( 'NONE',  ( 0.7071067811865536800, -0.7071067811865414700, 8.659560562354857700E-017 ) ) ;
#231 = CYLINDRICAL_SURFACE ( 'NONE', #134, 6.000000000000000000 ) ;
#232 = CARTESIAN_POINT ( 'NONE',  ( -53.49999999999999300, -3.275930187719169900E-015, 0.0000000000000000000 ) ) ;
#233 = PLANE ( 'NONE',  #270 ) ;
#234 = PRODUCT_DEFINITION_SHAPE ( 'NONE', 'NONE',  #85 ) ;
#235 = DIRECTION ( 'NONE',  ( -1.000000000000000000, -0.0000000000000000000, -0.0000000000000000000 ) ) ;
#236 = EDGE_LOOP ( 'NONE', ( #79, #9 ) ) ;
#237 = APPROVAL_ROLE ( '' ) ;
#238 = FACE_OUTER_BOUND ( 'NONE', #41, .T. ) ;
#239 = AXIS2_PLACEMENT_3D ( 'NONE', #95, #277, #127 ) ;
#240 = DATE_AND_TIME ( #311, #28 ) ;
#241 = ORIENTED_EDGE ( 'NONE', *, *, #15, .F. ) ;
#242 = DATE_AND_TIME ( #341, #339 ) ;
#243 = CC_DESIGN_PERSON_AND_ORGANIZATION_ASSIGNMENT ( #276, #267, ( #176 ) ) ;
#244 = EDGE_CURVE ( 'NONE', #126, #302, #16, .T. ) ;
#245 = CARTESIAN_POINT ( 'NONE',  ( 55.99999999999999300, 7.472654973438569000E-014, 0.0000000000000000000 ) ) ;
#246 = CYLINDRICAL_SURFACE ( 'NONE', #50, 6.000000000000000000 ) ;
#247 = PERSON_AND_ORGANIZATION ( #128, #40 ) ;
#248 = AXIS2_PLACEMENT_3D ( 'NONE', #188, #8, #209 ) ;
#249 = ORIENTED_EDGE ( 'NONE', *, *, #318, .F. ) ;
#250 = CALENDAR_DATE ( 2023, 3, 7 ) ;
#251 = CARTESIAN_POINT ( 'NONE',  ( 0.0000000000000000000, 7.347880794884119700E-016, -6.000000000000000000 ) ) ;
#252 = CARTESIAN_POINT ( 'NONE',  ( 0.9999999999999993300, 6.000000000000000000, 0.0000000000000000000 ) ) ;
#253 = DIRECTION ( 'NONE',  ( -6.123233995736768500E-017, 1.000000000000000000, 0.0000000000000000000 ) ) ;
#254 = CARTESIAN_POINT ( 'NONE',  ( -53.49999999999999300, -3.275930187719169900E-015, 0.0000000000000000000 ) ) ;
#255 = VECTOR ( 'NONE', #304, 1000.000000000000000 ) ;
#256 = DIRECTION ( 'NONE',  ( 0.0000000000000000000, 0.0000000000000000000, 1.000000000000000000 ) ) ;
#257 = AXIS2_PLACEMENT_3D ( 'NONE', #349, #87, #54 ) ;
#258 = DIRECTION ( 'NONE',  ( 0.0000000000000000000, 1.000000000000000000, 0.0000000000000000000 ) ) ;
#259 = MANIFOLD_SOLID_BREP ( 'È¸Àü4', #361 ) ;
#260 = CARTESIAN_POINT ( 'NONE',  ( -53.49999999999999300, -6.000000000000000000, 7.347880794884115800E-016 ) ) ;
#261 = ORIENTED_EDGE ( 'NONE', *, *, #124, .T. ) ;
#262 = DIRECTION ( 'NONE',  ( 1.000000000000000000, 0.0000000000000000000, 0.0000000000000000000 ) ) ;
#263 = CARTESIAN_POINT ( 'NONE',  ( 0.0000000000000000000, 0.0000000000000000000, 0.0000000000000000000 ) ) ;
#264 = SECURITY_CLASSIFICATION ( '', '', #114 ) ;
#265 = DIRECTION ( 'NONE',  ( 0.0000000000000000000, 0.0000000000000000000, 1.000000000000000000 ) ) ;
#266 = FACE_OUTER_BOUND ( 'NONE', #11, .T. ) ;
#267 = PERSON_AND_ORGANIZATION_ROLE ( 'design_supplier' ) ;
#268 = EDGE_CURVE ( 'NONE', #17, #312, #103, .T. ) ;
#269 = LOCAL_TIME ( 10, 15, 36.00000000000000000, #144 ) ;
#270 = AXIS2_PLACEMENT_3D ( 'NONE', #342, #262, #110 ) ;
#271 = CIRCLE ( 'NONE', #239, 6.000000000000000000 ) ;
#272 = EDGE_LOOP ( 'NONE', ( #241, #105, #42, #249 ) ) ;
#273 = ADVANCED_FACE ( 'NONE', ( #91 ), #307, .T. ) ;
#274 = PLANE ( 'NONE',  #206 ) ;
#275 = AXIS2_PLACEMENT_3D ( 'NONE', #202, #331, #358 ) ;
#276 = PERSON_AND_ORGANIZATION ( #128, #40 ) ;
#277 = DIRECTION ( 'NONE',  ( -1.000000000000000000, -0.0000000000000000000, -0.0000000000000000000 ) ) ;
#278 = CARTESIAN_POINT ( 'NONE',  ( 1.000000000000000400, 0.0000000000000000000, 0.0000000000000000000 ) ) ;
#279 = CC_DESIGN_PERSON_AND_ORGANIZATION_ASSIGNMENT ( #229, #292, ( #264 ) ) ;
#280 = CIRCLE ( 'NONE', #223, 6.000000000000000000 ) ;
#281 = CARTESIAN_POINT ( 'NONE',  ( 1.000000000000000400, 7.347880794884119700E-016, -6.000000000000000000 ) ) ;
#282 = EDGE_CURVE ( 'NONE', #312, #302, #221, .T. ) ;
#283 = CARTESIAN_POINT ( 'NONE',  ( -54.00000000000000000, -3.306546357697854500E-015, 0.0000000000000000000 ) ) ;
#284 = CALENDAR_DATE ( 2023, 3, 7 ) ;
#285 = FACE_OUTER_BOUND ( 'NONE', #272, .T. ) ;
#286 = DIRECTION ( 'NONE',  ( 6.123233995736767300E-017, -1.000000000000000000, 0.0000000000000000000 ) ) ;
#287 = CARTESIAN_POINT ( 'NONE',  ( 55.19999999999999600, 0.0000000000000000000, 0.0000000000000000000 ) ) ;
#288 = AXIS2_PLACEMENT_3D ( 'NONE', #139, #313, #161 ) ;
#289 =( LENGTH_UNIT ( ) NAMED_UNIT ( * ) SI_UNIT ( .MILLI., .METRE. ) );
#290 = EDGE_LOOP ( 'NONE', ( #175, #320 ) ) ;
#291 = MECHANICAL_CONTEXT ( 'NONE', #80, 'mechanical' ) ;
#292 = PERSON_AND_ORGANIZATION_ROLE ( 'classification_officer' ) ;
#293 = DATE_AND_TIME ( #364, #90 ) ;
#294 = CIRCLE ( 'NONE', #248, 5.200000000000000200 ) ;
#295 = VERTEX_POINT ( 'NONE', #309 ) ;
#296 = CC_DESIGN_DATE_AND_TIME_ASSIGNMENT ( #293, #142, ( #264 ) ) ;
#297 = DIRECTION ( 'NONE',  ( -1.000000000000000000, 0.0000000000000000000, -0.0000000000000000000 ) ) ;
#298 = ADVANCED_FACE ( 'NONE', ( #1 ), #151, .T. ) ;
#299 = EDGE_CURVE ( 'NONE', #187, #97, #215, .T. ) ;
#300 = LINE ( 'NONE', #39, #34 ) ;
#301 = AXIS2_PLACEMENT_3D ( 'NONE', #287, #208, #45 ) ;
#302 = VERTEX_POINT ( 'NONE', #109 ) ;
#303 = DIRECTION ( 'NONE',  ( 0.0000000000000000000, 0.0000000000000000000, 1.000000000000000000 ) ) ;
#304 = DIRECTION ( 'NONE',  ( 0.7071067811865536800, 0.7071067811865414700, 0.0000000000000000000 ) ) ;
#305 = VECTOR ( 'NONE', #230, 1000.000000000000000 ) ;
#306 = DIRECTION ( 'NONE',  ( 0.0000000000000000000, 1.000000000000000000, 0.0000000000000000000 ) ) ;
#307 = PLANE ( 'NONE',  #185 ) ;
#308 = AXIS2_PLACEMENT_3D ( 'NONE', #283, #133, #306 ) ;
#309 = CARTESIAN_POINT ( 'NONE',  ( -54.00000000000000000, 5.499999999999994700, 0.0000000000000000000 ) ) ;
#310 = DIRECTION ( 'NONE',  ( -1.000000000000000000, -0.0000000000000000000, -0.0000000000000000000 ) ) ;
#311 = CALENDAR_DATE ( 2023, 3, 7 ) ;
#312 = VERTEX_POINT ( 'NONE', #260 ) ;
#313 = DIRECTION ( 'NONE',  ( 0.0000000000000000000, -1.000000000000000000, 0.0000000000000000000 ) ) ;
#314 = APPROVAL ( #316, 'UNSPECIFIED' ) ;
#315 = APPLICATION_CONTEXT ( 'configuration controlled 3d designs of mechanical parts and assemblies' ) ;
#316 = APPROVAL_STATUS ( 'not_yet_approved' ) ;
#317 = LINE ( 'NONE', #227, #255 ) ;
#318 = EDGE_CURVE ( 'NONE', #25, #37, #356, .T. ) ;
#319 = PERSON_AND_ORGANIZATION ( #128, #40 ) ;
#320 = ORIENTED_EDGE ( 'NONE', *, *, #299, .T. ) ;
#321 =( GEOMETRIC_REPRESENTATION_CONTEXT ( 3 ) GLOBAL_UNCERTAINTY_ASSIGNED_CONTEXT ( ( #200 ) ) GLOBAL_UNIT_ASSIGNED_CONTEXT ( ( #289, #189, #12 ) ) REPRESENTATION_CONTEXT ( 'NONE', 'WORKASPACE' ) );
#322 = ADVANCED_FACE ( 'NONE', ( #157 ), #233, .F. ) ;
#323 = DIRECTION ( 'NONE',  ( 0.0000000000000000000, -1.224646799147353700E-016, 1.000000000000000000 ) ) ;
#324 = FACE_OUTER_BOUND ( 'NONE', #24, .T. ) ;
#325 = CARTESIAN_POINT ( 'NONE',  ( 55.19999999999999600, 7.347880794884118800E-016, -5.999999999999998200 ) ) ;
#326 = CARTESIAN_POINT ( 'NONE',  ( 55.19999999999999600, 0.0000000000000000000, 5.999999999999998200 ) ) ;
#327 = AXIS2_PLACEMENT_3D ( 'NONE', #252, #332, #177 ) ;
#328 = ORIENTED_EDGE ( 'NONE', *, *, #59, .T. ) ;
#329 = PERSON_AND_ORGANIZATION ( #128, #40 ) ;
#330 = DIRECTION ( 'NONE',  ( -1.000000000000000000, -0.0000000000000000000, -0.0000000000000000000 ) ) ;
#331 = DIRECTION ( 'NONE',  ( -1.000000000000000000, -0.0000000000000000000, -0.0000000000000000000 ) ) ;
#332 = DIRECTION ( 'NONE',  ( 1.000000000000000000, 6.123233995736767300E-017, -0.0000000000000000000 ) ) ;
#333 = CC_DESIGN_APPROVAL ( #314, ( #264 ) ) ;
#334 = CARTESIAN_POINT ( 'NONE',  ( 0.0000000000000000000, 0.0000000000000000000, 0.0000000000000000000 ) ) ;
#335 = TOROIDAL_SURFACE ( 'NONE', #275, 5.200000000000000200, 0.7999999999999977100 ) ;
#336 = EDGE_CURVE ( 'NONE', #2, #106, #294, .T. ) ;
#337 = CARTESIAN_POINT ( 'NONE',  ( 0.0000000000000000000, 0.0000000000000000000, 0.0000000000000000000 ) ) ;
#338 = CARTESIAN_POINT ( 'NONE',  ( 0.9999999999999993300, 6.123233995736763600E-017, 0.0000000000000000000 ) ) ;
#339 = LOCAL_TIME ( 10, 15, 36.00000000000000000, #136 ) ;
#340 = CARTESIAN_POINT ( 'NONE',  ( 3.673940397442060900E-016, -6.000000000000000000, 7.347880794884119700E-016 ) ) ;
#341 = CALENDAR_DATE ( 2023, 3, 7 ) ;
#342 = CARTESIAN_POINT ( 'NONE',  ( 1.000000000000000700, 7.228014483236702000E-017, 0.0000000000000000000 ) ) ;
#343 = VECTOR ( 'NONE', #68, 1000.000000000000000 ) ;
#344 = APPROVAL_STATUS ( 'not_yet_approved' ) ;
#345 = CIRCLE ( 'NONE', #288, 0.7999999999999977100 ) ;
#346 = AXIS2_PLACEMENT_3D ( 'NONE', #363, #204, #33 ) ;
#347 = CIRCLE ( 'NONE', #143, 5.999999999999996400 ) ;
#348 = APPROVAL_DATE_TIME ( #240, #112 ) ;
#349 = CARTESIAN_POINT ( 'NONE',  ( 0.0000000000000000000, 0.0000000000000000000, 0.0000000000000000000 ) ) ;
#350 = CC_DESIGN_SECURITY_CLASSIFICATION ( #264, ( #176 ) ) ;
#351 = ADVANCED_FACE ( 'NONE', ( #285 ), #84, .T. ) ;
#352 = CARTESIAN_POINT ( 'NONE',  ( 55.19999999999999600, 6.368163355566236400E-016, -5.200000000000000200 ) ) ;
#353 = EDGE_CURVE ( 'NONE', #106, #37, #345, .T. ) ;
#354 = CARTESIAN_POINT ( 'NONE',  ( -53.49999999999999300, -3.275930187719169900E-015, 0.0000000000000000000 ) ) ;
#355 = LOCAL_TIME ( 10, 15, 36.00000000000000000, #82 ) ;
#356 = CIRCLE ( 'NONE', #217, 6.000000000000000000 ) ;
#357 = APPROVAL_PERSON_ORGANIZATION ( #199, #194, #237 ) ;
#358 = DIRECTION ( 'NONE',  ( 0.0000000000000000000, 0.0000000000000000000, 1.000000000000000000 ) ) ;
#359 = ORIENTED_EDGE ( 'NONE', *, *, #38, .F. ) ;
#360 = DIRECTION ( 'NONE',  ( 1.000000000000000000, 6.123233995736767300E-017, -0.0000000000000000000 ) ) ;
#361 = CLOSED_SHELL ( 'NONE', ( #57, #298, #120, #273, #195, #149 ) ) ;
#362 = CLOSED_SHELL ( 'NONE', ( #219, #88, #351, #170, #322, #22 ) ) ;
#363 = CARTESIAN_POINT ( 'NONE',  ( 0.9999999999999993300, 6.123233995736763600E-017, 0.0000000000000000000 ) ) ;
#364 = CALENDAR_DATE ( 2023, 3, 7 ) ;
#365 = DIRECTION ( 'NONE',  ( 1.000000000000000000, 6.123233995736767300E-017, -0.0000000000000000000 ) ) ;
ENDSEC;
END-ISO-10303-21;
