ISO-10303-21;
HEADER;
FILE_DESCRIPTION (( 'STEP AP203' ),
    '1' );
FILE_NAME ('03-3068.STEP',
    '2023-07-03T01:15:53',
    ( 'USER' ),
    ( 'Hewlett-Packard Company' ),
    'SwSTEP 2.0',
    'SolidWorks 2014',
    '' );
FILE_SCHEMA (( 'CONFIG_CONTROL_DESIGN' ));
ENDSEC;

DATA;
#1 = CC_DESIGN_APPROVAL ( #345, ( #329 ) ) ;
#2 = ORIENTED_EDGE ( 'NONE', *, *, #278, .T. ) ;
#3 = CARTESIAN_POINT ( 'NONE',  ( -48.99999999999999300, -3.000384657911015100E-015, 0.0000000000000000000 ) ) ;
#4 = EDGE_CURVE ( 'NONE', #155, #251, #17, .T. ) ;
#5 = ADVANCED_BREP_SHAPE_REPRESENTATION ( '03-3068', ( #208, #71, #204 ), #67 ) ;
#6 = COORDINATED_UNIVERSAL_TIME_OFFSET ( 9, 0, .AHEAD. ) ;
#7 = CYLINDRICAL_SURFACE ( 'NONE', #364, 4.999999999999999100 ) ;
#8 = ORIENTED_EDGE ( 'NONE', *, *, #184, .T. ) ;
#9 = ORIENTED_EDGE ( 'NONE', *, *, #65, .T. ) ;
#10 = ORIENTED_EDGE ( 'NONE', *, *, #214, .F. ) ;
#11 = AXIS2_PLACEMENT_3D ( 'NONE', #43, #240, #70 ) ;
#12 = SHAPE_DEFINITION_REPRESENTATION ( #54, #5 ) ;
#13 = ORIENTED_EDGE ( 'NONE', *, *, #81, .T. ) ;
#14 = VERTEX_POINT ( 'NONE', #311 ) ;
#15 = CARTESIAN_POINT ( 'NONE',  ( 1.000000000000000000, 0.0000000000000000000, 0.0000000000000000000 ) ) ;
#16 = LOCAL_TIME ( 10, 15, 53.00000000000000000, #91 ) ;
#17 = CIRCLE ( 'NONE', #287, 4.999999999999996400 ) ;
#18 =( NAMED_UNIT ( * ) PLANE_ANGLE_UNIT ( ) SI_UNIT ( $, .RADIAN. ) );
#19 = DIRECTION ( 'NONE',  ( 0.0000000000000000000, 1.000000000000000000, 0.0000000000000000000 ) ) ;
#20 = APPROVAL_ROLE ( '' ) ;
#21 = DIRECTION ( 'NONE',  ( 0.0000000000000000000, 1.000000000000000000, 0.0000000000000000000 ) ) ;
#22 = CARTESIAN_POINT ( 'NONE',  ( 1.000000000000000000, 6.123233995736766300E-016, -5.000000000000000000 ) ) ;
#23 = CC_DESIGN_PERSON_AND_ORGANIZATION_ASSIGNMENT ( #313, #269, ( #329 ) ) ;
#24 = CARTESIAN_POINT ( 'NONE',  ( 0.0000000000000000000, 0.0000000000000000000, 0.0000000000000000000 ) ) ;
#25 = EDGE_CURVE ( 'NONE', #362, #196, #304, .T. ) ;
#26 = APPROVAL_DATE_TIME ( #98, #345 ) ;
#27 = ORIENTED_EDGE ( 'NONE', *, *, #267, .T. ) ;
#28 = EDGE_LOOP ( 'NONE', ( #110, #61, #2, #44 ) ) ;
#29 = AXIS2_PLACEMENT_3D ( 'NONE', #157, #348, #187 ) ;
#30 = CARTESIAN_POINT ( 'NONE',  ( 1.000000000000000000, 0.0000000000000000000, 5.000000000000000000 ) ) ;
#31 = FACE_OUTER_BOUND ( 'NONE', #189, .T. ) ;
#32 = CARTESIAN_POINT ( 'NONE',  ( 50.00000000000000000, 0.0000000000000000000, 4.000000000000000000 ) ) ;
#33 = APPROVAL_PERSON_ORGANIZATION ( #109, #345, #77 ) ;
#34 = ORIENTED_EDGE ( 'NONE', *, *, #4, .T. ) ;
#35 = CLOSED_SHELL ( 'NONE', ( #289, #186, #210, #262, #68, #125 ) ) ;
#36 = AXIS2_PLACEMENT_3D ( 'NONE', #170, #360, #197 ) ;
#37 = PERSON ( 'UNSPECIFIED', 'UNSPECIFIED', 'UNSPECIFIED', ('UNSPECIFIED'), ('UNSPECIFIED'), ('UNSPECIFIED') ) ;
#38 = CIRCLE ( 'NONE', #259, 4.000000000000000000 ) ;
#39 = VERTEX_POINT ( 'NONE', #51 ) ;
#40 = ADVANCED_FACE ( 'NONE', ( #174 ), #7, .T. ) ;
#41 = CC_DESIGN_PERSON_AND_ORGANIZATION_ASSIGNMENT ( #241, #102, ( #329 ) ) ;
#42 = COORDINATED_UNIVERSAL_TIME_OFFSET ( 9, 0, .AHEAD. ) ;
#43 = CARTESIAN_POINT ( 'NONE',  ( 50.00000000000000000, 0.0000000000000000000, 0.0000000000000000000 ) ) ;
#44 = ORIENTED_EDGE ( 'NONE', *, *, #312, .F. ) ;
#45 = EDGE_CURVE ( 'NONE', #155, #362, #84, .T. ) ;
#46 = DIRECTION ( 'NONE',  ( 0.0000000000000000000, 0.0000000000000000000, 1.000000000000000000 ) ) ;
#47 = DATE_TIME_ROLE ( 'creation_date' ) ;
#48 = DIRECTION ( 'NONE',  ( -1.000000000000000000, -0.0000000000000000000, -0.0000000000000000000 ) ) ;
#49 = TOROIDAL_SURFACE ( 'NONE', #284, 4.000000000000000000, 1.000000000000000000 ) ;
#50 = ORIENTED_EDGE ( 'NONE', *, *, #99, .F. ) ;
#51 = CARTESIAN_POINT ( 'NONE',  ( -48.99999999999999300, 4.499999999999995600, 0.0000000000000000000 ) ) ;
#52 = AXIS2_PLACEMENT_3D ( 'NONE', #205, #229, #239 ) ;
#53 = ORIENTED_EDGE ( 'NONE', *, *, #25, .T. ) ;
#54 = PRODUCT_DEFINITION_SHAPE ( 'NONE', 'NONE',  #237 ) ;
#55 = LOCAL_TIME ( 10, 15, 53.00000000000000000, #127 ) ;
#56 = ORIENTED_EDGE ( 'NONE', *, *, #233, .T. ) ;
#57 = PLANE ( 'NONE',  #337 ) ;
#58 = AXIS2_PLACEMENT_3D ( 'NONE', #78, #137, #327 ) ;
#59 = DIRECTION ( 'NONE',  ( 1.000000000000000000, 6.123233995736766000E-017, -0.0000000000000000000 ) ) ;
#60 = VECTOR ( 'NONE', #48, 1000.000000000000000 ) ;
#61 = ORIENTED_EDGE ( 'NONE', *, *, #292, .T. ) ;
#62 = SECURITY_CLASSIFICATION ( '', '', #297 ) ;
#63 = ORGANIZATION ( 'UNSPECIFIED', 'UNSPECIFIED', '' ) ;
#64 = VERTEX_POINT ( 'NONE', #22 ) ;
#65 = EDGE_CURVE ( 'NONE', #39, #286, #294, .T. ) ;
#66 = FACE_OUTER_BOUND ( 'NONE', #124, .T. ) ;
#67 =( GEOMETRIC_REPRESENTATION_CONTEXT ( 3 ) GLOBAL_UNCERTAINTY_ASSIGNED_CONTEXT ( ( #142 ) ) GLOBAL_UNIT_ASSIGNED_CONTEXT ( ( #191, #18, #215 ) ) REPRESENTATION_CONTEXT ( 'NONE', 'WORKASPACE' ) );
#68 = ADVANCED_FACE ( 'NONE', ( #92 ), #216, .T. ) ;
#69 = ORIENTED_EDGE ( 'NONE', *, *, #278, .F. ) ;
#70 = DIRECTION ( 'NONE',  ( 0.0000000000000000000, 0.0000000000000000000, 1.000000000000000000 ) ) ;
#71 = MANIFOLD_SOLID_BREP ( 'È¸Àü4', #35 ) ;
#72 = CARTESIAN_POINT ( 'NONE',  ( 3.061616997868383100E-016, -5.000000000000000000, 6.123233995736766300E-016 ) ) ;
#73 = APPROVAL_DATE_TIME ( #150, #119 ) ;
#74 = VECTOR ( 'NONE', #324, 999.9999999999998900 ) ;
#75 = DIRECTION ( 'NONE',  ( 1.000000000000000000, 6.123233995736766000E-017, -0.0000000000000000000 ) ) ;
#76 = AXIS2_PLACEMENT_3D ( 'NONE', #115, #308, #114 ) ;
#77 = APPROVAL_ROLE ( '' ) ;
#78 = CARTESIAN_POINT ( 'NONE',  ( 51.00000000000000700, 0.0000000000000000000, 0.0000000000000000000 ) ) ;
#79 = ORIENTED_EDGE ( 'NONE', *, *, #214, .T. ) ;
#80 = CC_DESIGN_PERSON_AND_ORGANIZATION_ASSIGNMENT ( #172, #135, ( #62 ) ) ;
#81 = EDGE_CURVE ( 'NONE', #286, #251, #365, .T. ) ;
#82 = DIRECTION ( 'NONE',  ( -1.000000000000000000, -0.0000000000000000000, -0.0000000000000000000 ) ) ;
#83 = APPROVAL_PERSON_ORGANIZATION ( #160, #119, #357 ) ;
#84 = LINE ( 'NONE', #108, #162 ) ;
#85 = DIRECTION ( 'NONE',  ( 0.0000000000000000000, 0.0000000000000000000, 1.000000000000000000 ) ) ;
#86 = AXIS2_PLACEMENT_3D ( 'NONE', #15, #213, #46 ) ;
#87 = CARTESIAN_POINT ( 'NONE',  ( -48.50000000000000000, 4.999999999999993800, 0.0000000000000000000 ) ) ;
#88 = DESIGN_CONTEXT ( 'detailed design', #164, 'design' ) ;
#89 = CARTESIAN_POINT ( 'NONE',  ( -48.99999999999999300, -4.500000000000000900, 5.817072295949924500E-016 ) ) ;
#90 = ORIENTED_EDGE ( 'NONE', *, *, #200, .F. ) ;
#91 = COORDINATED_UNIVERSAL_TIME_OFFSET ( 9, 0, .AHEAD. ) ;
#92 = FACE_OUTER_BOUND ( 'NONE', #121, .T. ) ;
#93 = CYLINDRICAL_SURFACE ( 'NONE', #52, 5.000000000000000000 ) ;
#94 = ADVANCED_FACE ( 'NONE', ( #224 ), #301, .F. ) ;
#95 = ORIENTED_EDGE ( 'NONE', *, *, #200, .T. ) ;
#96 = CC_DESIGN_DATE_AND_TIME_ASSIGNMENT ( #232, #323, ( #62 ) ) ;
#97 = DIRECTION ( 'NONE',  ( -1.000000000000000000, -0.0000000000000000000, -0.0000000000000000000 ) ) ;
#98 = DATE_AND_TIME ( #182, #250 ) ;
#99 = EDGE_CURVE ( 'NONE', #39, #155, #234, .T. ) ;
#100 = EDGE_LOOP ( 'NONE', ( #9, #13, #264, #50 ) ) ;
#101 = DIRECTION ( 'NONE',  ( 0.0000000000000000000, 0.0000000000000000000, 1.000000000000000000 ) ) ;
#102 = PERSON_AND_ORGANIZATION_ROLE ( 'design_supplier' ) ;
#103 = CIRCLE ( 'NONE', #315, 1.000000000000000000 ) ;
#104 = DIRECTION ( 'NONE',  ( 0.0000000000000000000, 0.0000000000000000000, 1.000000000000000000 ) ) ;
#105 = AXIS2_PLACEMENT_3D ( 'NONE', #212, #97, #265 ) ;
#106 = CLOSED_SHELL ( 'NONE', ( #317, #235, #344, #40, #154, #94 ) ) ;
#107 = DIRECTION ( 'NONE',  ( 1.000000000000000000, 6.123233995736766000E-017, -0.0000000000000000000 ) ) ;
#108 = CARTESIAN_POINT ( 'NONE',  ( -3.061616997868383100E-016, 5.000000000000000000, 0.0000000000000000000 ) ) ;
#109 = PERSON_AND_ORGANIZATION ( #37, #63 ) ;
#110 = ORIENTED_EDGE ( 'NONE', *, *, #267, .F. ) ;
#111 = DIRECTION ( 'NONE',  ( 0.0000000000000000000, 0.0000000000000000000, -1.000000000000000000 ) ) ;
#112 = DIRECTION ( 'NONE',  ( -1.000000000000000000, -0.0000000000000000000, -0.0000000000000000000 ) ) ;
#113 = AXIS2_PLACEMENT_3D ( 'NONE', #136, #138, #299 ) ;
#114 = DIRECTION ( 'NONE',  ( 0.0000000000000000000, 1.000000000000000000, 0.0000000000000000000 ) ) ;
#115 = CARTESIAN_POINT ( 'NONE',  ( -48.99999999999999300, -3.000384657911015100E-015, 0.0000000000000000000 ) ) ;
#116 = FACE_OUTER_BOUND ( 'NONE', #211, .T. ) ;
#117 = ORIENTED_EDGE ( 'NONE', *, *, #143, .F. ) ;
#118 = DIRECTION ( 'NONE',  ( 1.000000000000000000, 0.0000000000000000000, 0.0000000000000000000 ) ) ;
#119 = APPROVAL ( #166, 'UNSPECIFIED' ) ;
#120 = PERSON_AND_ORGANIZATION ( #37, #63 ) ;
#121 = EDGE_LOOP ( 'NONE', ( #361, #319, #339, #221 ) ) ;
#122 = EDGE_CURVE ( 'NONE', #196, #362, #288, .T. ) ;
#123 = LINE ( 'NONE', #280, #260 ) ;
#124 = EDGE_LOOP ( 'NONE', ( #258, #8, #300, #199 ) ) ;
#125 = ADVANCED_FACE ( 'NONE', ( #66 ), #134, .T. ) ;
#126 = AXIS2_PLACEMENT_3D ( 'NONE', #158, #128, #242 ) ;
#127 = COORDINATED_UNIVERSAL_TIME_OFFSET ( 9, 0, .AHEAD. ) ;
#128 = DIRECTION ( 'NONE',  ( -1.000000000000000000, -0.0000000000000000000, -0.0000000000000000000 ) ) ;
#129 = VERTEX_POINT ( 'NONE', #355 ) ;
#130 = CARTESIAN_POINT ( 'NONE',  ( 50.00000000000000000, 6.123233995736766300E-016, -4.999999999999999100 ) ) ;
#131 = MECHANICAL_CONTEXT ( 'NONE', #268, 'mechanical' ) ;
#132 = DIRECTION ( 'NONE',  ( -1.000000000000000000, -6.123233995736766000E-017, 0.0000000000000000000 ) ) ;
#133 = AXIS2_PLACEMENT_3D ( 'NONE', #165, #118, #228 ) ;
#134 = CYLINDRICAL_SURFACE ( 'NONE', #113, 5.000000000000000000 ) ;
#135 = PERSON_AND_ORGANIZATION_ROLE ( 'classification_officer' ) ;
#136 = CARTESIAN_POINT ( 'NONE',  ( 0.0000000000000000000, 0.0000000000000000000, 0.0000000000000000000 ) ) ;
#137 = DIRECTION ( 'NONE',  ( -1.000000000000000000, 0.0000000000000000000, -0.0000000000000000000 ) ) ;
#138 = DIRECTION ( 'NONE',  ( 1.000000000000000000, 6.123233995736766000E-017, -0.0000000000000000000 ) ) ;
#139 = CC_DESIGN_APPROVAL ( #119, ( #62 ) ) ;
#140 = EDGE_LOOP ( 'NONE', ( #56, #79, #90, #117 ) ) ;
#141 = CARTESIAN_POINT ( 'NONE',  ( 0.9999999999999991100, 6.123233995736761100E-017, 0.0000000000000000000 ) ) ;
#142 = UNCERTAINTY_MEASURE_WITH_UNIT (LENGTH_MEASURE( 1.000000000000000100E-005 ), #191, 'distance_accuracy_value', 'NONE');
#143 = EDGE_CURVE ( 'NONE', #349, #183, #209, .T. ) ;
#144 = DIRECTION ( 'NONE',  ( -1.000000000000000000, -0.0000000000000000000, -0.0000000000000000000 ) ) ;
#145 = DIRECTION ( 'NONE',  ( -1.000000000000000000, -0.0000000000000000000, -0.0000000000000000000 ) ) ;
#146 = CIRCLE ( 'NONE', #152, 4.999999999999996400 ) ;
#147 = CARTESIAN_POINT ( 'NONE',  ( 0.9999999999999993300, 5.000000000000000000, 0.0000000000000000000 ) ) ;
#148 = DIRECTION ( 'NONE',  ( 0.0000000000000000000, -1.224646799147353500E-016, 1.000000000000000000 ) ) ;
#149 = EDGE_LOOP ( 'NONE', ( #314, #261 ) ) ;
#150 = DATE_AND_TIME ( #223, #293 ) ;
#151 = VECTOR ( 'NONE', #271, 999.9999999999998900 ) ;
#152 = AXIS2_PLACEMENT_3D ( 'NONE', #225, #59, #201 ) ;
#153 = PRODUCT ( '03-3068', '03-3068', '', ( #131 ) ) ;
#154 = ADVANCED_FACE ( 'NONE', ( #283 ), #219, .F. ) ;
#155 = VERTEX_POINT ( 'NONE', #87 ) ;
#156 = CC_DESIGN_SECURITY_CLASSIFICATION ( #62, ( #329 ) ) ;
#157 = CARTESIAN_POINT ( 'NONE',  ( 51.00000000000000700, 0.0000000000000000000, 0.0000000000000000000 ) ) ;
#158 = CARTESIAN_POINT ( 'NONE',  ( 50.00000000000000000, 0.0000000000000000000, 0.0000000000000000000 ) ) ;
#159 = EDGE_CURVE ( 'NONE', #286, #39, #343, .T. ) ;
#160 = PERSON_AND_ORGANIZATION ( #37, #63 ) ;
#161 = CARTESIAN_POINT ( 'NONE',  ( 0.9999999999999988900, 5.000000000000000000, 0.0000000000000000000 ) ) ;
#162 = VECTOR ( 'NONE', #107, 1000.000000000000000 ) ;
#163 = CARTESIAN_POINT ( 'NONE',  ( 50.00000000000000000, 4.898587196589412800E-016, -4.000000000000000000 ) ) ;
#164 = APPLICATION_CONTEXT ( 'configuration controlled 3d designs of mechanical parts and assemblies' ) ;
#165 = CARTESIAN_POINT ( 'NONE',  ( 1.000000000000000400, 1.734723475976808600E-016, 0.0000000000000000000 ) ) ;
#166 = APPROVAL_STATUS ( 'not_yet_approved' ) ;
#167 = CARTESIAN_POINT ( 'NONE',  ( -48.50000000000000000, -4.999999999999999100, 6.123233995736762300E-016 ) ) ;
#168 = CARTESIAN_POINT ( 'NONE',  ( -48.50000000000000000, 4.999999999999993800, 0.0000000000000000000 ) ) ;
#169 = CYLINDRICAL_SURFACE ( 'NONE', #105, 4.999999999999999100 ) ;
#170 = CARTESIAN_POINT ( 'NONE',  ( 0.9999999999999991100, 6.123233995736761100E-017, 0.0000000000000000000 ) ) ;
#171 = DIRECTION ( 'NONE',  ( -4.336808689942017700E-017, 1.000000000000000000, 0.0000000000000000000 ) ) ;
#172 = PERSON_AND_ORGANIZATION ( #37, #63 ) ;
#173 = CARTESIAN_POINT ( 'NONE',  ( 50.00000000000000000, 0.0000000000000000000, 0.0000000000000000000 ) ) ;
#174 = FACE_OUTER_BOUND ( 'NONE', #338, .T. ) ;
#175 = DIRECTION ( 'NONE',  ( 0.0000000000000000000, 0.0000000000000000000, 1.000000000000000000 ) ) ;
#176 = AXIS2_PLACEMENT_3D ( 'NONE', #203, #307, #285 ) ;
#177 = CARTESIAN_POINT ( 'NONE',  ( -49.00000000000000000, -3.000384657911015500E-015, 0.0000000000000000000 ) ) ;
#178 = CARTESIAN_POINT ( 'NONE',  ( 1.000000000000000000, 0.0000000000000000000, 0.0000000000000000000 ) ) ;
#179 = CIRCLE ( 'NONE', #29, 4.000000000000000000 ) ;
#180 = CARTESIAN_POINT ( 'NONE',  ( -48.50000000000000000, -2.969768487932331700E-015, 0.0000000000000000000 ) ) ;
#181 = PRODUCT_RELATED_PRODUCT_CATEGORY ( 'detail', '', ( #153 ) ) ;
#182 = CALENDAR_DATE ( 2023, 3, 7 ) ;
#183 = VERTEX_POINT ( 'NONE', #30 ) ;
#184 = EDGE_CURVE ( 'NONE', #251, #155, #146, .T. ) ;
#185 = FACE_OUTER_BOUND ( 'NONE', #238, .T. ) ;
#186 = ADVANCED_FACE ( 'NONE', ( #270 ), #194, .T. ) ;
#187 = DIRECTION ( 'NONE',  ( 0.0000000000000000000, 0.0000000000000000000, 1.000000000000000000 ) ) ;
#188 = DATE_AND_TIME ( #257, #330 ) ;
#189 = EDGE_LOOP ( 'NONE', ( #34, #356, #291, #333 ) ) ;
#190 = DIRECTION ( 'NONE',  ( 1.000000000000000000, 6.123233995736766000E-017, -0.0000000000000000000 ) ) ;
#191 =( LENGTH_UNIT ( ) NAMED_UNIT ( * ) SI_UNIT ( .MILLI., .METRE. ) );
#192 = APPROVAL_STATUS ( 'not_yet_approved' ) ;
#193 = AXIS2_PLACEMENT_3D ( 'NONE', #178, #253, #85 ) ;
#194 = CONICAL_SURFACE ( 'NONE', #176, 4.999999999999996400, 0.7853981633974533900 ) ;
#195 = DIRECTION ( 'NONE',  ( 1.000000000000000000, 6.123233995736766000E-017, -0.0000000000000000000 ) ) ;
#196 = VERTEX_POINT ( 'NONE', #227 ) ;
#197 = DIRECTION ( 'NONE',  ( -4.336808689942017700E-017, 1.000000000000000000, 0.0000000000000000000 ) ) ;
#198 = APPROVAL_DATE_TIME ( #263, #256 ) ;
#199 = ORIENTED_EDGE ( 'NONE', *, *, #122, .F. ) ;
#200 = EDGE_CURVE ( 'NONE', #183, #64, #354, .T. ) ;
#201 = DIRECTION ( 'NONE',  ( 0.0000000000000000000, 1.000000000000000000, 0.0000000000000000000 ) ) ;
#202 = CIRCLE ( 'NONE', #226, 4.999999999999999100 ) ;
#203 = CARTESIAN_POINT ( 'NONE',  ( -48.50000000000000000, -2.969768487932331700E-015, 0.0000000000000000000 ) ) ;
#204 = AXIS2_PLACEMENT_3D ( 'NONE', #351, #101, #295 ) ;
#205 = CARTESIAN_POINT ( 'NONE',  ( 0.0000000000000000000, 0.0000000000000000000, 0.0000000000000000000 ) ) ;
#206 = APPROVAL_PERSON_ORGANIZATION ( #276, #256, #20 ) ;
#207 = ORIENTED_EDGE ( 'NONE', *, *, #122, .T. ) ;
#208 = MANIFOLD_SOLID_BREP ( 'È¸Àü3', #106 ) ;
#209 = LINE ( 'NONE', #358, #60 ) ;
#210 = ADVANCED_FACE ( 'NONE', ( #336 ), #254, .T. ) ;
#211 = EDGE_LOOP ( 'NONE', ( #347, #27, #328, #69 ) ) ;
#212 = CARTESIAN_POINT ( 'NONE',  ( 0.0000000000000000000, 0.0000000000000000000, 0.0000000000000000000 ) ) ;
#213 = DIRECTION ( 'NONE',  ( -1.000000000000000000, -0.0000000000000000000, -0.0000000000000000000 ) ) ;
#214 = EDGE_CURVE ( 'NONE', #326, #64, #123, .T. ) ;
#215 =( NAMED_UNIT ( * ) SI_UNIT ( $, .STERADIAN. ) SOLID_ANGLE_UNIT ( ) );
#216 = CONICAL_SURFACE ( 'NONE', #320, 4.999999999999996400, 0.7853981633974533900 ) ;
#217 = PERSON_AND_ORGANIZATION_ROLE ( 'creator' ) ;
#218 = EDGE_LOOP ( 'NONE', ( #95, #277 ) ) ;
#219 = PLANE ( 'NONE',  #133 ) ;
#220 = CC_DESIGN_PERSON_AND_ORGANIZATION_ASSIGNMENT ( #346, #321, ( #153 ) ) ;
#221 = ORIENTED_EDGE ( 'NONE', *, *, #184, .F. ) ;
#222 = CARTESIAN_POINT ( 'NONE',  ( -48.50000000000000000, -4.999999999999999100, 6.123233995736762300E-016 ) ) ;
#223 = CALENDAR_DATE ( 2023, 3, 7 ) ;
#224 = FACE_OUTER_BOUND ( 'NONE', #149, .T. ) ;
#225 = CARTESIAN_POINT ( 'NONE',  ( -48.50000000000000000, -2.969768487932331700E-015, 0.0000000000000000000 ) ) ;
#226 = AXIS2_PLACEMENT_3D ( 'NONE', #306, #145, #334 ) ;
#227 = CARTESIAN_POINT ( 'NONE',  ( 0.9999999999999993300, -5.000000000000000000, 6.123233995736766300E-016 ) ) ;
#228 = DIRECTION ( 'NONE',  ( 0.0000000000000000000, 0.0000000000000000000, -1.000000000000000000 ) ) ;
#229 = DIRECTION ( 'NONE',  ( 1.000000000000000000, 6.123233995736766000E-017, -0.0000000000000000000 ) ) ;
#230 = VECTOR ( 'NONE', #190, 1000.000000000000000 ) ;
#231 = EDGE_LOOP ( 'NONE', ( #53, #207 ) ) ;
#232 = DATE_AND_TIME ( #303, #16 ) ;
#233 = EDGE_CURVE ( 'NONE', #349, #326, #202, .T. ) ;
#234 = LINE ( 'NONE', #168, #151 ) ;
#235 = ADVANCED_FACE ( 'NONE', ( #116 ), #49, .T. ) ;
#236 = CIRCLE ( 'NONE', #86, 5.000000000000000000 ) ;
#237 = PRODUCT_DEFINITION ( 'UNKNOWN', '', #329, #88 ) ;
#238 = EDGE_LOOP ( 'NONE', ( #243, #248 ) ) ;
#239 = DIRECTION ( 'NONE',  ( -6.123233995736766000E-017, 1.000000000000000000, 0.0000000000000000000 ) ) ;
#240 = DIRECTION ( 'NONE',  ( -1.000000000000000000, -0.0000000000000000000, -0.0000000000000000000 ) ) ;
#241 = PERSON_AND_ORGANIZATION ( #37, #63 ) ;
#242 = DIRECTION ( 'NONE',  ( 0.0000000000000000000, 0.0000000000000000000, 1.000000000000000000 ) ) ;
#243 = ORIENTED_EDGE ( 'NONE', *, *, #65, .F. ) ;
#244 = APPLICATION_PROTOCOL_DEFINITION ( 'international standard', 'config_control_design', 1994, #268 ) ;
#245 = APPROVAL_STATUS ( 'not_yet_approved' ) ;
#246 = AXIS2_PLACEMENT_3D ( 'NONE', #147, #282, #335 ) ;
#247 = TOROIDAL_SURFACE ( 'NONE', #126, 4.000000000000000000, 1.000000000000000000 ) ;
#248 = ORIENTED_EDGE ( 'NONE', *, *, #159, .F. ) ;
#249 = DIRECTION ( 'NONE',  ( 1.000000000000000000, 6.123233995736766000E-017, -0.0000000000000000000 ) ) ;
#250 = LOCAL_TIME ( 10, 15, 53.00000000000000000, #318 ) ;
#251 = VERTEX_POINT ( 'NONE', #222 ) ;
#252 = EDGE_CURVE ( 'NONE', #14, #129, #38, .T. ) ;
#253 = DIRECTION ( 'NONE',  ( -1.000000000000000000, -0.0000000000000000000, -0.0000000000000000000 ) ) ;
#254 = PLANE ( 'NONE',  #246 ) ;
#255 = CIRCLE ( 'NONE', #359, 1.000000000000000000 ) ;
#256 = APPROVAL ( #192, 'UNSPECIFIED' ) ;
#257 = CALENDAR_DATE ( 2023, 3, 7 ) ;
#258 = ORIENTED_EDGE ( 'NONE', *, *, #350, .F. ) ;
#259 = AXIS2_PLACEMENT_3D ( 'NONE', #281, #112, #322 ) ;
#260 = VECTOR ( 'NONE', #144, 1000.000000000000000 ) ;
#261 = ORIENTED_EDGE ( 'NONE', *, *, #292, .F. ) ;
#262 = ADVANCED_FACE ( 'NONE', ( #185 ), #57, .T. ) ;
#263 = DATE_AND_TIME ( #340, #55 ) ;
#264 = ORIENTED_EDGE ( 'NONE', *, *, #4, .F. ) ;
#265 = DIRECTION ( 'NONE',  ( 0.0000000000000000000, 0.0000000000000000000, 1.000000000000000000 ) ) ;
#266 = CARTESIAN_POINT ( 'NONE',  ( 50.00000000000000000, 0.0000000000000000000, 4.999999999999999100 ) ) ;
#267 = EDGE_CURVE ( 'NONE', #129, #326, #103, .T. ) ;
#268 = APPLICATION_CONTEXT ( 'configuration controlled 3d designs of mechanical parts and assemblies' ) ;
#269 = PERSON_AND_ORGANIZATION_ROLE ( 'creator' ) ;
#270 = FACE_OUTER_BOUND ( 'NONE', #100, .T. ) ;
#271 = DIRECTION ( 'NONE',  ( 0.7071067811865440200, 0.7071067811865511300, 0.0000000000000000000 ) ) ;
#272 = ORIENTED_EDGE ( 'NONE', *, *, #312, .T. ) ;
#273 = CARTESIAN_POINT ( 'NONE',  ( -48.50000000000000000, -2.969768487932331700E-015, 0.0000000000000000000 ) ) ;
#274 = CC_DESIGN_APPROVAL ( #256, ( #237 ) ) ;
#275 = DIRECTION ( 'NONE',  ( 0.0000000000000000000, 1.000000000000000000, 0.0000000000000000000 ) ) ;
#276 = PERSON_AND_ORGANIZATION ( #37, #63 ) ;
#277 = ORIENTED_EDGE ( 'NONE', *, *, #331, .T. ) ;
#278 = EDGE_CURVE ( 'NONE', #14, #349, #255, .T. ) ;
#279 = DIRECTION ( 'NONE',  ( -1.000000000000000000, -0.0000000000000000000, -0.0000000000000000000 ) ) ;
#280 = CARTESIAN_POINT ( 'NONE',  ( 0.0000000000000000000, 6.123233995736765300E-016, -4.999999999999999100 ) ) ;
#281 = CARTESIAN_POINT ( 'NONE',  ( 51.00000000000000700, 0.0000000000000000000, 0.0000000000000000000 ) ) ;
#282 = DIRECTION ( 'NONE',  ( 1.000000000000000000, 6.123233995736766000E-017, -0.0000000000000000000 ) ) ;
#283 = FACE_OUTER_BOUND ( 'NONE', #218, .T. ) ;
#284 = AXIS2_PLACEMENT_3D ( 'NONE', #173, #82, #175 ) ;
#285 = DIRECTION ( 'NONE',  ( 0.0000000000000000000, 1.000000000000000000, 0.0000000000000000000 ) ) ;
#286 = VERTEX_POINT ( 'NONE', #89 ) ;
#287 = AXIS2_PLACEMENT_3D ( 'NONE', #273, #75, #19 ) ;
#288 = CIRCLE ( 'NONE', #36, 5.000000000000000000 ) ;
#289 = ADVANCED_FACE ( 'NONE', ( #31 ), #93, .T. ) ;
#290 = CC_DESIGN_PERSON_AND_ORGANIZATION_ASSIGNMENT ( #120, #217, ( #237 ) ) ;
#291 = ORIENTED_EDGE ( 'NONE', *, *, #25, .F. ) ;
#292 = EDGE_CURVE ( 'NONE', #129, #14, #179, .T. ) ;
#293 = LOCAL_TIME ( 10, 15, 53.00000000000000000, #6 ) ;
#294 = CIRCLE ( 'NONE', #342, 4.499999999999998200 ) ;
#295 = DIRECTION ( 'NONE',  ( 1.000000000000000000, 0.0000000000000000000, 0.0000000000000000000 ) ) ;
#296 = DIRECTION ( 'NONE',  ( 6.123233995736766000E-017, -1.000000000000000000, 0.0000000000000000000 ) ) ;
#297 = SECURITY_CLASSIFICATION_LEVEL ( 'unclassified' ) ;
#298 = LINE ( 'NONE', #72, #230 ) ;
#299 = DIRECTION ( 'NONE',  ( -6.123233995736766000E-017, 1.000000000000000000, 0.0000000000000000000 ) ) ;
#300 = ORIENTED_EDGE ( 'NONE', *, *, #45, .T. ) ;
#301 = PLANE ( 'NONE',  #58 ) ;
#302 = DIRECTION ( 'NONE',  ( 0.0000000000000000000, -1.000000000000000000, 0.0000000000000000000 ) ) ;
#303 = CALENDAR_DATE ( 2023, 3, 7 ) ;
#304 = CIRCLE ( 'NONE', #305, 5.000000000000000000 ) ;
#305 = AXIS2_PLACEMENT_3D ( 'NONE', #141, #332, #171 ) ;
#306 = CARTESIAN_POINT ( 'NONE',  ( 50.00000000000000000, 0.0000000000000000000, 0.0000000000000000000 ) ) ;
#307 = DIRECTION ( 'NONE',  ( 1.000000000000000000, 6.123233995736766000E-017, -0.0000000000000000000 ) ) ;
#308 = DIRECTION ( 'NONE',  ( 1.000000000000000000, 6.123233995736766000E-017, -0.0000000000000000000 ) ) ;
#309 = FACE_OUTER_BOUND ( 'NONE', #28, .T. ) ;
#310 = CC_DESIGN_DATE_AND_TIME_ASSIGNMENT ( #188, #47, ( #237 ) ) ;
#311 = CARTESIAN_POINT ( 'NONE',  ( 51.00000000000000700, 0.0000000000000000000, 4.000000000000000000 ) ) ;
#312 = EDGE_CURVE ( 'NONE', #326, #349, #325, .T. ) ;
#313 = PERSON_AND_ORGANIZATION ( #37, #63 ) ;
#314 = ORIENTED_EDGE ( 'NONE', *, *, #252, .F. ) ;
#315 = AXIS2_PLACEMENT_3D ( 'NONE', #163, #352, #148 ) ;
#316 = FACE_OUTER_BOUND ( 'NONE', #140, .T. ) ;
#317 = ADVANCED_FACE ( 'NONE', ( #316 ), #169, .T. ) ;
#318 = COORDINATED_UNIVERSAL_TIME_OFFSET ( 9, 0, .AHEAD. ) ;
#319 = ORIENTED_EDGE ( 'NONE', *, *, #159, .T. ) ;
#320 = AXIS2_PLACEMENT_3D ( 'NONE', #180, #249, #275 ) ;
#321 = PERSON_AND_ORGANIZATION_ROLE ( 'design_owner' ) ;
#322 = DIRECTION ( 'NONE',  ( 0.0000000000000000000, 0.0000000000000000000, 1.000000000000000000 ) ) ;
#323 = DATE_TIME_ROLE ( 'classification_date' ) ;
#324 = DIRECTION ( 'NONE',  ( 0.7071067811865440200, -0.7071067811865511300, 8.659560562354978500E-017 ) ) ;
#325 = CIRCLE ( 'NONE', #11, 4.999999999999999100 ) ;
#326 = VERTEX_POINT ( 'NONE', #130 ) ;
#327 = DIRECTION ( 'NONE',  ( -0.0000000000000000000, 0.0000000000000000000, 1.000000000000000000 ) ) ;
#328 = ORIENTED_EDGE ( 'NONE', *, *, #233, .F. ) ;
#329 = PRODUCT_DEFINITION_FORMATION_WITH_SPECIFIED_SOURCE ( 'ANY', '', #153, .NOT_KNOWN. ) ;
#330 = LOCAL_TIME ( 10, 15, 53.00000000000000000, #42 ) ;
#331 = EDGE_CURVE ( 'NONE', #64, #183, #236, .T. ) ;
#332 = DIRECTION ( 'NONE',  ( 1.000000000000000000, 6.123233995736766000E-017, -0.0000000000000000000 ) ) ;
#333 = ORIENTED_EDGE ( 'NONE', *, *, #45, .F. ) ;
#334 = DIRECTION ( 'NONE',  ( 0.0000000000000000000, 0.0000000000000000000, 1.000000000000000000 ) ) ;
#335 = DIRECTION ( 'NONE',  ( -6.123233995736766000E-017, 1.000000000000000000, 0.0000000000000000000 ) ) ;
#336 = FACE_OUTER_BOUND ( 'NONE', #231, .T. ) ;
#337 = AXIS2_PLACEMENT_3D ( 'NONE', #177, #132, #296 ) ;
#338 = EDGE_LOOP ( 'NONE', ( #10, #272, #341, #363 ) ) ;
#339 = ORIENTED_EDGE ( 'NONE', *, *, #99, .T. ) ;
#340 = CALENDAR_DATE ( 2023, 3, 7 ) ;
#341 = ORIENTED_EDGE ( 'NONE', *, *, #143, .T. ) ;
#342 = AXIS2_PLACEMENT_3D ( 'NONE', #3, #195, #21 ) ;
#343 = CIRCLE ( 'NONE', #76, 4.499999999999998200 ) ;
#344 = ADVANCED_FACE ( 'NONE', ( #309 ), #247, .T. ) ;
#345 = APPROVAL ( #245, 'UNSPECIFIED' ) ;
#346 = PERSON_AND_ORGANIZATION ( #37, #63 ) ;
#347 = ORIENTED_EDGE ( 'NONE', *, *, #252, .T. ) ;
#348 = DIRECTION ( 'NONE',  ( -1.000000000000000000, -0.0000000000000000000, -0.0000000000000000000 ) ) ;
#349 = VERTEX_POINT ( 'NONE', #266 ) ;
#350 = EDGE_CURVE ( 'NONE', #251, #196, #298, .T. ) ;
#351 = CARTESIAN_POINT ( 'NONE',  ( 0.0000000000000000000, 0.0000000000000000000, 0.0000000000000000000 ) ) ;
#352 = DIRECTION ( 'NONE',  ( -0.0000000000000000000, 1.000000000000000000, 1.224646799147353200E-016 ) ) ;
#353 = APPLICATION_PROTOCOL_DEFINITION ( 'international standard', 'config_control_design', 1994, #164 ) ;
#354 = CIRCLE ( 'NONE', #193, 5.000000000000000000 ) ;
#355 = CARTESIAN_POINT ( 'NONE',  ( 51.00000000000000700, 5.510910596163088600E-016, -4.000000000000000000 ) ) ;
#356 = ORIENTED_EDGE ( 'NONE', *, *, #350, .T. ) ;
#357 = APPROVAL_ROLE ( '' ) ;
#358 = CARTESIAN_POINT ( 'NONE',  ( 0.0000000000000000000, 0.0000000000000000000, 4.999999999999999100 ) ) ;
#359 = AXIS2_PLACEMENT_3D ( 'NONE', #32, #302, #111 ) ;
#360 = DIRECTION ( 'NONE',  ( 1.000000000000000000, 6.123233995736766000E-017, -0.0000000000000000000 ) ) ;
#361 = ORIENTED_EDGE ( 'NONE', *, *, #81, .F. ) ;
#362 = VERTEX_POINT ( 'NONE', #161 ) ;
#363 = ORIENTED_EDGE ( 'NONE', *, *, #331, .F. ) ;
#364 = AXIS2_PLACEMENT_3D ( 'NONE', #24, #279, #104 ) ;
#365 = LINE ( 'NONE', #167, #74 ) ;
ENDSEC;
END-ISO-10303-21;
