ISO-10303-21;
HEADER;
FILE_DESCRIPTION (( 'STEP AP203' ),
    '1' );
FILE_NAME ('03-3069.STEP',
    '2023-07-03T01:16:08',
    ( 'USER' ),
    ( 'Hewlett-Packard Company' ),
    'SwSTEP 2.0',
    'SolidWorks 2014',
    '' );
FILE_SCHEMA (( 'CONFIG_CONTROL_DESIGN' ));
ENDSEC;

DATA;
#1 = CC_DESIGN_PERSON_AND_ORGANIZATION_ASSIGNMENT ( #46, #217, ( #315 ) ) ;
#2 = EDGE_LOOP ( 'NONE', ( #91, #342 ) ) ;
#3 = AXIS2_PLACEMENT_3D ( 'NONE', #227, #48, #253 ) ;
#4 =( LENGTH_UNIT ( ) NAMED_UNIT ( * ) SI_UNIT ( .MILLI., .METRE. ) );
#5 = APPROVAL_PERSON_ORGANIZATION ( #86, #201, #347 ) ;
#6 = LINE ( 'NONE', #164, #173 ) ;
#7 = APPROVAL_ROLE ( '' ) ;
#8 = DIRECTION ( 'NONE',  ( -1.000000000000000000, -0.0000000000000000000, -0.0000000000000000000 ) ) ;
#9 = AXIS2_PLACEMENT_3D ( 'NONE', #138, #328, #170 ) ;
#10 = CARTESIAN_POINT ( 'NONE',  ( 1.000000000000000000, 0.0000000000000000000, 0.0000000000000000000 ) ) ;
#11 = VERTEX_POINT ( 'NONE', #346 ) ;
#12 = CARTESIAN_POINT ( 'NONE',  ( 50.50000000000000000, 0.0000000000000000000, 0.0000000000000000000 ) ) ;
#13 = AXIS2_PLACEMENT_3D ( 'NONE', #81, #286, #20 ) ;
#14 = DIRECTION ( 'NONE',  ( -1.000000000000000000, -0.0000000000000000000, -0.0000000000000000000 ) ) ;
#15 = COORDINATED_UNIVERSAL_TIME_OFFSET ( 9, 0, .AHEAD. ) ;
#16 = FACE_OUTER_BOUND ( 'NONE', #36, .T. ) ;
#17 = DIRECTION ( 'NONE',  ( 1.000000000000000000, 6.123233995736766000E-017, -0.0000000000000000000 ) ) ;
#18 = CC_DESIGN_DATE_AND_TIME_ASSIGNMENT ( #120, #38, ( #315 ) ) ;
#19 = DIRECTION ( 'NONE',  ( 0.0000000000000000000, 1.000000000000000000, 0.0000000000000000000 ) ) ;
#20 = DIRECTION ( 'NONE',  ( -6.123233995736766000E-017, 1.000000000000000000, 0.0000000000000000000 ) ) ;
#21 = ADVANCED_FACE ( 'NONE', ( #16 ), #314, .T. ) ;
#22 = CARTESIAN_POINT ( 'NONE',  ( 1.000000000000000000, 0.0000000000000000000, 5.000000000000000000 ) ) ;
#23 = VERTEX_POINT ( 'NONE', #190 ) ;
#24 = AXIS2_PLACEMENT_3D ( 'NONE', #252, #73, #275 ) ;
#25 = AXIS2_PLACEMENT_3D ( 'NONE', #168, #352, #194 ) ;
#26 = DATE_AND_TIME ( #111, #186 ) ;
#27 = VERTEX_POINT ( 'NONE', #324 ) ;
#28 = PRODUCT_DEFINITION_SHAPE ( 'NONE', 'NONE',  #315 ) ;
#29 = DIRECTION ( 'NONE',  ( -1.000000000000000000, -0.0000000000000000000, -0.0000000000000000000 ) ) ;
#30 = AXIS2_PLACEMENT_3D ( 'NONE', #274, #106, #302 ) ;
#31 = TOROIDAL_SURFACE ( 'NONE', #35, 4.500000000000000900, 0.4999999999999995600 ) ;
#32 = EDGE_LOOP ( 'NONE', ( #284, #104, #291, #207 ) ) ;
#33 = CARTESIAN_POINT ( 'NONE',  ( 51.00000000000000700, 0.0000000000000000000, 0.0000000000000000000 ) ) ;
#34 = PERSON_AND_ORGANIZATION ( #290, #353 ) ;
#35 = AXIS2_PLACEMENT_3D ( 'NONE', #61, #29, #125 ) ;
#36 = EDGE_LOOP ( 'NONE', ( #327, #225, #331, #336 ) ) ;
#37 =( NAMED_UNIT ( * ) SI_UNIT ( $, .STERADIAN. ) SOLID_ANGLE_UNIT ( ) );
#38 = DATE_TIME_ROLE ( 'creation_date' ) ;
#39 = AXIS2_PLACEMENT_3D ( 'NONE', #12, #224, #44 ) ;
#40 = PRODUCT_DEFINITION_FORMATION_WITH_SPECIFIED_SOURCE ( 'ANY', '', #266, .NOT_KNOWN. ) ;
#41 = DIRECTION ( 'NONE',  ( -1.000000000000000000, -0.0000000000000000000, -0.0000000000000000000 ) ) ;
#42 = VECTOR ( 'NONE', #175, 999.9999999999998900 ) ;
#43 = DIRECTION ( 'NONE',  ( 0.0000000000000000000, 0.0000000000000000000, 1.000000000000000000 ) ) ;
#44 = DIRECTION ( 'NONE',  ( 0.0000000000000000000, 0.0000000000000000000, 1.000000000000000000 ) ) ;
#45 = AXIS2_PLACEMENT_3D ( 'NONE', #325, #273, #351 ) ;
#46 = PERSON_AND_ORGANIZATION ( #290, #353 ) ;
#47 = ORIENTED_EDGE ( 'NONE', *, *, #135, .T. ) ;
#48 = DIRECTION ( 'NONE',  ( -1.000000000000000000, -0.0000000000000000000, -0.0000000000000000000 ) ) ;
#49 = AXIS2_PLACEMENT_3D ( 'NONE', #101, #248, #70 ) ;
#50 = DIRECTION ( 'NONE',  ( -6.123233995736766000E-017, 1.000000000000000000, 0.0000000000000000000 ) ) ;
#51 = VECTOR ( 'NONE', #356, 1000.000000000000000 ) ;
#52 = DIRECTION ( 'NONE',  ( 1.000000000000000000, 6.123233995736766000E-017, -0.0000000000000000000 ) ) ;
#53 = AXIS2_PLACEMENT_3D ( 'NONE', #10, #223, #43 ) ;
#54 = ADVANCED_FACE ( 'NONE', ( #246 ), #222, .T. ) ;
#55 = COORDINATED_UNIVERSAL_TIME_OFFSET ( 9, 0, .AHEAD. ) ;
#56 = ORIENTED_EDGE ( 'NONE', *, *, #110, .F. ) ;
#57 = AXIS2_PLACEMENT_3D ( 'NONE', #299, #8, #350 ) ;
#58 = APPROVAL ( #247, 'UNSPECIFIED' ) ;
#59 = LINE ( 'NONE', #355, #348 ) ;
#60 = ORIENTED_EDGE ( 'NONE', *, *, #169, .F. ) ;
#61 = CARTESIAN_POINT ( 'NONE',  ( 50.50000000000000000, 0.0000000000000000000, 0.0000000000000000000 ) ) ;
#62 = SHAPE_DEFINITION_REPRESENTATION ( #28, #153 ) ;
#63 = ORIENTED_EDGE ( 'NONE', *, *, #162, .T. ) ;
#64 = DIRECTION ( 'NONE',  ( -0.0000000000000000000, 0.0000000000000000000, 1.000000000000000000 ) ) ;
#65 = CARTESIAN_POINT ( 'NONE',  ( 51.00000000000000700, 0.0000000000000000000, 4.500000000000000900 ) ) ;
#66 = EDGE_CURVE ( 'NONE', #27, #214, #6, .T. ) ;
#67 = APPLICATION_PROTOCOL_DEFINITION ( 'international standard', 'config_control_design', 1994, #97 ) ;
#68 = APPROVAL_ROLE ( '' ) ;
#69 = CONICAL_SURFACE ( 'NONE', #45, 4.999999999999996400, 0.7853981633974533900 ) ;
#70 = DIRECTION ( 'NONE',  ( 6.123233995736766000E-017, -1.000000000000000000, 0.0000000000000000000 ) ) ;
#71 = EDGE_CURVE ( 'NONE', #214, #11, #96, .T. ) ;
#72 = EDGE_LOOP ( 'NONE', ( #179, #56 ) ) ;
#73 = DIRECTION ( 'NONE',  ( 0.0000000000000000000, -1.000000000000000000, 0.0000000000000000000 ) ) ;
#74 = AXIS2_PLACEMENT_3D ( 'NONE', #33, #242, #64 ) ;
#75 = DATE_AND_TIME ( #158, #237 ) ;
#76 = CIRCLE ( 'NONE', #30, 4.500000000000000900 ) ;
#77 = DIRECTION ( 'NONE',  ( 1.000000000000000000, 6.123233995736766000E-017, -0.0000000000000000000 ) ) ;
#78 = EDGE_CURVE ( 'NONE', #118, #11, #87, .T. ) ;
#79 = ORIENTED_EDGE ( 'NONE', *, *, #85, .T. ) ;
#80 = CC_DESIGN_APPROVAL ( #58, ( #40 ) ) ;
#81 = CARTESIAN_POINT ( 'NONE',  ( 0.0000000000000000000, 0.0000000000000000000, 0.0000000000000000000 ) ) ;
#82 = ADVANCED_FACE ( 'NONE', ( #238 ), #69, .T. ) ;
#83 = VERTEX_POINT ( 'NONE', #300 ) ;
#84 = EDGE_CURVE ( 'NONE', #27, #118, #306, .T. ) ;
#85 = EDGE_CURVE ( 'NONE', #354, #349, #76, .T. ) ;
#86 = PERSON_AND_ORGANIZATION ( #290, #353 ) ;
#87 = LINE ( 'NONE', #193, #159 ) ;
#88 = EDGE_LOOP ( 'NONE', ( #260, #149, #263, #265 ) ) ;
#89 = EDGE_CURVE ( 'NONE', #349, #118, #297, .T. ) ;
#90 = FACE_OUTER_BOUND ( 'NONE', #32, .T. ) ;
#91 = ORIENTED_EDGE ( 'NONE', *, *, #148, .F. ) ;
#92 = CARTESIAN_POINT ( 'NONE',  ( 0.0000000000000000000, 0.0000000000000000000, 0.0000000000000000000 ) ) ;
#93 = CARTESIAN_POINT ( 'NONE',  ( 0.9999999999999993300, 5.000000000000000000, 0.0000000000000000000 ) ) ;
#94 =( GEOMETRIC_REPRESENTATION_CONTEXT ( 3 ) GLOBAL_UNCERTAINTY_ASSIGNED_CONTEXT ( ( #219 ) ) GLOBAL_UNIT_ASSIGNED_CONTEXT ( ( #4, #216, #37 ) ) REPRESENTATION_CONTEXT ( 'NONE', 'WORKASPACE' ) );
#95 = PERSON_AND_ORGANIZATION ( #290, #353 ) ;
#96 = CIRCLE ( 'NONE', #53, 5.000000000000000000 ) ;
#97 = APPLICATION_CONTEXT ( 'configuration controlled 3d designs of mechanical parts and assemblies' ) ;
#98 = VERTEX_POINT ( 'NONE', #165 ) ;
#99 = PERSON_AND_ORGANIZATION_ROLE ( 'design_supplier' ) ;
#100 = CC_DESIGN_PERSON_AND_ORGANIZATION_ASSIGNMENT ( #254, #271, ( #40 ) ) ;
#101 = CARTESIAN_POINT ( 'NONE',  ( -49.00000000000000000, -3.000384657911015500E-015, 0.0000000000000000000 ) ) ;
#102 = DIRECTION ( 'NONE',  ( -1.000000000000000000, -0.0000000000000000000, -0.0000000000000000000 ) ) ;
#103 = CYLINDRICAL_SURFACE ( 'NONE', #13, 5.000000000000000000 ) ;
#104 = ORIENTED_EDGE ( 'NONE', *, *, #78, .T. ) ;
#105 = PLANE ( 'NONE',  #205 ) ;
#106 = DIRECTION ( 'NONE',  ( -1.000000000000000000, -0.0000000000000000000, -0.0000000000000000000 ) ) ;
#107 = EDGE_CURVE ( 'NONE', #354, #27, #230, .T. ) ;
#108 = CARTESIAN_POINT ( 'NONE',  ( 1.000000000000000400, 1.734723475976808600E-016, 0.0000000000000000000 ) ) ;
#109 = DIRECTION ( 'NONE',  ( 0.0000000000000000000, 0.0000000000000000000, -1.000000000000000000 ) ) ;
#110 = EDGE_CURVE ( 'NONE', #349, #354, #365, .T. ) ;
#111 = CALENDAR_DATE ( 2023, 3, 7 ) ;
#112 = VERTEX_POINT ( 'NONE', #251 ) ;
#113 = ORIENTED_EDGE ( 'NONE', *, *, #123, .T. ) ;
#114 = CARTESIAN_POINT ( 'NONE',  ( 0.0000000000000000000, 0.0000000000000000000, 0.0000000000000000000 ) ) ;
#115 = FACE_OUTER_BOUND ( 'NONE', #278, .T. ) ;
#116 = CARTESIAN_POINT ( 'NONE',  ( -48.50000000000000000, -2.969768487932331700E-015, 0.0000000000000000000 ) ) ;
#117 = EDGE_CURVE ( 'NONE', #118, #27, #357, .T. ) ;
#118 = VERTEX_POINT ( 'NONE', #303 ) ;
#119 = ADVANCED_FACE ( 'NONE', ( #143 ), #105, .F. ) ;
#120 = DATE_AND_TIME ( #195, #268 ) ;
#121 = ORIENTED_EDGE ( 'NONE', *, *, #142, .T. ) ;
#122 = AXIS2_PLACEMENT_3D ( 'NONE', #92, #292, #267 ) ;
#123 = EDGE_CURVE ( 'NONE', #11, #214, #289, .T. ) ;
#124 = CC_DESIGN_PERSON_AND_ORGANIZATION_ASSIGNMENT ( #180, #99, ( #40 ) ) ;
#125 = DIRECTION ( 'NONE',  ( 0.0000000000000000000, 0.0000000000000000000, 1.000000000000000000 ) ) ;
#126 = CYLINDRICAL_SURFACE ( 'NONE', #293, 5.000000000000000000 ) ;
#127 = EDGE_CURVE ( 'NONE', #83, #98, #59, .T. ) ;
#128 = APPROVAL_DATE_TIME ( #206, #333 ) ;
#129 = ORIENTED_EDGE ( 'NONE', *, *, #71, .T. ) ;
#130 = DIRECTION ( 'NONE',  ( -6.123233995736766000E-017, 1.000000000000000000, 0.0000000000000000000 ) ) ;
#131 = EDGE_CURVE ( 'NONE', #210, #83, #151, .T. ) ;
#132 = MECHANICAL_CONTEXT ( 'NONE', #97, 'mechanical' ) ;
#133 = PERSON_AND_ORGANIZATION_ROLE ( 'classification_officer' ) ;
#134 = LINE ( 'NONE', #141, #42 ) ;
#135 = EDGE_CURVE ( 'NONE', #339, #98, #218, .T. ) ;
#136 = APPROVAL_PERSON_ORGANIZATION ( #213, #333, #7 ) ;
#137 = ORIENTED_EDGE ( 'NONE', *, *, #84, .F. ) ;
#138 = CARTESIAN_POINT ( 'NONE',  ( 51.00000000000000700, 0.0000000000000000000, 0.0000000000000000000 ) ) ;
#139 = DIRECTION ( 'NONE',  ( 1.000000000000000000, 6.123233995736766000E-017, -0.0000000000000000000 ) ) ;
#140 = DIRECTION ( 'NONE',  ( 1.000000000000000000, 6.123233995736766000E-017, -0.0000000000000000000 ) ) ;
#141 = CARTESIAN_POINT ( 'NONE',  ( -48.50000000000000000, -4.999999999999999100, 6.123233995736762300E-016 ) ) ;
#142 = EDGE_CURVE ( 'NONE', #210, #339, #283, .T. ) ;
#143 = FACE_OUTER_BOUND ( 'NONE', #362, .T. ) ;
#144 = SECURITY_CLASSIFICATION ( '', '', #298 ) ;
#145 = ORIENTED_EDGE ( 'NONE', *, *, #131, .F. ) ;
#146 = ADVANCED_FACE ( 'NONE', ( #209 ), #126, .T. ) ;
#147 = DIRECTION ( 'NONE',  ( 0.0000000000000000000, 1.000000000000000000, 0.0000000000000000000 ) ) ;
#148 = EDGE_CURVE ( 'NONE', #112, #23, #202, .T. ) ;
#149 = ORIENTED_EDGE ( 'NONE', *, *, #127, .T. ) ;
#150 = EDGE_CURVE ( 'NONE', #23, #83, #134, .T. ) ;
#151 = CIRCLE ( 'NONE', #226, 4.999999999999996400 ) ;
#152 = ORIENTED_EDGE ( 'NONE', *, *, #89, .T. ) ;
#153 = ADVANCED_BREP_SHAPE_REPRESENTATION ( '03-3069', ( #212, #282, #280 ), #94 ) ;
#154 = AXIS2_PLACEMENT_3D ( 'NONE', #197, #14, #228 ) ;
#155 = ORIENTED_EDGE ( 'NONE', *, *, #182, .T. ) ;
#156 = DIRECTION ( 'NONE',  ( 0.0000000000000000000, 0.0000000000000000000, 1.000000000000000000 ) ) ;
#157 = APPLICATION_CONTEXT ( 'configuration controlled 3d designs of mechanical parts and assemblies' ) ;
#158 = CALENDAR_DATE ( 2023, 3, 7 ) ;
#159 = VECTOR ( 'NONE', #41, 1000.000000000000000 ) ;
#160 = ORIENTED_EDGE ( 'NONE', *, *, #169, .T. ) ;
#161 = APPROVAL_STATUS ( 'not_yet_approved' ) ;
#162 = EDGE_CURVE ( 'NONE', #112, #210, #272, .T. ) ;
#163 = CC_DESIGN_PERSON_AND_ORGANIZATION_ASSIGNMENT ( #95, #133, ( #144 ) ) ;
#164 = CARTESIAN_POINT ( 'NONE',  ( 0.0000000000000000000, 0.0000000000000000000, 4.999999999999999100 ) ) ;
#165 = CARTESIAN_POINT ( 'NONE',  ( 0.9999999999999993300, -5.000000000000000000, 6.123233995736766300E-016 ) ) ;
#166 = CYLINDRICAL_SURFACE ( 'NONE', #188, 4.999999999999999100 ) ;
#167 = ORIENTED_EDGE ( 'NONE', *, *, #162, .F. ) ;
#168 = CARTESIAN_POINT ( 'NONE',  ( 50.50000000000000000, 5.510910596163089600E-016, -4.500000000000000900 ) ) ;
#169 = EDGE_CURVE ( 'NONE', #98, #339, #335, .T. ) ;
#170 = DIRECTION ( 'NONE',  ( 0.0000000000000000000, 0.0000000000000000000, 1.000000000000000000 ) ) ;
#171 = EDGE_CURVE ( 'NONE', #23, #112, #340, .T. ) ;
#172 = DATE_AND_TIME ( #245, #313 ) ;
#173 = VECTOR ( 'NONE', #102, 1000.000000000000000 ) ;
#174 = CARTESIAN_POINT ( 'NONE',  ( -3.061616997868383100E-016, 5.000000000000000000, 0.0000000000000000000 ) ) ;
#175 = DIRECTION ( 'NONE',  ( 0.7071067811865440200, -0.7071067811865511300, 8.659560562354978500E-017 ) ) ;
#176 = DIRECTION ( 'NONE',  ( 1.000000000000000000, 6.123233995736766000E-017, -0.0000000000000000000 ) ) ;
#177 = DIRECTION ( 'NONE',  ( 1.000000000000000000, 6.123233995736766000E-017, -0.0000000000000000000 ) ) ;
#178 = CONICAL_SURFACE ( 'NONE', #363, 4.999999999999996400, 0.7853981633974533900 ) ;
#179 = ORIENTED_EDGE ( 'NONE', *, *, #85, .F. ) ;
#180 = PERSON_AND_ORGANIZATION ( #290, #353 ) ;
#181 = ORIENTED_EDGE ( 'NONE', *, *, #150, .F. ) ;
#182 = EDGE_CURVE ( 'NONE', #83, #210, #191, .T. ) ;
#183 = CC_DESIGN_DATE_AND_TIME_ASSIGNMENT ( #172, #323, ( #144 ) ) ;
#184 = ORIENTED_EDGE ( 'NONE', *, *, #171, .T. ) ;
#185 = CARTESIAN_POINT ( 'NONE',  ( 0.0000000000000000000, 0.0000000000000000000, 0.0000000000000000000 ) ) ;
#186 = LOCAL_TIME ( 10, 16, 8.000000000000000000, #262 ) ;
#187 = ORIENTED_EDGE ( 'NONE', *, *, #182, .F. ) ;
#188 = AXIS2_PLACEMENT_3D ( 'NONE', #185, #318, #343 ) ;
#189 = APPROVAL_STATUS ( 'not_yet_approved' ) ;
#190 = CARTESIAN_POINT ( 'NONE',  ( -48.99999999999999300, -4.500000000000000900, 5.817072295949924500E-016 ) ) ;
#191 = CIRCLE ( 'NONE', #329, 4.999999999999996400 ) ;
#192 = ORIENTED_EDGE ( 'NONE', *, *, #127, .F. ) ;
#193 = CARTESIAN_POINT ( 'NONE',  ( 0.0000000000000000000, 6.123233995736765300E-016, -4.999999999999999100 ) ) ;
#194 = DIRECTION ( 'NONE',  ( 0.0000000000000000000, -1.224646799147353500E-016, 1.000000000000000000 ) ) ;
#195 = CALENDAR_DATE ( 2023, 3, 7 ) ;
#196 = ORIENTED_EDGE ( 'NONE', *, *, #150, .T. ) ;
#197 = CARTESIAN_POINT ( 'NONE',  ( 1.000000000000000000, 0.0000000000000000000, 0.0000000000000000000 ) ) ;
#198 = CARTESIAN_POINT ( 'NONE',  ( 0.9999999999999991100, 6.123233995736761100E-017, 0.0000000000000000000 ) ) ;
#199 = DESIGN_CONTEXT ( 'detailed design', #157, 'design' ) ;
#200 = DIRECTION ( 'NONE',  ( 1.000000000000000000, 6.123233995736766000E-017, -0.0000000000000000000 ) ) ;
#201 = APPROVAL ( #161, 'UNSPECIFIED' ) ;
#202 = CIRCLE ( 'NONE', #277, 4.499999999999998200 ) ;
#203 = DIRECTION ( 'NONE',  ( 0.0000000000000000000, 1.000000000000000000, 0.0000000000000000000 ) ) ;
#204 = ADVANCED_FACE ( 'NONE', ( #326 ), #103, .T. ) ;
#205 = AXIS2_PLACEMENT_3D ( 'NONE', #108, #279, #109 ) ;
#206 = DATE_AND_TIME ( #276, #341 ) ;
#207 = ORIENTED_EDGE ( 'NONE', *, *, #66, .F. ) ;
#208 = AXIS2_PLACEMENT_3D ( 'NONE', #93, #294, #130 ) ;
#209 = FACE_OUTER_BOUND ( 'NONE', #250, .T. ) ;
#210 = VERTEX_POINT ( 'NONE', #361 ) ;
#211 = PLANE ( 'NONE',  #74 ) ;
#212 = MANIFOLD_SOLID_BREP ( 'È¸Àü3', #255 ) ;
#213 = PERSON_AND_ORGANIZATION ( #290, #353 ) ;
#214 = VERTEX_POINT ( 'NONE', #22 ) ;
#215 = CARTESIAN_POINT ( 'NONE',  ( 0.9999999999999988900, 5.000000000000000000, 0.0000000000000000000 ) ) ;
#216 =( NAMED_UNIT ( * ) PLANE_ANGLE_UNIT ( ) SI_UNIT ( $, .RADIAN. ) );
#217 = PERSON_AND_ORGANIZATION_ROLE ( 'creator' ) ;
#218 = CIRCLE ( 'NONE', #243, 5.000000000000000000 ) ;
#219 = UNCERTAINTY_MEASURE_WITH_UNIT (LENGTH_MEASURE( 1.000000000000000100E-005 ), #4, 'distance_accuracy_value', 'NONE');
#220 = ORIENTED_EDGE ( 'NONE', *, *, #66, .T. ) ;
#221 = CC_DESIGN_APPROVAL ( #201, ( #144 ) ) ;
#222 = PLANE ( 'NONE',  #49 ) ;
#223 = DIRECTION ( 'NONE',  ( -1.000000000000000000, -0.0000000000000000000, -0.0000000000000000000 ) ) ;
#224 = DIRECTION ( 'NONE',  ( -1.000000000000000000, -0.0000000000000000000, -0.0000000000000000000 ) ) ;
#225 = ORIENTED_EDGE ( 'NONE', *, *, #110, .T. ) ;
#226 = AXIS2_PLACEMENT_3D ( 'NONE', #304, #140, #332 ) ;
#227 = CARTESIAN_POINT ( 'NONE',  ( 50.50000000000000000, 0.0000000000000000000, 0.0000000000000000000 ) ) ;
#228 = DIRECTION ( 'NONE',  ( 0.0000000000000000000, 0.0000000000000000000, 1.000000000000000000 ) ) ;
#229 = DIRECTION ( 'NONE',  ( -4.336808689942017700E-017, 1.000000000000000000, 0.0000000000000000000 ) ) ;
#230 = CIRCLE ( 'NONE', #24, 0.4999999999999995600 ) ;
#231 = CLOSED_SHELL ( 'NONE', ( #204, #82, #360, #54, #234, #146 ) ) ;
#232 = CARTESIAN_POINT ( 'NONE',  ( -48.50000000000000000, 4.999999999999993800, 0.0000000000000000000 ) ) ;
#233 = CARTESIAN_POINT ( 'NONE',  ( -48.99999999999999300, -3.000384657911015100E-015, 0.0000000000000000000 ) ) ;
#234 = ADVANCED_FACE ( 'NONE', ( #115 ), #178, .T. ) ;
#235 = CARTESIAN_POINT ( 'NONE',  ( -48.50000000000000000, -2.969768487932331700E-015, 0.0000000000000000000 ) ) ;
#236 = ORIENTED_EDGE ( 'NONE', *, *, #148, .T. ) ;
#237 = LOCAL_TIME ( 10, 16, 8.000000000000000000, #305 ) ;
#238 = FACE_OUTER_BOUND ( 'NONE', #307, .T. ) ;
#239 = CC_DESIGN_SECURITY_CLASSIFICATION ( #144, ( #40 ) ) ;
#240 = FACE_OUTER_BOUND ( 'NONE', #288, .T. ) ;
#241 = ORIENTED_EDGE ( 'NONE', *, *, #123, .F. ) ;
#242 = DIRECTION ( 'NONE',  ( -1.000000000000000000, 0.0000000000000000000, -0.0000000000000000000 ) ) ;
#243 = AXIS2_PLACEMENT_3D ( 'NONE', #198, #17, #229 ) ;
#244 = CARTESIAN_POINT ( 'NONE',  ( 51.00000000000000700, 5.817072295949928400E-016, -4.500000000000000900 ) ) ;
#245 = CALENDAR_DATE ( 2023, 3, 7 ) ;
#246 = FACE_OUTER_BOUND ( 'NONE', #2, .T. ) ;
#247 = APPROVAL_STATUS ( 'not_yet_approved' ) ;
#248 = DIRECTION ( 'NONE',  ( -1.000000000000000000, -6.123233995736766000E-017, 0.0000000000000000000 ) ) ;
#249 = FACE_OUTER_BOUND ( 'NONE', #317, .T. ) ;
#250 = EDGE_LOOP ( 'NONE', ( #192, #155, #121, #60 ) ) ;
#251 = CARTESIAN_POINT ( 'NONE',  ( -48.99999999999999300, 4.499999999999995600, 0.0000000000000000000 ) ) ;
#252 = CARTESIAN_POINT ( 'NONE',  ( 50.50000000000000000, 0.0000000000000000000, 4.500000000000000900 ) ) ;
#253 = DIRECTION ( 'NONE',  ( 0.0000000000000000000, 0.0000000000000000000, 1.000000000000000000 ) ) ;
#254 = PERSON_AND_ORGANIZATION ( #290, #353 ) ;
#255 = CLOSED_SHELL ( 'NONE', ( #337, #259, #21, #310, #119, #285 ) ) ;
#256 = PRODUCT_RELATED_PRODUCT_CATEGORY ( 'detail', '', ( #266 ) ) ;
#257 = DIRECTION ( 'NONE',  ( 0.0000000000000000000, 1.000000000000000000, 0.0000000000000000000 ) ) ;
#258 = FACE_OUTER_BOUND ( 'NONE', #72, .T. ) ;
#259 = ADVANCED_FACE ( 'NONE', ( #316 ), #31, .T. ) ;
#260 = ORIENTED_EDGE ( 'NONE', *, *, #131, .T. ) ;
#261 = AXIS2_PLACEMENT_3D ( 'NONE', #334, #176, #359 ) ;
#262 = COORDINATED_UNIVERSAL_TIME_OFFSET ( 9, 0, .AHEAD. ) ;
#263 = ORIENTED_EDGE ( 'NONE', *, *, #135, .F. ) ;
#264 = VECTOR ( 'NONE', #281, 999.9999999999998900 ) ;
#265 = ORIENTED_EDGE ( 'NONE', *, *, #142, .F. ) ;
#266 = PRODUCT ( '03-3069', '03-3069', '', ( #132 ) ) ;
#267 = DIRECTION ( 'NONE',  ( 0.0000000000000000000, 0.0000000000000000000, 1.000000000000000000 ) ) ;
#268 = LOCAL_TIME ( 10, 16, 8.000000000000000000, #338 ) ;
#269 = ORIENTED_EDGE ( 'NONE', *, *, #117, .T. ) ;
#270 = PLANE ( 'NONE',  #208 ) ;
#271 = PERSON_AND_ORGANIZATION_ROLE ( 'creator' ) ;
#272 = LINE ( 'NONE', #232, #264 ) ;
#273 = DIRECTION ( 'NONE',  ( 1.000000000000000000, 6.123233995736766000E-017, -0.0000000000000000000 ) ) ;
#274 = CARTESIAN_POINT ( 'NONE',  ( 51.00000000000000700, 0.0000000000000000000, 0.0000000000000000000 ) ) ;
#275 = DIRECTION ( 'NONE',  ( 0.0000000000000000000, 0.0000000000000000000, -1.000000000000000000 ) ) ;
#276 = CALENDAR_DATE ( 2023, 3, 7 ) ;
#277 = AXIS2_PLACEMENT_3D ( 'NONE', #358, #200, #19 ) ;
#278 = EDGE_LOOP ( 'NONE', ( #181, #184, #63, #187 ) ) ;
#279 = DIRECTION ( 'NONE',  ( 1.000000000000000000, 0.0000000000000000000, 0.0000000000000000000 ) ) ;
#280 = AXIS2_PLACEMENT_3D ( 'NONE', #319, #156, #295 ) ;
#281 = DIRECTION ( 'NONE',  ( 0.7071067811865440200, 0.7071067811865511300, 0.0000000000000000000 ) ) ;
#282 = MANIFOLD_SOLID_BREP ( 'È¸Àü4', #231 ) ;
#283 = LINE ( 'NONE', #174, #51 ) ;
#284 = ORIENTED_EDGE ( 'NONE', *, *, #84, .T. ) ;
#285 = ADVANCED_FACE ( 'NONE', ( #258 ), #211, .F. ) ;
#286 = DIRECTION ( 'NONE',  ( 1.000000000000000000, 6.123233995736766000E-017, -0.0000000000000000000 ) ) ;
#287 = PERSON_AND_ORGANIZATION ( #290, #353 ) ;
#288 = EDGE_LOOP ( 'NONE', ( #47, #160 ) ) ;
#289 = CIRCLE ( 'NONE', #154, 5.000000000000000000 ) ;
#290 = PERSON ( 'UNSPECIFIED', 'UNSPECIFIED', 'UNSPECIFIED', ('UNSPECIFIED'), ('UNSPECIFIED'), ('UNSPECIFIED') ) ;
#291 = ORIENTED_EDGE ( 'NONE', *, *, #71, .F. ) ;
#292 = DIRECTION ( 'NONE',  ( -1.000000000000000000, -0.0000000000000000000, -0.0000000000000000000 ) ) ;
#293 = AXIS2_PLACEMENT_3D ( 'NONE', #114, #77, #50 ) ;
#294 = DIRECTION ( 'NONE',  ( 1.000000000000000000, 6.123233995736766000E-017, -0.0000000000000000000 ) ) ;
#295 = DIRECTION ( 'NONE',  ( 1.000000000000000000, 0.0000000000000000000, 0.0000000000000000000 ) ) ;
#296 = CC_DESIGN_PERSON_AND_ORGANIZATION_ASSIGNMENT ( #287, #322, ( #266 ) ) ;
#297 = CIRCLE ( 'NONE', #25, 0.4999999999999995600 ) ;
#298 = SECURITY_CLASSIFICATION_LEVEL ( 'unclassified' ) ;
#299 = CARTESIAN_POINT ( 'NONE',  ( 50.50000000000000000, 0.0000000000000000000, 0.0000000000000000000 ) ) ;
#300 = CARTESIAN_POINT ( 'NONE',  ( -48.50000000000000000, -4.999999999999999100, 6.123233995736762300E-016 ) ) ;
#301 = ORIENTED_EDGE ( 'NONE', *, *, #78, .F. ) ;
#302 = DIRECTION ( 'NONE',  ( 0.0000000000000000000, 0.0000000000000000000, 1.000000000000000000 ) ) ;
#303 = CARTESIAN_POINT ( 'NONE',  ( 50.50000000000000000, 6.123233995736766300E-016, -4.999999999999999100 ) ) ;
#304 = CARTESIAN_POINT ( 'NONE',  ( -48.50000000000000000, -2.969768487932331700E-015, 0.0000000000000000000 ) ) ;
#305 = COORDINATED_UNIVERSAL_TIME_OFFSET ( 9, 0, .AHEAD. ) ;
#306 = CIRCLE ( 'NONE', #39, 4.999999999999999100 ) ;
#307 = EDGE_LOOP ( 'NONE', ( #236, #196, #145, #167 ) ) ;
#308 = DIRECTION ( 'NONE',  ( 1.000000000000000000, 6.123233995736766000E-017, -0.0000000000000000000 ) ) ;
#309 = CYLINDRICAL_SURFACE ( 'NONE', #122, 4.999999999999999100 ) ;
#310 = ADVANCED_FACE ( 'NONE', ( #249 ), #309, .T. ) ;
#311 = EDGE_LOOP ( 'NONE', ( #79, #152, #137, #321 ) ) ;
#312 = AXIS2_PLACEMENT_3D ( 'NONE', #233, #52, #257 ) ;
#313 = LOCAL_TIME ( 10, 16, 8.000000000000000000, #15 ) ;
#314 = TOROIDAL_SURFACE ( 'NONE', #57, 4.500000000000000900, 0.4999999999999995600 ) ;
#315 = PRODUCT_DEFINITION ( 'UNKNOWN', '', #40, #199 ) ;
#316 = FACE_OUTER_BOUND ( 'NONE', #311, .T. ) ;
#317 = EDGE_LOOP ( 'NONE', ( #301, #269, #220, #241 ) ) ;
#318 = DIRECTION ( 'NONE',  ( -1.000000000000000000, -0.0000000000000000000, -0.0000000000000000000 ) ) ;
#319 = CARTESIAN_POINT ( 'NONE',  ( 0.0000000000000000000, 0.0000000000000000000, 0.0000000000000000000 ) ) ;
#320 = APPROVAL_DATE_TIME ( #26, #58 ) ;
#321 = ORIENTED_EDGE ( 'NONE', *, *, #107, .F. ) ;
#322 = PERSON_AND_ORGANIZATION_ROLE ( 'design_owner' ) ;
#323 = DATE_TIME_ROLE ( 'classification_date' ) ;
#324 = CARTESIAN_POINT ( 'NONE',  ( 50.50000000000000000, 0.0000000000000000000, 4.999999999999999100 ) ) ;
#325 = CARTESIAN_POINT ( 'NONE',  ( -48.50000000000000000, -2.969768487932331700E-015, 0.0000000000000000000 ) ) ;
#326 = FACE_OUTER_BOUND ( 'NONE', #88, .T. ) ;
#327 = ORIENTED_EDGE ( 'NONE', *, *, #89, .F. ) ;
#328 = DIRECTION ( 'NONE',  ( -1.000000000000000000, -0.0000000000000000000, -0.0000000000000000000 ) ) ;
#329 = AXIS2_PLACEMENT_3D ( 'NONE', #116, #308, #147 ) ;
#330 = APPROVAL_PERSON_ORGANIZATION ( #34, #58, #68 ) ;
#331 = ORIENTED_EDGE ( 'NONE', *, *, #107, .T. ) ;
#332 = DIRECTION ( 'NONE',  ( 0.0000000000000000000, 1.000000000000000000, 0.0000000000000000000 ) ) ;
#333 = APPROVAL ( #189, 'UNSPECIFIED' ) ;
#334 = CARTESIAN_POINT ( 'NONE',  ( 0.9999999999999991100, 6.123233995736761100E-017, 0.0000000000000000000 ) ) ;
#335 = CIRCLE ( 'NONE', #261, 5.000000000000000000 ) ;
#336 = ORIENTED_EDGE ( 'NONE', *, *, #117, .F. ) ;
#337 = ADVANCED_FACE ( 'NONE', ( #90 ), #166, .T. ) ;
#338 = COORDINATED_UNIVERSAL_TIME_OFFSET ( 9, 0, .AHEAD. ) ;
#339 = VERTEX_POINT ( 'NONE', #215 ) ;
#340 = CIRCLE ( 'NONE', #312, 4.499999999999998200 ) ;
#341 = LOCAL_TIME ( 10, 16, 8.000000000000000000, #55 ) ;
#342 = ORIENTED_EDGE ( 'NONE', *, *, #171, .F. ) ;
#343 = DIRECTION ( 'NONE',  ( 0.0000000000000000000, 0.0000000000000000000, 1.000000000000000000 ) ) ;
#344 = APPLICATION_PROTOCOL_DEFINITION ( 'international standard', 'config_control_design', 1994, #157 ) ;
#345 = CC_DESIGN_APPROVAL ( #333, ( #315 ) ) ;
#346 = CARTESIAN_POINT ( 'NONE',  ( 1.000000000000000000, 6.123233995736766300E-016, -5.000000000000000000 ) ) ;
#347 = APPROVAL_ROLE ( '' ) ;
#348 = VECTOR ( 'NONE', #139, 1000.000000000000000 ) ;
#349 = VERTEX_POINT ( 'NONE', #244 ) ;
#350 = DIRECTION ( 'NONE',  ( 0.0000000000000000000, 0.0000000000000000000, 1.000000000000000000 ) ) ;
#351 = DIRECTION ( 'NONE',  ( 0.0000000000000000000, 1.000000000000000000, 0.0000000000000000000 ) ) ;
#352 = DIRECTION ( 'NONE',  ( -0.0000000000000000000, 1.000000000000000000, 1.224646799147353200E-016 ) ) ;
#353 = ORGANIZATION ( 'UNSPECIFIED', 'UNSPECIFIED', '' ) ;
#354 = VERTEX_POINT ( 'NONE', #65 ) ;
#355 = CARTESIAN_POINT ( 'NONE',  ( 3.061616997868383100E-016, -5.000000000000000000, 6.123233995736766300E-016 ) ) ;
#356 = DIRECTION ( 'NONE',  ( 1.000000000000000000, 6.123233995736766000E-017, -0.0000000000000000000 ) ) ;
#357 = CIRCLE ( 'NONE', #3, 4.999999999999999100 ) ;
#358 = CARTESIAN_POINT ( 'NONE',  ( -48.99999999999999300, -3.000384657911015100E-015, 0.0000000000000000000 ) ) ;
#359 = DIRECTION ( 'NONE',  ( -4.336808689942017700E-017, 1.000000000000000000, 0.0000000000000000000 ) ) ;
#360 = ADVANCED_FACE ( 'NONE', ( #240 ), #270, .T. ) ;
#361 = CARTESIAN_POINT ( 'NONE',  ( -48.50000000000000000, 4.999999999999993800, 0.0000000000000000000 ) ) ;
#362 = EDGE_LOOP ( 'NONE', ( #129, #113 ) ) ;
#363 = AXIS2_PLACEMENT_3D ( 'NONE', #235, #177, #203 ) ;
#364 = APPROVAL_DATE_TIME ( #75, #201 ) ;
#365 = CIRCLE ( 'NONE', #9, 4.500000000000000900 ) ;
ENDSEC;
END-ISO-10303-21;
