ISO-10303-21;
HEADER;
FILE_DESCRIPTION (( 'STEP AP203' ),
    '1' );
FILE_NAME ('03-3070.STEP',
    '2023-07-03T01:16:21',
    ( 'USER' ),
    ( 'Hewlett-Packard Company' ),
    'SwSTEP 2.0',
    'SolidWorks 2014',
    '' );
FILE_SCHEMA (( 'CONFIG_CONTROL_DESIGN' ));
ENDSEC;

DATA;
#1 = DIRECTION ( 'NONE',  ( -1.000000000000000000, -0.0000000000000000000, -0.0000000000000000000 ) ) ;
#2 = LOCAL_TIME ( 10, 16, 21.00000000000000000, #107 ) ;
#3 = DIRECTION ( 'NONE',  ( -1.000000000000000000, -0.0000000000000000000, -0.0000000000000000000 ) ) ;
#4 = PLANE ( 'NONE',  #300 ) ;
#5 = ORIENTED_EDGE ( 'NONE', *, *, #108, .T. ) ;
#6 = CARTESIAN_POINT ( 'NONE',  ( 41.00000000000000700, -8.890457814381157800E-014, 0.0000000000000000000 ) ) ;
#7 = ORIENTED_EDGE ( 'NONE', *, *, #23, .F. ) ;
#8 = AXIS2_PLACEMENT_3D ( 'NONE', #6, #74, #236 ) ;
#9 = FACE_OUTER_BOUND ( 'NONE', #229, .T. ) ;
#10 = EDGE_CURVE ( 'NONE', #174, #289, #56, .T. ) ;
#11 = ORIENTED_EDGE ( 'NONE', *, *, #51, .T. ) ;
#12 = ORIENTED_EDGE ( 'NONE', *, *, #64, .T. ) ;
#13 = CIRCLE ( 'NONE', #279, 4.000000000000000000 ) ;
#14 = ADVANCED_FACE ( 'NONE', ( #224 ), #66, .T. ) ;
#15 = APPROVAL_DATE_TIME ( #120, #281 ) ;
#16 = EDGE_CURVE ( 'NONE', #54, #174, #162, .T. ) ;
#17 = ORIENTED_EDGE ( 'NONE', *, *, #60, .F. ) ;
#18 = ORIENTED_EDGE ( 'NONE', *, *, #71, .F. ) ;
#19 = AXIS2_PLACEMENT_3D ( 'NONE', #287, #145, #313 ) ;
#20 = ORIENTED_EDGE ( 'NONE', *, *, #181, .T. ) ;
#21 = CIRCLE ( 'NONE', #231, 4.000000000000000000 ) ;
#22 = VECTOR ( 'NONE', #92, 1000.000000000000000 ) ;
#23 = EDGE_CURVE ( 'NONE', #73, #289, #21, .T. ) ;
#24 = EDGE_LOOP ( 'NONE', ( #271, #291, #5, #341 ) ) ;
#25 = ORIENTED_EDGE ( 'NONE', *, *, #23, .T. ) ;
#26 = CC_DESIGN_DATE_AND_TIME_ASSIGNMENT ( #238, #37, ( #346 ) ) ;
#27 = LINE ( 'NONE', #309, #359 ) ;
#28 = VECTOR ( 'NONE', #114, 999.9999999999998900 ) ;
#29 = APPROVAL_PERSON_ORGANIZATION ( #130, #281, #169 ) ;
#30 = EDGE_CURVE ( 'NONE', #259, #201, #13, .T. ) ;
#31 = VERTEX_POINT ( 'NONE', #139 ) ;
#32 = PERSON_AND_ORGANIZATION_ROLE ( 'design_owner' ) ;
#33 = VERTEX_POINT ( 'NONE', #212 ) ;
#34 = DIRECTION ( 'NONE',  ( -1.000000000000000000, -0.0000000000000000000, -0.0000000000000000000 ) ) ;
#35 = ORIENTED_EDGE ( 'NONE', *, *, #200, .T. ) ;
#36 = CIRCLE ( 'NONE', #306, 4.000000000000000000 ) ;
#37 = DATE_TIME_ROLE ( 'classification_date' ) ;
#38 = DIRECTION ( 'NONE',  ( 0.7071067811865479100, -0.7071067811865472400, 8.659560562354930400E-017 ) ) ;
#39 = EDGE_CURVE ( 'NONE', #54, #73, #156, .T. ) ;
#40 = CYLINDRICAL_SURFACE ( 'NONE', #227, 4.000000000000000000 ) ;
#41 = AXIS2_PLACEMENT_3D ( 'NONE', #164, #186, #302 ) ;
#42 = EDGE_CURVE ( 'NONE', #117, #33, #141, .T. ) ;
#43 = DIRECTION ( 'NONE',  ( 1.000000000000000000, 6.123233995736766000E-017, -0.0000000000000000000 ) ) ;
#44 = VERTEX_POINT ( 'NONE', #286 ) ;
#45 = ORIENTED_EDGE ( 'NONE', *, *, #213, .F. ) ;
#46 = CARTESIAN_POINT ( 'NONE',  ( 1.000000000000000400, 2.168404344971010800E-016, 0.0000000000000000000 ) ) ;
#47 = VECTOR ( 'NONE', #112, 1000.000000000000000 ) ;
#48 = CARTESIAN_POINT ( 'NONE',  ( 1.000000000000000000, 0.0000000000000000000, 4.000000000000000000 ) ) ;
#49 = COORDINATED_UNIVERSAL_TIME_OFFSET ( 9, 0, .AHEAD. ) ;
#50 = DIRECTION ( 'NONE',  ( 1.000000000000000000, 6.123233995736766000E-017, -0.0000000000000000000 ) ) ;
#51 = EDGE_CURVE ( 'NONE', #33, #174, #27, .T. ) ;
#52 = EDGE_LOOP ( 'NONE', ( #163, #325, #85, #96 ) ) ;
#53 = EDGE_LOOP ( 'NONE', ( #364, #12, #282, #123 ) ) ;
#54 = VERTEX_POINT ( 'NONE', #262 ) ;
#55 = DIRECTION ( 'NONE',  ( -1.000000000000000000, -6.123233995736766000E-017, 0.0000000000000000000 ) ) ;
#56 = LINE ( 'NONE', #105, #360 ) ;
#57 = AXIS2_PLACEMENT_3D ( 'NONE', #195, #362, #221 ) ;
#58 = CARTESIAN_POINT ( 'NONE',  ( 0.9999999999999993300, -4.000000000000000000, 4.898587196589412800E-016 ) ) ;
#59 = FACE_OUTER_BOUND ( 'NONE', #330, .T. ) ;
#60 = EDGE_CURVE ( 'NONE', #117, #54, #182, .T. ) ;
#61 = APPROVAL ( #241, 'UNSPECIFIED' ) ;
#62 = LOCAL_TIME ( 10, 16, 21.00000000000000000, #147 ) ;
#63 = EDGE_CURVE ( 'NONE', #289, #73, #36, .T. ) ;
#64 = EDGE_CURVE ( 'NONE', #44, #31, #79, .T. ) ;
#65 = EDGE_LOOP ( 'NONE', ( #264, #83 ) ) ;
#66 = CYLINDRICAL_SURFACE ( 'NONE', #265, 4.000000000000000000 ) ;
#67 = FACE_OUTER_BOUND ( 'NONE', #252, .T. ) ;
#68 = EDGE_CURVE ( 'NONE', #33, #117, #280, .T. ) ;
#69 = AXIS2_PLACEMENT_3D ( 'NONE', #202, #283, #136 ) ;
#70 = VERTEX_POINT ( 'NONE', #310 ) ;
#71 = EDGE_CURVE ( 'NONE', #174, #54, #90, .T. ) ;
#72 = ORGANIZATION ( 'UNSPECIFIED', 'UNSPECIFIED', '' ) ;
#73 = VERTEX_POINT ( 'NONE', #82 ) ;
#74 = DIRECTION ( 'NONE',  ( -1.000000000000000000, 0.0000000000000000000, -0.0000000000000000000 ) ) ;
#75 = ORIENTED_EDGE ( 'NONE', *, *, #68, .F. ) ;
#76 = CARTESIAN_POINT ( 'NONE',  ( 0.0000000000000000000, 0.0000000000000000000, 0.0000000000000000000 ) ) ;
#77 = CARTESIAN_POINT ( 'NONE',  ( -43.50000000000000000, -2.663606788145493000E-015, 0.0000000000000000000 ) ) ;
#78 = APPLICATION_PROTOCOL_DEFINITION ( 'international standard', 'config_control_design', 1994, #239 ) ;
#79 = CIRCLE ( 'NONE', #326, 4.000000000000000000 ) ;
#80 = AXIS2_PLACEMENT_3D ( 'NONE', #315, #173, #339 ) ;
#81 = APPROVAL_ROLE ( '' ) ;
#82 = CARTESIAN_POINT ( 'NONE',  ( 0.9999999999999988900, 4.000000000000000000, 0.0000000000000000000 ) ) ;
#83 = ORIENTED_EDGE ( 'NONE', *, *, #91, .F. ) ;
#84 = DIRECTION ( 'NONE',  ( -1.000000000000000000, -0.0000000000000000000, -0.0000000000000000000 ) ) ;
#85 = ORIENTED_EDGE ( 'NONE', *, *, #166, .F. ) ;
#86 = CC_DESIGN_APPROVAL ( #61, ( #346 ) ) ;
#87 = ORIENTED_EDGE ( 'NONE', *, *, #30, .T. ) ;
#88 = EDGE_LOOP ( 'NONE', ( #351, #138, #104, #18 ) ) ;
#89 = DIRECTION ( 'NONE',  ( -1.000000000000000000, -0.0000000000000000000, -0.0000000000000000000 ) ) ;
#90 = CIRCLE ( 'NONE', #354, 3.999999999999997300 ) ;
#91 = EDGE_CURVE ( 'NONE', #70, #149, #218, .T. ) ;
#92 = DIRECTION ( 'NONE',  ( -1.000000000000000000, -0.0000000000000000000, -0.0000000000000000000 ) ) ;
#93 = APPROVAL_DATE_TIME ( #168, #61 ) ;
#94 = MANIFOLD_SOLID_BREP ( 'È¸Àü3', #159 ) ;
#95 = ORIENTED_EDGE ( 'NONE', *, *, #10, .T. ) ;
#96 = ORIENTED_EDGE ( 'NONE', *, *, #108, .F. ) ;
#97 = ORIENTED_EDGE ( 'NONE', *, *, #71, .T. ) ;
#98 = APPROVAL_PERSON_ORGANIZATION ( #176, #61, #81 ) ;
#99 = AXIS2_PLACEMENT_3D ( 'NONE', #115, #172, #247 ) ;
#100 = ORIENTED_EDGE ( 'NONE', *, *, #166, .T. ) ;
#101 = FACE_OUTER_BOUND ( 'NONE', #118, .T. ) ;
#102 = PRODUCT ( '03-3070', '03-3070', '', ( #214 ) ) ;
#103 = CC_DESIGN_SECURITY_CLASSIFICATION ( #346, ( #269 ) ) ;
#104 = ORIENTED_EDGE ( 'NONE', *, *, #60, .T. ) ;
#105 = CARTESIAN_POINT ( 'NONE',  ( 2.449293598294706400E-016, -4.000000000000000000, 4.898587196589412800E-016 ) ) ;
#106 = PRODUCT_DEFINITION_SHAPE ( 'NONE', 'NONE',  #184 ) ;
#107 = COORDINATED_UNIVERSAL_TIME_OFFSET ( 9, 0, .AHEAD. ) ;
#108 = EDGE_CURVE ( 'NONE', #149, #31, #344, .T. ) ;
#109 =( NAMED_UNIT ( * ) PLANE_ANGLE_UNIT ( ) SI_UNIT ( $, .RADIAN. ) );
#110 = DIRECTION ( 'NONE',  ( 0.0000000000000000000, 1.000000000000000000, 0.0000000000000000000 ) ) ;
#111 = APPROVAL_ROLE ( '' ) ;
#112 = DIRECTION ( 'NONE',  ( 1.000000000000000000, 6.123233995736766000E-017, -0.0000000000000000000 ) ) ;
#113 = ORIENTED_EDGE ( 'NONE', *, *, #39, .T. ) ;
#114 = DIRECTION ( 'NONE',  ( 0.7071067811865479100, 0.7071067811865472400, 0.0000000000000000000 ) ) ;
#115 = CARTESIAN_POINT ( 'NONE',  ( 40.20000000000000300, 0.0000000000000000000, 0.0000000000000000000 ) ) ;
#116 = CARTESIAN_POINT ( 'NONE',  ( -44.00000000000000000, 3.499999999999994700, 0.0000000000000000000 ) ) ;
#117 = VERTEX_POINT ( 'NONE', #116 ) ;
#118 = EDGE_LOOP ( 'NONE', ( #100, #20, #190, #45 ) ) ;
#119 = CARTESIAN_POINT ( 'NONE',  ( -43.50000000000000000, -4.000000000000000000, 4.898587196589409900E-016 ) ) ;
#120 = DATE_AND_TIME ( #185, #257 ) ;
#121 = CARTESIAN_POINT ( 'NONE',  ( 0.0000000000000000000, 0.0000000000000000000, 4.000000000000000000 ) ) ;
#122 = DIRECTION ( 'NONE',  ( 0.0000000000000000000, 0.0000000000000000000, 1.000000000000000000 ) ) ;
#123 = ORIENTED_EDGE ( 'NONE', *, *, #30, .F. ) ;
#124 = ORIENTED_EDGE ( 'NONE', *, *, #42, .T. ) ;
#125 = CARTESIAN_POINT ( 'NONE',  ( 0.0000000000000000000, 0.0000000000000000000, 0.0000000000000000000 ) ) ;
#126 = ADVANCED_FACE ( 'NONE', ( #335 ), #154, .T. ) ;
#127 = FACE_OUTER_BOUND ( 'NONE', #53, .T. ) ;
#128 = EDGE_LOOP ( 'NONE', ( #25, #348 ) ) ;
#129 = PRODUCT_RELATED_PRODUCT_CATEGORY ( 'detail', '', ( #102 ) ) ;
#130 = PERSON_AND_ORGANIZATION ( #232, #72 ) ;
#131 = EDGE_CURVE ( 'NONE', #70, #44, #274, .T. ) ;
#132 = ADVANCED_FACE ( 'NONE', ( #67 ), #288, .F. ) ;
#133 = ORIENTED_EDGE ( 'NONE', *, *, #42, .F. ) ;
#134 = FACE_OUTER_BOUND ( 'NONE', #128, .T. ) ;
#135 = PERSON_AND_ORGANIZATION ( #232, #72 ) ;
#136 = DIRECTION ( 'NONE',  ( 0.0000000000000000000, 0.0000000000000000000, 1.000000000000000000 ) ) ;
#137 = DIRECTION ( 'NONE',  ( -6.123233995736766000E-017, 1.000000000000000000, 0.0000000000000000000 ) ) ;
#138 = ORIENTED_EDGE ( 'NONE', *, *, #68, .T. ) ;
#139 = CARTESIAN_POINT ( 'NONE',  ( 40.20000000000000300, 0.0000000000000000000, 4.000000000000001800 ) ) ;
#140 = DATE_TIME_ROLE ( 'creation_date' ) ;
#141 = CIRCLE ( 'NONE', #294, 3.499999999999997300 ) ;
#142 = AXIS2_PLACEMENT_3D ( 'NONE', #290, #148, #316 ) ;
#143 = VECTOR ( 'NONE', #150, 1000.000000000000000 ) ;
#144 = CARTESIAN_POINT ( 'NONE',  ( -44.00000000000000000, -2.694222958124176800E-015, 0.0000000000000000000 ) ) ;
#145 = DIRECTION ( 'NONE',  ( -1.000000000000000000, -0.0000000000000000000, -0.0000000000000000000 ) ) ;
#146 = DIRECTION ( 'NONE',  ( -6.123233995736766000E-017, 1.000000000000000000, 0.0000000000000000000 ) ) ;
#147 = COORDINATED_UNIVERSAL_TIME_OFFSET ( 9, 0, .AHEAD. ) ;
#148 = DIRECTION ( 'NONE',  ( -1.000000000000000000, -0.0000000000000000000, -0.0000000000000000000 ) ) ;
#149 = VERTEX_POINT ( 'NONE', #248 ) ;
#150 = DIRECTION ( 'NONE',  ( -1.000000000000000000, -0.0000000000000000000, -0.0000000000000000000 ) ) ;
#151 = EDGE_CURVE ( 'NONE', #149, #70, #208, .T. ) ;
#152 = CARTESIAN_POINT ( 'NONE',  ( -44.00000000000000000, -2.694222958124176800E-015, 0.0000000000000000000 ) ) ;
#153 = CARTESIAN_POINT ( 'NONE',  ( 1.000000000000000000, 4.898587196589412800E-016, -4.000000000000000000 ) ) ;
#154 = TOROIDAL_SURFACE ( 'NONE', #99, 3.199999999999999700, 0.8000000000000047100 ) ;
#155 = AXIS2_PLACEMENT_3D ( 'NONE', #76, #188, #353 ) ;
#156 = LINE ( 'NONE', #189, #47 ) ;
#157 = SHAPE_DEFINITION_REPRESENTATION ( #106, #357 ) ;
#158 = ORIENTED_EDGE ( 'NONE', *, *, #63, .F. ) ;
#159 = CLOSED_SHELL ( 'NONE', ( #321, #206, #126, #256, #132, #296 ) ) ;
#160 = UNCERTAINTY_MEASURE_WITH_UNIT (LENGTH_MEASURE( 1.000000000000000100E-005 ), #237, 'distance_accuracy_value', 'NONE');
#161 = AXIS2_PLACEMENT_3D ( 'NONE', #46, #196, #365 ) ;
#162 = CIRCLE ( 'NONE', #251, 3.999999999999997300 ) ;
#163 = ORIENTED_EDGE ( 'NONE', *, *, #151, .T. ) ;
#164 = CARTESIAN_POINT ( 'NONE',  ( -43.50000000000000000, -2.663606788145493000E-015, 0.0000000000000000000 ) ) ;
#165 = CARTESIAN_POINT ( 'NONE',  ( 0.0000000000000000000, 0.0000000000000000000, 0.0000000000000000000 ) ) ;
#166 = EDGE_CURVE ( 'NONE', #31, #44, #327, .T. ) ;
#167 = DIRECTION ( 'NONE',  ( 1.000000000000000000, 6.123233995736766000E-017, -0.0000000000000000000 ) ) ;
#168 = DATE_AND_TIME ( #230, #293 ) ;
#169 = APPROVAL_ROLE ( '' ) ;
#170 = DIRECTION ( 'NONE',  ( 0.0000000000000000000, 1.000000000000000000, 0.0000000000000000000 ) ) ;
#171 = CC_DESIGN_PERSON_AND_ORGANIZATION_ASSIGNMENT ( #338, #32, ( #102 ) ) ;
#172 = DIRECTION ( 'NONE',  ( -1.000000000000000000, -0.0000000000000000000, -0.0000000000000000000 ) ) ;
#173 = DIRECTION ( 'NONE',  ( -0.0000000000000000000, 1.000000000000000000, 1.224646799147353200E-016 ) ) ;
#174 = VERTEX_POINT ( 'NONE', #119 ) ;
#175 = CARTESIAN_POINT ( 'NONE',  ( 40.20000000000000300, 0.0000000000000000000, 0.0000000000000000000 ) ) ;
#176 = PERSON_AND_ORGANIZATION ( #232, #72 ) ;
#177 = DIRECTION ( 'NONE',  ( 1.000000000000000000, 6.123233995736766000E-017, -0.0000000000000000000 ) ) ;
#178 = AXIS2_PLACEMENT_3D ( 'NONE', #198, #1, #223 ) ;
#179 = ADVANCED_FACE ( 'NONE', ( #59 ), #40, .T. ) ;
#180 = PERSON_AND_ORGANIZATION ( #232, #72 ) ;
#181 = EDGE_CURVE ( 'NONE', #44, #259, #267, .T. ) ;
#182 = LINE ( 'NONE', #242, #28 ) ;
#183 = FACE_OUTER_BOUND ( 'NONE', #65, .T. ) ;
#184 = PRODUCT_DEFINITION ( 'UNKNOWN', '', #269, #258 ) ;
#185 = CALENDAR_DATE ( 2023, 3, 7 ) ;
#186 = DIRECTION ( 'NONE',  ( 1.000000000000000000, 6.123233995736766000E-017, -0.0000000000000000000 ) ) ;
#187 = DIRECTION ( 'NONE',  ( 1.000000000000000000, 6.123233995736766000E-017, -0.0000000000000000000 ) ) ;
#188 = DIRECTION ( 'NONE',  ( 0.0000000000000000000, 0.0000000000000000000, 1.000000000000000000 ) ) ;
#189 = CARTESIAN_POINT ( 'NONE',  ( -2.449293598294706400E-016, 4.000000000000000000, 0.0000000000000000000 ) ) ;
#190 = ORIENTED_EDGE ( 'NONE', *, *, #200, .F. ) ;
#191 = PERSON_AND_ORGANIZATION_ROLE ( 'design_supplier' ) ;
#192 = DIRECTION ( 'NONE',  ( 1.000000000000000000, 6.123233995736766000E-017, -0.0000000000000000000 ) ) ;
#193 = DIRECTION ( 'NONE',  ( 1.000000000000000000, 6.123233995736766000E-017, -0.0000000000000000000 ) ) ;
#194 = FACE_OUTER_BOUND ( 'NONE', #52, .T. ) ;
#195 = CARTESIAN_POINT ( 'NONE',  ( 40.20000000000000300, 0.0000000000000000000, 3.199999999999999700 ) ) ;
#196 = DIRECTION ( 'NONE',  ( 1.000000000000000000, 0.0000000000000000000, 0.0000000000000000000 ) ) ;
#197 = DATE_AND_TIME ( #261, #324 ) ;
#198 = CARTESIAN_POINT ( 'NONE',  ( 40.20000000000000300, 0.0000000000000000000, 0.0000000000000000000 ) ) ;
#199 = CARTESIAN_POINT ( 'NONE',  ( 1.000000000000000000, 0.0000000000000000000, 0.0000000000000000000 ) ) ;
#200 = EDGE_CURVE ( 'NONE', #201, #259, #203, .T. ) ;
#201 = VERTEX_POINT ( 'NONE', #48 ) ;
#202 = CARTESIAN_POINT ( 'NONE',  ( 0.0000000000000000000, 0.0000000000000000000, 0.0000000000000000000 ) ) ;
#203 = CIRCLE ( 'NONE', #209, 4.000000000000000000 ) ;
#204 = APPROVAL ( #266, 'UNSPECIFIED' ) ;
#205 = APPROVAL_DATE_TIME ( #270, #204 ) ;
#206 = ADVANCED_FACE ( 'NONE', ( #194 ), #260, .T. ) ;
#207 = ORIENTED_EDGE ( 'NONE', *, *, #16, .T. ) ;
#208 = CIRCLE ( 'NONE', #142, 3.199999999999999700 ) ;
#209 = AXIS2_PLACEMENT_3D ( 'NONE', #199, #3, #225 ) ;
#210 = APPROVAL_PERSON_ORGANIZATION ( #276, #204, #111 ) ;
#211 = ORIENTED_EDGE ( 'NONE', *, *, #10, .F. ) ;
#212 = CARTESIAN_POINT ( 'NONE',  ( -44.00000000000000000, -3.500000000000000000, 4.592425496802571000E-016 ) ) ;
#213 = EDGE_CURVE ( 'NONE', #31, #201, #322, .T. ) ;
#214 = MECHANICAL_CONTEXT ( 'NONE', #331, 'mechanical' ) ;
#215 = CARTESIAN_POINT ( 'NONE',  ( 1.000000000000000000, 0.0000000000000000000, 0.0000000000000000000 ) ) ;
#216 = MANIFOLD_SOLID_BREP ( 'È¸Àü4', #307 ) ;
#217 = PERSON_AND_ORGANIZATION_ROLE ( 'classification_officer' ) ;
#218 = CIRCLE ( 'NONE', #19, 3.199999999999999700 ) ;
#219 = CARTESIAN_POINT ( 'NONE',  ( -43.50000000000000000, -2.663606788145493000E-015, 0.0000000000000000000 ) ) ;
#220 = CC_DESIGN_APPROVAL ( #204, ( #184 ) ) ;
#221 = DIRECTION ( 'NONE',  ( 0.0000000000000000000, 0.0000000000000000000, -1.000000000000000000 ) ) ;
#222 = ORIENTED_EDGE ( 'NONE', *, *, #16, .F. ) ;
#223 = DIRECTION ( 'NONE',  ( 0.0000000000000000000, 0.0000000000000000000, 1.000000000000000000 ) ) ;
#224 = FACE_OUTER_BOUND ( 'NONE', #234, .T. ) ;
#225 = DIRECTION ( 'NONE',  ( 0.0000000000000000000, 0.0000000000000000000, 1.000000000000000000 ) ) ;
#226 = PLANE ( 'NONE',  #8 ) ;
#227 = AXIS2_PLACEMENT_3D ( 'NONE', #340, #50, #146 ) ;
#228 = ADVANCED_FACE ( 'NONE', ( #134 ), #319, .T. ) ;
#229 = EDGE_LOOP ( 'NONE', ( #124, #11, #222, #17 ) ) ;
#230 = CALENDAR_DATE ( 2023, 3, 7 ) ;
#231 = AXIS2_PLACEMENT_3D ( 'NONE', #305, #167, #332 ) ;
#232 = PERSON ( 'UNSPECIFIED', 'UNSPECIFIED', 'UNSPECIFIED', ('UNSPECIFIED'), ('UNSPECIFIED'), ('UNSPECIFIED') ) ;
#233 = CC_DESIGN_PERSON_AND_ORGANIZATION_ASSIGNMENT ( #135, #285, ( #184 ) ) ;
#234 = EDGE_LOOP ( 'NONE', ( #207, #95, #7, #278 ) ) ;
#235 = DIRECTION ( 'NONE',  ( 1.000000000000000000, 6.123233995736766000E-017, -0.0000000000000000000 ) ) ;
#236 = DIRECTION ( 'NONE',  ( -0.0000000000000000000, 0.0000000000000000000, 1.000000000000000000 ) ) ;
#237 =( LENGTH_UNIT ( ) NAMED_UNIT ( * ) SI_UNIT ( .MILLI., .METRE. ) );
#238 = DATE_AND_TIME ( #299, #2 ) ;
#239 = APPLICATION_CONTEXT ( 'configuration controlled 3d designs of mechanical parts and assemblies' ) ;
#240 = DIRECTION ( 'NONE',  ( 0.0000000000000000000, 0.0000000000000000000, 1.000000000000000000 ) ) ;
#241 = APPROVAL_STATUS ( 'not_yet_approved' ) ;
#242 = CARTESIAN_POINT ( 'NONE',  ( -43.50000000000000000, 3.999999999999994700, 0.0000000000000000000 ) ) ;
#243 = AXIS2_PLACEMENT_3D ( 'NONE', #175, #89, #250 ) ;
#244 = CARTESIAN_POINT ( 'NONE',  ( 40.20000000000000300, 0.0000000000000000000, 0.0000000000000000000 ) ) ;
#245 = FACE_OUTER_BOUND ( 'NONE', #88, .T. ) ;
#246 = DIRECTION ( 'NONE',  ( 0.0000000000000000000, 1.000000000000000000, 0.0000000000000000000 ) ) ;
#247 = DIRECTION ( 'NONE',  ( 0.0000000000000000000, 0.0000000000000000000, 1.000000000000000000 ) ) ;
#248 = CARTESIAN_POINT ( 'NONE',  ( 41.00000000000000700, 0.0000000000000000000, 3.199999999999999700 ) ) ;
#249 = PERSON_AND_ORGANIZATION ( #232, #72 ) ;
#250 = DIRECTION ( 'NONE',  ( 0.0000000000000000000, 0.0000000000000000000, 1.000000000000000000 ) ) ;
#251 = AXIS2_PLACEMENT_3D ( 'NONE', #77, #263, #110 ) ;
#252 = EDGE_LOOP ( 'NONE', ( #35, #87 ) ) ;
#253 = DIRECTION ( 'NONE',  ( 6.123233995736766000E-017, -1.000000000000000000, 0.0000000000000000000 ) ) ;
#254 = ADVANCED_FACE ( 'NONE', ( #311 ), #4, .T. ) ;
#255 = CC_DESIGN_DATE_AND_TIME_ASSIGNMENT ( #197, #140, ( #184 ) ) ;
#256 = ADVANCED_FACE ( 'NONE', ( #127 ), #301, .T. ) ;
#257 = LOCAL_TIME ( 10, 16, 21.00000000000000000, #317 ) ;
#258 = DESIGN_CONTEXT ( 'detailed design', #239, 'design' ) ;
#259 = VERTEX_POINT ( 'NONE', #153 ) ;
#260 = TOROIDAL_SURFACE ( 'NONE', #243, 3.199999999999999700, 0.8000000000000047100 ) ;
#261 = CALENDAR_DATE ( 2023, 3, 7 ) ;
#262 = CARTESIAN_POINT ( 'NONE',  ( -43.50000000000000000, 3.999999999999994700, 0.0000000000000000000 ) ) ;
#263 = DIRECTION ( 'NONE',  ( 1.000000000000000000, 6.123233995736766000E-017, -0.0000000000000000000 ) ) ;
#264 = ORIENTED_EDGE ( 'NONE', *, *, #151, .F. ) ;
#265 = AXIS2_PLACEMENT_3D ( 'NONE', #165, #187, #137 ) ;
#266 = APPROVAL_STATUS ( 'not_yet_approved' ) ;
#267 = LINE ( 'NONE', #292, #143 ) ;
#268 = DIRECTION ( 'NONE',  ( 0.0000000000000000000, 0.0000000000000000000, 1.000000000000000000 ) ) ;
#269 = PRODUCT_DEFINITION_FORMATION_WITH_SPECIFIED_SOURCE ( 'ANY', '', #102, .NOT_KNOWN. ) ;
#270 = DATE_AND_TIME ( #329, #62 ) ;
#271 = ORIENTED_EDGE ( 'NONE', *, *, #131, .F. ) ;
#272 = CARTESIAN_POINT ( 'NONE',  ( 0.9999999999999993300, 4.000000000000000000, 0.0000000000000000000 ) ) ;
#273 = DIRECTION ( 'NONE',  ( -1.000000000000000000, -0.0000000000000000000, -0.0000000000000000000 ) ) ;
#274 = CIRCLE ( 'NONE', #80, 0.8000000000000047100 ) ;
#275 = AXIS2_PLACEMENT_3D ( 'NONE', #272, #177, #342 ) ;
#276 = PERSON_AND_ORGANIZATION ( #232, #72 ) ;
#277 = ADVANCED_FACE ( 'NONE', ( #9 ), #361, .T. ) ;
#278 = ORIENTED_EDGE ( 'NONE', *, *, #39, .F. ) ;
#279 = AXIS2_PLACEMENT_3D ( 'NONE', #215, #34, #240 ) ;
#280 = CIRCLE ( 'NONE', #343, 3.499999999999997300 ) ;
#281 = APPROVAL ( #308, 'UNSPECIFIED' ) ;
#282 = ORIENTED_EDGE ( 'NONE', *, *, #213, .T. ) ;
#283 = DIRECTION ( 'NONE',  ( -1.000000000000000000, -0.0000000000000000000, -0.0000000000000000000 ) ) ;
#284 =( NAMED_UNIT ( * ) SI_UNIT ( $, .STERADIAN. ) SOLID_ANGLE_UNIT ( ) );
#285 = PERSON_AND_ORGANIZATION_ROLE ( 'creator' ) ;
#286 = CARTESIAN_POINT ( 'NONE',  ( 40.20000000000000300, 4.898587196589415800E-016, -4.000000000000001800 ) ) ;
#287 = CARTESIAN_POINT ( 'NONE',  ( 41.00000000000000700, 0.0000000000000000000, 0.0000000000000000000 ) ) ;
#288 = PLANE ( 'NONE',  #161 ) ;
#289 = VERTEX_POINT ( 'NONE', #58 ) ;
#290 = CARTESIAN_POINT ( 'NONE',  ( 41.00000000000000700, 0.0000000000000000000, 0.0000000000000000000 ) ) ;
#291 = ORIENTED_EDGE ( 'NONE', *, *, #91, .T. ) ;
#292 = CARTESIAN_POINT ( 'NONE',  ( 0.0000000000000000000, 4.898587196589412800E-016, -4.000000000000000000 ) ) ;
#293 = LOCAL_TIME ( 10, 16, 21.00000000000000000, #352 ) ;
#294 = AXIS2_PLACEMENT_3D ( 'NONE', #334, #192, #356 ) ;
#295 = DIRECTION ( 'NONE',  ( 0.0000000000000000000, 1.000000000000000000, 0.0000000000000000000 ) ) ;
#296 = ADVANCED_FACE ( 'NONE', ( #183 ), #226, .F. ) ;
#297 = CYLINDRICAL_SURFACE ( 'NONE', #69, 4.000000000000000000 ) ;
#298 = CC_DESIGN_APPROVAL ( #281, ( #269 ) ) ;
#299 = CALENDAR_DATE ( 2023, 3, 7 ) ;
#300 = AXIS2_PLACEMENT_3D ( 'NONE', #152, #55, #253 ) ;
#301 = CYLINDRICAL_SURFACE ( 'NONE', #337, 4.000000000000000000 ) ;
#302 = DIRECTION ( 'NONE',  ( 0.0000000000000000000, 1.000000000000000000, 0.0000000000000000000 ) ) ;
#303 = PERSON_AND_ORGANIZATION ( #232, #72 ) ;
#304 = APPLICATION_PROTOCOL_DEFINITION ( 'international standard', 'config_control_design', 1994, #331 ) ;
#305 = CARTESIAN_POINT ( 'NONE',  ( 0.9999999999999991100, 6.123233995736761100E-017, 0.0000000000000000000 ) ) ;
#306 = AXIS2_PLACEMENT_3D ( 'NONE', #336, #193, #358 ) ;
#307 = CLOSED_SHELL ( 'NONE', ( #14, #277, #228, #254, #347, #179 ) ) ;
#308 = APPROVAL_STATUS ( 'not_yet_approved' ) ;
#309 = CARTESIAN_POINT ( 'NONE',  ( -43.50000000000000000, -4.000000000000000000, 4.898587196589409900E-016 ) ) ;
#310 = CARTESIAN_POINT ( 'NONE',  ( 41.00000000000000700, 4.408728476930474100E-016, -3.199999999999999700 ) ) ;
#311 = FACE_OUTER_BOUND ( 'NONE', #318, .T. ) ;
#312 = DIRECTION ( 'NONE',  ( 1.000000000000000000, 6.123233995736766000E-017, -0.0000000000000000000 ) ) ;
#313 = DIRECTION ( 'NONE',  ( 0.0000000000000000000, 0.0000000000000000000, 1.000000000000000000 ) ) ;
#314 = CC_DESIGN_PERSON_AND_ORGANIZATION_ASSIGNMENT ( #303, #333, ( #269 ) ) ;
#315 = CARTESIAN_POINT ( 'NONE',  ( 40.20000000000000300, 3.918869757271530000E-016, -3.199999999999999700 ) ) ;
#316 = DIRECTION ( 'NONE',  ( 0.0000000000000000000, 0.0000000000000000000, 1.000000000000000000 ) ) ;
#317 = COORDINATED_UNIVERSAL_TIME_OFFSET ( 9, 0, .AHEAD. ) ;
#318 = EDGE_LOOP ( 'NONE', ( #133, #75 ) ) ;
#319 = PLANE ( 'NONE',  #275 ) ;
#320 = CARTESIAN_POINT ( 'NONE',  ( -43.50000000000000000, -2.663606788145493000E-015, 0.0000000000000000000 ) ) ;
#321 = ADVANCED_FACE ( 'NONE', ( #101 ), #297, .T. ) ;
#322 = LINE ( 'NONE', #121, #22 ) ;
#323 = AXIS2_PLACEMENT_3D ( 'NONE', #320, #345, #295 ) ;
#324 = LOCAL_TIME ( 10, 16, 21.00000000000000000, #49 ) ;
#325 = ORIENTED_EDGE ( 'NONE', *, *, #131, .T. ) ;
#326 = AXIS2_PLACEMENT_3D ( 'NONE', #244, #84, #268 ) ;
#327 = CIRCLE ( 'NONE', #178, 4.000000000000000000 ) ;
#328 = CC_DESIGN_PERSON_AND_ORGANIZATION_ASSIGNMENT ( #249, #191, ( #269 ) ) ;
#329 = CALENDAR_DATE ( 2023, 3, 7 ) ;
#330 = EDGE_LOOP ( 'NONE', ( #211, #97, #113, #158 ) ) ;
#331 = APPLICATION_CONTEXT ( 'configuration controlled 3d designs of mechanical parts and assemblies' ) ;
#332 = DIRECTION ( 'NONE',  ( -5.421010862427522200E-017, 1.000000000000000000, 0.0000000000000000000 ) ) ;
#333 = PERSON_AND_ORGANIZATION_ROLE ( 'creator' ) ;
#334 = CARTESIAN_POINT ( 'NONE',  ( -44.00000000000000000, -2.694222958124176800E-015, 0.0000000000000000000 ) ) ;
#335 = FACE_OUTER_BOUND ( 'NONE', #24, .T. ) ;
#336 = CARTESIAN_POINT ( 'NONE',  ( 0.9999999999999991100, 6.123233995736761100E-017, 0.0000000000000000000 ) ) ;
#337 = AXIS2_PLACEMENT_3D ( 'NONE', #125, #273, #122 ) ;
#338 = PERSON_AND_ORGANIZATION ( #232, #72 ) ;
#339 = DIRECTION ( 'NONE',  ( 0.0000000000000000000, -1.224646799147353200E-016, 1.000000000000000000 ) ) ;
#340 = CARTESIAN_POINT ( 'NONE',  ( 0.0000000000000000000, 0.0000000000000000000, 0.0000000000000000000 ) ) ;
#341 = ORIENTED_EDGE ( 'NONE', *, *, #64, .F. ) ;
#342 = DIRECTION ( 'NONE',  ( -6.123233995736766000E-017, 1.000000000000000000, 0.0000000000000000000 ) ) ;
#343 = AXIS2_PLACEMENT_3D ( 'NONE', #144, #312, #170 ) ;
#344 = CIRCLE ( 'NONE', #57, 0.8000000000000047100 ) ;
#345 = DIRECTION ( 'NONE',  ( 1.000000000000000000, 6.123233995736766000E-017, -0.0000000000000000000 ) ) ;
#346 = SECURITY_CLASSIFICATION ( '', '', #355 ) ;
#347 = ADVANCED_FACE ( 'NONE', ( #245 ), #350, .T. ) ;
#348 = ORIENTED_EDGE ( 'NONE', *, *, #63, .T. ) ;
#349 =( GEOMETRIC_REPRESENTATION_CONTEXT ( 3 ) GLOBAL_UNCERTAINTY_ASSIGNED_CONTEXT ( ( #160 ) ) GLOBAL_UNIT_ASSIGNED_CONTEXT ( ( #237, #109, #284 ) ) REPRESENTATION_CONTEXT ( 'NONE', 'WORKASPACE' ) );
#350 = CONICAL_SURFACE ( 'NONE', #41, 3.999999999999997300, 0.7853981633974479500 ) ;
#351 = ORIENTED_EDGE ( 'NONE', *, *, #51, .F. ) ;
#352 = COORDINATED_UNIVERSAL_TIME_OFFSET ( 9, 0, .AHEAD. ) ;
#353 = DIRECTION ( 'NONE',  ( 1.000000000000000000, 0.0000000000000000000, 0.0000000000000000000 ) ) ;
#354 = AXIS2_PLACEMENT_3D ( 'NONE', #219, #43, #246 ) ;
#355 = SECURITY_CLASSIFICATION_LEVEL ( 'unclassified' ) ;
#356 = DIRECTION ( 'NONE',  ( 0.0000000000000000000, 1.000000000000000000, 0.0000000000000000000 ) ) ;
#357 = ADVANCED_BREP_SHAPE_REPRESENTATION ( '03-3070', ( #94, #216, #155 ), #349 ) ;
#358 = DIRECTION ( 'NONE',  ( -5.421010862427522200E-017, 1.000000000000000000, 0.0000000000000000000 ) ) ;
#359 = VECTOR ( 'NONE', #38, 999.9999999999998900 ) ;
#360 = VECTOR ( 'NONE', #235, 1000.000000000000000 ) ;
#361 = CONICAL_SURFACE ( 'NONE', #323, 3.999999999999997300, 0.7853981633974479500 ) ;
#362 = DIRECTION ( 'NONE',  ( 0.0000000000000000000, -1.000000000000000000, 0.0000000000000000000 ) ) ;
#363 = CC_DESIGN_PERSON_AND_ORGANIZATION_ASSIGNMENT ( #180, #217, ( #346 ) ) ;
#364 = ORIENTED_EDGE ( 'NONE', *, *, #181, .F. ) ;
#365 = DIRECTION ( 'NONE',  ( 0.0000000000000000000, 0.0000000000000000000, -1.000000000000000000 ) ) ;
ENDSEC;
END-ISO-10303-21;
