ISO-10303-21;
HEADER;
FILE_DESCRIPTION (( 'STEP AP203' ),
    '1' );
FILE_NAME ('03-3071.STEP',
    '2023-07-03T01:16:34',
    ( 'USER' ),
    ( 'Hewlett-Packard Company' ),
    'SwSTEP 2.0',
    'SolidWorks 2014',
    '' );
FILE_SCHEMA (( 'CONFIG_CONTROL_DESIGN' ));
ENDSEC;

DATA;
#1 = AXIS2_PLACEMENT_3D ( 'NONE', #192, #22, #218 ) ;
#2 = ADVANCED_FACE ( 'NONE', ( #119 ), #44, .T. ) ;
#3 = LOCAL_TIME ( 10, 16, 34.00000000000000000, #86 ) ;
#4 = ADVANCED_FACE ( 'NONE', ( #111 ), #312, .F. ) ;
#5 = ORIENTED_EDGE ( 'NONE', *, *, #112, .F. ) ;
#6 = DIRECTION ( 'NONE',  ( 0.0000000000000000000, 0.0000000000000000000, 1.000000000000000000 ) ) ;
#7 = CIRCLE ( 'NONE', #142, 3.000000000000000000 ) ;
#8 = AXIS2_PLACEMENT_3D ( 'NONE', #208, #40, #235 ) ;
#9 = PERSON_AND_ORGANIZATION_ROLE ( 'design_supplier' ) ;
#10 = DIRECTION ( 'NONE',  ( 1.000000000000000000, 6.123233995736766000E-017, -0.0000000000000000000 ) ) ;
#11 = ORGANIZATION ( 'UNSPECIFIED', 'UNSPECIFIED', '' ) ;
#12 = ORIENTED_EDGE ( 'NONE', *, *, #147, .F. ) ;
#13 = CC_DESIGN_APPROVAL ( #357, ( #336 ) ) ;
#14 = CARTESIAN_POINT ( 'NONE',  ( -41.49999999999999300, 2.999999999999995600, 0.0000000000000000000 ) ) ;
#15 = EDGE_CURVE ( 'NONE', #349, #39, #184, .T. ) ;
#16 = LINE ( 'NONE', #14, #230 ) ;
#17 = DIRECTION ( 'NONE',  ( -1.000000000000000000, -0.0000000000000000000, -0.0000000000000000000 ) ) ;
#18 = ORIENTED_EDGE ( 'NONE', *, *, #284, .T. ) ;
#19 = CARTESIAN_POINT ( 'NONE',  ( -41.99999999999999300, -2.500000000000000400, 3.367778697655219000E-016 ) ) ;
#20 = CARTESIAN_POINT ( 'NONE',  ( 32.00000000000000000, 2.449293598294706400E-016, -2.000000000000000000 ) ) ;
#21 = EDGE_LOOP ( 'NONE', ( #106, #283 ) ) ;
#22 = DIRECTION ( 'NONE',  ( -1.000000000000000000, -0.0000000000000000000, -0.0000000000000000000 ) ) ;
#23 = CARTESIAN_POINT ( 'NONE',  ( -41.49999999999999300, -2.541142108230757500E-015, 0.0000000000000000000 ) ) ;
#24 = DIRECTION ( 'NONE',  ( -1.000000000000000000, -0.0000000000000000000, -0.0000000000000000000 ) ) ;
#25 = APPROVAL_DATE_TIME ( #101, #125 ) ;
#26 = LINE ( 'NONE', #126, #304 ) ;
#27 = AXIS2_PLACEMENT_3D ( 'NONE', #180, #316, #347 ) ;
#28 = CONICAL_SURFACE ( 'NONE', #38, 2.999999999999998200, 0.7853981633974482800 ) ;
#29 = EDGE_LOOP ( 'NONE', ( #179, #361 ) ) ;
#30 = CC_DESIGN_PERSON_AND_ORGANIZATION_ASSIGNMENT ( #265, #175, ( #336 ) ) ;
#31 = APPROVAL_PERSON_ORGANIZATION ( #110, #125, #258 ) ;
#32 = EDGE_CURVE ( 'NONE', #240, #349, #33, .T. ) ;
#33 = CIRCLE ( 'NONE', #332, 2.999999999999998200 ) ;
#34 = MECHANICAL_CONTEXT ( 'NONE', #174, 'mechanical' ) ;
#35 = PERSON_AND_ORGANIZATION_ROLE ( 'classification_officer' ) ;
#36 = DIRECTION ( 'NONE',  ( -1.000000000000000000, -0.0000000000000000000, -0.0000000000000000000 ) ) ;
#37 = CYLINDRICAL_SURFACE ( 'NONE', #97, 3.000000000000000000 ) ;
#38 = AXIS2_PLACEMENT_3D ( 'NONE', #23, #88, #275 ) ;
#39 = VERTEX_POINT ( 'NONE', #71 ) ;
#40 = DIRECTION ( 'NONE',  ( 1.000000000000000000, 6.123233995736766000E-017, -0.0000000000000000000 ) ) ;
#41 = DIRECTION ( 'NONE',  ( 1.000000000000000000, 6.123233995736766000E-017, -0.0000000000000000000 ) ) ;
#42 = CARTESIAN_POINT ( 'NONE',  ( 1.000000000000000000, 0.0000000000000000000, 3.000000000000000000 ) ) ;
#43 = COORDINATED_UNIVERSAL_TIME_OFFSET ( 9, 0, .AHEAD. ) ;
#44 = TOROIDAL_SURFACE ( 'NONE', #309, 2.000000000000000000, 1.000000000000000400 ) ;
#45 = DIRECTION ( 'NONE',  ( 1.000000000000000000, 6.123233995736766000E-017, -0.0000000000000000000 ) ) ;
#46 = CARTESIAN_POINT ( 'NONE',  ( -41.49999999999999300, -2.541142108230757500E-015, 0.0000000000000000000 ) ) ;
#47 = AXIS2_PLACEMENT_3D ( 'NONE', #209, #41, #236 ) ;
#48 = CARTESIAN_POINT ( 'NONE',  ( 1.000000000000000000, 0.0000000000000000000, 0.0000000000000000000 ) ) ;
#49 = CIRCLE ( 'NONE', #1, 2.000000000000000400 ) ;
#50 = EDGE_LOOP ( 'NONE', ( #75, #18, #335, #155 ) ) ;
#51 = UNCERTAINTY_MEASURE_WITH_UNIT (LENGTH_MEASURE( 1.000000000000000100E-005 ), #341, 'distance_accuracy_value', 'NONE');
#52 = DIRECTION ( 'NONE',  ( 0.0000000000000000000, -1.224646799147353500E-016, 1.000000000000000000 ) ) ;
#53 =( NAMED_UNIT ( * ) PLANE_ANGLE_UNIT ( ) SI_UNIT ( $, .RADIAN. ) );
#54 = DIRECTION ( 'NONE',  ( -1.000000000000000000, -6.123233995736766000E-017, 0.0000000000000000000 ) ) ;
#55 = CC_DESIGN_PERSON_AND_ORGANIZATION_ASSIGNMENT ( #193, #9, ( #336 ) ) ;
#56 = DIRECTION ( 'NONE',  ( -1.000000000000000000, -0.0000000000000000000, -0.0000000000000000000 ) ) ;
#57 = DATE_AND_TIME ( #127, #199 ) ;
#58 = ORIENTED_EDGE ( 'NONE', *, *, #339, .F. ) ;
#59 = EDGE_CURVE ( 'NONE', #365, #39, #255, .T. ) ;
#60 = FACE_OUTER_BOUND ( 'NONE', #50, .T. ) ;
#61 = EDGE_LOOP ( 'NONE', ( #211, #266, #301, #12 ) ) ;
#62 = AXIS2_PLACEMENT_3D ( 'NONE', #328, #54, #247 ) ;
#63 = DESIGN_CONTEXT ( 'detailed design', #66, 'design' ) ;
#64 = PERSON_AND_ORGANIZATION ( #90, #11 ) ;
#65 = VERTEX_POINT ( 'NONE', #289 ) ;
#66 = APPLICATION_CONTEXT ( 'configuration controlled 3d designs of mechanical parts and assemblies' ) ;
#67 = AXIS2_PLACEMENT_3D ( 'NONE', #346, #290, #98 ) ;
#68 = APPROVAL_STATUS ( 'not_yet_approved' ) ;
#69 = CIRCLE ( 'NONE', #233, 3.000000000000000000 ) ;
#70 = ORIENTED_EDGE ( 'NONE', *, *, #130, .F. ) ;
#71 = CARTESIAN_POINT ( 'NONE',  ( 0.9999999999999997800, -3.000000000000000000, 3.673940397442059900E-016 ) ) ;
#72 = CARTESIAN_POINT ( 'NONE',  ( -1.836970198721029900E-016, 3.000000000000000000, 0.0000000000000000000 ) ) ;
#73 = PERSON_AND_ORGANIZATION ( #90, #11 ) ;
#74 = SECURITY_CLASSIFICATION ( '', '', #203 ) ;
#75 = ORIENTED_EDGE ( 'NONE', *, *, #277, .T. ) ;
#76 = CARTESIAN_POINT ( 'NONE',  ( 33.00000000000000000, 0.0000000000000000000, 0.0000000000000000000 ) ) ;
#77 = EDGE_CURVE ( 'NONE', #240, #365, #320, .T. ) ;
#78 = CARTESIAN_POINT ( 'NONE',  ( -41.99999999999999300, 2.499999999999995100, 0.0000000000000000000 ) ) ;
#79 = DIRECTION ( 'NONE',  ( 0.0000000000000000000, 1.000000000000000000, 0.0000000000000000000 ) ) ;
#80 = CIRCLE ( 'NONE', #196, 2.499999999999997800 ) ;
#81 = ORIENTED_EDGE ( 'NONE', *, *, #93, .F. ) ;
#82 = ADVANCED_FACE ( 'NONE', ( #251 ), #169, .T. ) ;
#83 = DIRECTION ( 'NONE',  ( 0.0000000000000000000, 0.0000000000000000000, 1.000000000000000000 ) ) ;
#84 = DIRECTION ( 'NONE',  ( -1.000000000000000000, -0.0000000000000000000, -0.0000000000000000000 ) ) ;
#85 = AXIS2_PLACEMENT_3D ( 'NONE', #221, #56, #249 ) ;
#86 = COORDINATED_UNIVERSAL_TIME_OFFSET ( 9, 0, .AHEAD. ) ;
#87 = CLOSED_SHELL ( 'NONE', ( #222, #248, #2, #167, #4, #134 ) ) ;
#88 = DIRECTION ( 'NONE',  ( 1.000000000000000000, 6.123233995736766000E-017, -0.0000000000000000000 ) ) ;
#89 = FACE_OUTER_BOUND ( 'NONE', #133, .T. ) ;
#90 = PERSON ( 'UNSPECIFIED', 'UNSPECIFIED', 'UNSPECIFIED', ('UNSPECIFIED'), ('UNSPECIFIED'), ('UNSPECIFIED') ) ;
#91 = EDGE_LOOP ( 'NONE', ( #5, #321, #123, #164 ) ) ;
#92 = CC_DESIGN_PERSON_AND_ORGANIZATION_ASSIGNMENT ( #118, #35, ( #74 ) ) ;
#93 = EDGE_CURVE ( 'NONE', #220, #228, #238, .T. ) ;
#94 = FACE_OUTER_BOUND ( 'NONE', #354, .T. ) ;
#95 = CLOSED_SHELL ( 'NONE', ( #329, #108, #113, #322, #360, #82 ) ) ;
#96 = APPROVAL_STATUS ( 'not_yet_approved' ) ;
#97 = AXIS2_PLACEMENT_3D ( 'NONE', #355, #273, #302 ) ;
#98 = DIRECTION ( 'NONE',  ( -6.123233995736766000E-017, 1.000000000000000000, 0.0000000000000000000 ) ) ;
#99 = ORIENTED_EDGE ( 'NONE', *, *, #112, .T. ) ;
#100 = DIRECTION ( 'NONE',  ( -1.000000000000000000, 0.0000000000000000000, -0.0000000000000000000 ) ) ;
#101 = DATE_AND_TIME ( #172, #250 ) ;
#102 = VECTOR ( 'NONE', #263, 1000.000000000000000 ) ;
#103 = DIRECTION ( 'NONE',  ( -1.000000000000000000, -0.0000000000000000000, -0.0000000000000000000 ) ) ;
#104 = CARTESIAN_POINT ( 'NONE',  ( 1.000000000000000000, 3.673940397442059900E-016, -3.000000000000000000 ) ) ;
#105 = CIRCLE ( 'NONE', #117, 3.000000000000000000 ) ;
#106 = ORIENTED_EDGE ( 'NONE', *, *, #59, .T. ) ;
#107 = CARTESIAN_POINT ( 'NONE',  ( 32.00000000000000000, 0.0000000000000000000, 2.000000000000000000 ) ) ;
#108 = ADVANCED_FACE ( 'NONE', ( #307 ), #159, .T. ) ;
#109 = CC_DESIGN_DATE_AND_TIME_ASSIGNMENT ( #183, #232, ( #74 ) ) ;
#110 = PERSON_AND_ORGANIZATION ( #90, #11 ) ;
#111 = FACE_OUTER_BOUND ( 'NONE', #29, .T. ) ;
#112 = EDGE_CURVE ( 'NONE', #228, #349, #26, .T. ) ;
#113 = ADVANCED_FACE ( 'NONE', ( #173 ), #264, .T. ) ;
#114 = FACE_OUTER_BOUND ( 'NONE', #195, .T. ) ;
#115 = EDGE_LOOP ( 'NONE', ( #81, #190 ) ) ;
#116 = MANIFOLD_SOLID_BREP ( 'È¸Àü3', #87 ) ;
#117 = AXIS2_PLACEMENT_3D ( 'NONE', #194, #24, #223 ) ;
#118 = PERSON_AND_ORGANIZATION ( #90, #11 ) ;
#119 = FACE_OUTER_BOUND ( 'NONE', #140, .T. ) ;
#120 =( NAMED_UNIT ( * ) SI_UNIT ( $, .STERADIAN. ) SOLID_ANGLE_UNIT ( ) );
#121 = PERSON_AND_ORGANIZATION_ROLE ( 'creator' ) ;
#122 = AXIS2_PLACEMENT_3D ( 'NONE', #156, #350, #182 ) ;
#123 = ORIENTED_EDGE ( 'NONE', *, *, #130, .T. ) ;
#124 = CARTESIAN_POINT ( 'NONE',  ( -41.49999999999999300, -2.541142108230757500E-015, 0.0000000000000000000 ) ) ;
#125 = APPROVAL ( #68, 'UNSPECIFIED' ) ;
#126 = CARTESIAN_POINT ( 'NONE',  ( -41.49999999999999300, -3.000000000000000900, 3.673940397442057900E-016 ) ) ;
#127 = CALENDAR_DATE ( 2023, 3, 7 ) ;
#128 = ORIENTED_EDGE ( 'NONE', *, *, #32, .F. ) ;
#129 = CARTESIAN_POINT ( 'NONE',  ( 0.0000000000000000000, 0.0000000000000000000, 0.0000000000000000000 ) ) ;
#130 = EDGE_CURVE ( 'NONE', #220, #240, #16, .T. ) ;
#131 = DIRECTION ( 'NONE',  ( -1.000000000000000000, -0.0000000000000000000, -0.0000000000000000000 ) ) ;
#132 = VECTOR ( 'NONE', #103, 1000.000000000000000 ) ;
#133 = EDGE_LOOP ( 'NONE', ( #151, #260 ) ) ;
#134 = ADVANCED_FACE ( 'NONE', ( #89 ), #293, .F. ) ;
#135 = CARTESIAN_POINT ( 'NONE',  ( 33.00000000000000000, 0.0000000000000000000, 0.0000000000000000000 ) ) ;
#136 =( GEOMETRIC_REPRESENTATION_CONTEXT ( 3 ) GLOBAL_UNCERTAINTY_ASSIGNED_CONTEXT ( ( #51 ) ) GLOBAL_UNIT_ASSIGNED_CONTEXT ( ( #341, #53, #120 ) ) REPRESENTATION_CONTEXT ( 'NONE', 'WORKASPACE' ) );
#137 = DIRECTION ( 'NONE',  ( 0.0000000000000000000, 0.0000000000000000000, -1.000000000000000000 ) ) ;
#138 = CARTESIAN_POINT ( 'NONE',  ( 32.00000000000000000, 3.673940397442060400E-016, -3.000000000000000000 ) ) ;
#139 = DATE_AND_TIME ( #210, #282 ) ;
#140 = EDGE_LOOP ( 'NONE', ( #308, #271, #306, #58 ) ) ;
#141 = CIRCLE ( 'NONE', #305, 2.000000000000000400 ) ;
#142 = AXIS2_PLACEMENT_3D ( 'NONE', #213, #45, #237 ) ;
#143 = ORIENTED_EDGE ( 'NONE', *, *, #363, .F. ) ;
#144 = APPROVAL_DATE_TIME ( #219, #262 ) ;
#145 = VERTEX_POINT ( 'NONE', #42 ) ;
#146 = CC_DESIGN_APPROVAL ( #125, ( #74 ) ) ;
#147 = EDGE_CURVE ( 'NONE', #39, #365, #7, .T. ) ;
#148 = APPLICATION_PROTOCOL_DEFINITION ( 'international standard', 'config_control_design', 1994, #174 ) ;
#149 = APPROVAL_STATUS ( 'not_yet_approved' ) ;
#150 = LINE ( 'NONE', #295, #214 ) ;
#151 = ORIENTED_EDGE ( 'NONE', *, *, #277, .F. ) ;
#152 = DIRECTION ( 'NONE',  ( 0.0000000000000000000, 0.0000000000000000000, 1.000000000000000000 ) ) ;
#153 = DIRECTION ( 'NONE',  ( 0.0000000000000000000, 1.000000000000000000, 0.0000000000000000000 ) ) ;
#154 = APPROVAL_PERSON_ORGANIZATION ( #227, #262, #285 ) ;
#155 = ORIENTED_EDGE ( 'NONE', *, *, #303, .F. ) ;
#156 = CARTESIAN_POINT ( 'NONE',  ( 0.9999999999999995600, 3.000000000000000000, 0.0000000000000000000 ) ) ;
#157 = DIRECTION ( 'NONE',  ( -1.000000000000000000, -0.0000000000000000000, -0.0000000000000000000 ) ) ;
#158 = CARTESIAN_POINT ( 'NONE',  ( -41.99999999999999300, -2.571758278209441300E-015, 0.0000000000000000000 ) ) ;
#159 = CONICAL_SURFACE ( 'NONE', #27, 2.999999999999998200, 0.7853981633974482800 ) ;
#160 = CARTESIAN_POINT ( 'NONE',  ( -41.49999999999999300, 2.999999999999995600, 0.0000000000000000000 ) ) ;
#161 = AXIS2_PLACEMENT_3D ( 'NONE', #76, #100, #294 ) ;
#162 = DIRECTION ( 'NONE',  ( 0.0000000000000000000, 0.0000000000000000000, 1.000000000000000000 ) ) ;
#163 = DIRECTION ( 'NONE',  ( 0.0000000000000000000, 0.0000000000000000000, 1.000000000000000000 ) ) ;
#164 = ORIENTED_EDGE ( 'NONE', *, *, #187, .F. ) ;
#165 = CARTESIAN_POINT ( 'NONE',  ( -41.49999999999999300, -3.000000000000000900, 3.673940397442057900E-016 ) ) ;
#166 = CC_DESIGN_SECURITY_CLASSIFICATION ( #74, ( #336 ) ) ;
#167 = ADVANCED_FACE ( 'NONE', ( #94 ), #364, .T. ) ;
#168 = EDGE_CURVE ( 'NONE', #228, #220, #80, .T. ) ;
#169 = CYLINDRICAL_SURFACE ( 'NONE', #67, 3.000000000000000000 ) ;
#170 = ORIENTED_EDGE ( 'NONE', *, *, #32, .T. ) ;
#171 = ORIENTED_EDGE ( 'NONE', *, *, #339, .T. ) ;
#172 = CALENDAR_DATE ( 2023, 3, 7 ) ;
#173 = FACE_OUTER_BOUND ( 'NONE', #21, .T. ) ;
#174 = APPLICATION_CONTEXT ( 'configuration controlled 3d designs of mechanical parts and assemblies' ) ;
#175 = PERSON_AND_ORGANIZATION_ROLE ( 'creator' ) ;
#176 = AXIS2_PLACEMENT_3D ( 'NONE', #46, #241, #79 ) ;
#177 = DIRECTION ( 'NONE',  ( 0.0000000000000000000, 0.0000000000000000000, -1.000000000000000000 ) ) ;
#178 = SHAPE_DEFINITION_REPRESENTATION ( #261, #280 ) ;
#179 = ORIENTED_EDGE ( 'NONE', *, *, #224, .T. ) ;
#180 = CARTESIAN_POINT ( 'NONE',  ( -41.49999999999999300, -2.541142108230757500E-015, 0.0000000000000000000 ) ) ;
#181 = PRODUCT_RELATED_PRODUCT_CATEGORY ( 'detail', '', ( #334 ) ) ;
#182 = DIRECTION ( 'NONE',  ( -6.123233995736766000E-017, 1.000000000000000000, 0.0000000000000000000 ) ) ;
#183 = DATE_AND_TIME ( #254, #330 ) ;
#184 = LINE ( 'NONE', #206, #331 ) ;
#185 = DIRECTION ( 'NONE',  ( 0.0000000000000000000, 0.0000000000000000000, 1.000000000000000000 ) ) ;
#186 = EDGE_LOOP ( 'NONE', ( #205, #99, #128, #70 ) ) ;
#187 = EDGE_CURVE ( 'NONE', #349, #240, #296, .T. ) ;
#188 = DIRECTION ( 'NONE',  ( 0.0000000000000000000, 1.000000000000000000, 0.0000000000000000000 ) ) ;
#189 = CARTESIAN_POINT ( 'NONE',  ( 0.0000000000000000000, 3.673940397442059900E-016, -3.000000000000000000 ) ) ;
#190 = ORIENTED_EDGE ( 'NONE', *, *, #168, .F. ) ;
#191 = PLANE ( 'NONE',  #62 ) ;
#192 = CARTESIAN_POINT ( 'NONE',  ( 33.00000000000000000, 0.0000000000000000000, 0.0000000000000000000 ) ) ;
#193 = PERSON_AND_ORGANIZATION ( #90, #11 ) ;
#194 = CARTESIAN_POINT ( 'NONE',  ( 1.000000000000000000, 0.0000000000000000000, 0.0000000000000000000 ) ) ;
#195 = EDGE_LOOP ( 'NONE', ( #170, #198, #234, #338 ) ) ;
#196 = AXIS2_PLACEMENT_3D ( 'NONE', #158, #351, #188 ) ;
#197 = FACE_OUTER_BOUND ( 'NONE', #115, .T. ) ;
#198 = ORIENTED_EDGE ( 'NONE', *, *, #15, .T. ) ;
#199 = LOCAL_TIME ( 10, 16, 34.00000000000000000, #274 ) ;
#200 = ORIENTED_EDGE ( 'NONE', *, *, #201, .T. ) ;
#201 = EDGE_CURVE ( 'NONE', #65, #145, #150, .T. ) ;
#202 = DIRECTION ( 'NONE',  ( 1.000000000000000000, 0.0000000000000000000, 0.0000000000000000000 ) ) ;
#203 = SECURITY_CLASSIFICATION_LEVEL ( 'unclassified' ) ;
#204 = LINE ( 'NONE', #189, #132 ) ;
#205 = ORIENTED_EDGE ( 'NONE', *, *, #93, .T. ) ;
#206 = CARTESIAN_POINT ( 'NONE',  ( 1.836970198721029900E-016, -3.000000000000000000, 3.673940397442059900E-016 ) ) ;
#207 = AXIS2_PLACEMENT_3D ( 'NONE', #362, #6, #202 ) ;
#208 = CARTESIAN_POINT ( 'NONE',  ( 0.9999999999999995600, 6.123233995736763600E-017, 0.0000000000000000000 ) ) ;
#209 = CARTESIAN_POINT ( 'NONE',  ( -41.99999999999999300, -2.571758278209441300E-015, 0.0000000000000000000 ) ) ;
#210 = CALENDAR_DATE ( 2023, 3, 7 ) ;
#211 = ORIENTED_EDGE ( 'NONE', *, *, #15, .F. ) ;
#212 = DIRECTION ( 'NONE',  ( 0.7071067811865475700, 0.7071067811865474600, 0.0000000000000000000 ) ) ;
#213 = CARTESIAN_POINT ( 'NONE',  ( 0.9999999999999995600, 6.123233995736763600E-017, 0.0000000000000000000 ) ) ;
#214 = VECTOR ( 'NONE', #17, 1000.000000000000000 ) ;
#215 = ORIENTED_EDGE ( 'NONE', *, *, #224, .F. ) ;
#216 = AXIS2_PLACEMENT_3D ( 'NONE', #129, #157, #185 ) ;
#217 = DIRECTION ( 'NONE',  ( -0.0000000000000000000, 1.000000000000000000, 1.224646799147353200E-016 ) ) ;
#218 = DIRECTION ( 'NONE',  ( 0.0000000000000000000, 0.0000000000000000000, 1.000000000000000000 ) ) ;
#219 = DATE_AND_TIME ( #291, #3 ) ;
#220 = VERTEX_POINT ( 'NONE', #78 ) ;
#221 = CARTESIAN_POINT ( 'NONE',  ( 32.00000000000000000, 0.0000000000000000000, 0.0000000000000000000 ) ) ;
#222 = ADVANCED_FACE ( 'NONE', ( #225 ), #278, .T. ) ;
#223 = DIRECTION ( 'NONE',  ( 0.0000000000000000000, 0.0000000000000000000, 1.000000000000000000 ) ) ;
#224 = EDGE_CURVE ( 'NONE', #145, #287, #353, .T. ) ;
#225 = FACE_OUTER_BOUND ( 'NONE', #292, .T. ) ;
#226 = CC_DESIGN_PERSON_AND_ORGANIZATION_ASSIGNMENT ( #299, #229, ( #334 ) ) ;
#227 = PERSON_AND_ORGANIZATION ( #90, #11 ) ;
#228 = VERTEX_POINT ( 'NONE', #19 ) ;
#229 = PERSON_AND_ORGANIZATION_ROLE ( 'design_owner' ) ;
#230 = VECTOR ( 'NONE', #212, 1000.000000000000000 ) ;
#231 = CARTESIAN_POINT ( 'NONE',  ( 1.000000000000000400, 2.891205793294680800E-016, 0.0000000000000000000 ) ) ;
#232 = DATE_TIME_ROLE ( 'classification_date' ) ;
#233 = AXIS2_PLACEMENT_3D ( 'NONE', #243, #84, #272 ) ;
#234 = ORIENTED_EDGE ( 'NONE', *, *, #59, .F. ) ;
#235 = DIRECTION ( 'NONE',  ( -7.228014483236695800E-017, 1.000000000000000000, 0.0000000000000000000 ) ) ;
#236 = DIRECTION ( 'NONE',  ( 0.0000000000000000000, 1.000000000000000000, 0.0000000000000000000 ) ) ;
#237 = DIRECTION ( 'NONE',  ( -7.228014483236695800E-017, 1.000000000000000000, 0.0000000000000000000 ) ) ;
#238 = CIRCLE ( 'NONE', #47, 2.499999999999997800 ) ;
#239 = EDGE_CURVE ( 'NONE', #343, #287, #204, .T. ) ;
#240 = VERTEX_POINT ( 'NONE', #160 ) ;
#241 = DIRECTION ( 'NONE',  ( 1.000000000000000000, 6.123233995736766000E-017, -0.0000000000000000000 ) ) ;
#242 = DIRECTION ( 'NONE',  ( -1.000000000000000000, -0.0000000000000000000, -0.0000000000000000000 ) ) ;
#243 = CARTESIAN_POINT ( 'NONE',  ( 32.00000000000000000, 0.0000000000000000000, 0.0000000000000000000 ) ) ;
#244 = CARTESIAN_POINT ( 'NONE',  ( 33.00000000000000000, 0.0000000000000000000, 2.000000000000000400 ) ) ;
#245 = ORIENTED_EDGE ( 'NONE', *, *, #239, .T. ) ;
#246 = PRODUCT_DEFINITION ( 'UNKNOWN', '', #336, #63 ) ;
#247 = DIRECTION ( 'NONE',  ( 6.123233995736766000E-017, -1.000000000000000000, 0.0000000000000000000 ) ) ;
#248 = ADVANCED_FACE ( 'NONE', ( #60 ), #286, .T. ) ;
#249 = DIRECTION ( 'NONE',  ( 0.0000000000000000000, 0.0000000000000000000, 1.000000000000000000 ) ) ;
#250 = LOCAL_TIME ( 10, 16, 34.00000000000000000, #319 ) ;
#251 = FACE_OUTER_BOUND ( 'NONE', #61, .T. ) ;
#252 = AXIS2_PLACEMENT_3D ( 'NONE', #48, #242, #83 ) ;
#253 = ORIENTED_EDGE ( 'NONE', *, *, #201, .F. ) ;
#254 = CALENDAR_DATE ( 2023, 3, 7 ) ;
#255 = CIRCLE ( 'NONE', #8, 3.000000000000000000 ) ;
#256 = EDGE_CURVE ( 'NONE', #65, #343, #69, .T. ) ;
#257 = APPLICATION_PROTOCOL_DEFINITION ( 'international standard', 'config_control_design', 1994, #66 ) ;
#258 = APPROVAL_ROLE ( '' ) ;
#259 = CARTESIAN_POINT ( 'NONE',  ( 32.00000000000000000, 0.0000000000000000000, 0.0000000000000000000 ) ) ;
#260 = ORIENTED_EDGE ( 'NONE', *, *, #318, .F. ) ;
#261 = PRODUCT_DEFINITION_SHAPE ( 'NONE', 'NONE',  #246 ) ;
#262 = APPROVAL ( #96, 'UNSPECIFIED' ) ;
#263 = DIRECTION ( 'NONE',  ( 1.000000000000000000, 6.123233995736766000E-017, -0.0000000000000000000 ) ) ;
#264 = PLANE ( 'NONE',  #122 ) ;
#265 = PERSON_AND_ORGANIZATION ( #90, #11 ) ;
#266 = ORIENTED_EDGE ( 'NONE', *, *, #187, .T. ) ;
#267 = DIRECTION ( 'NONE',  ( 0.0000000000000000000, 0.0000000000000000000, 1.000000000000000000 ) ) ;
#268 = DIRECTION ( 'NONE',  ( -1.000000000000000000, -0.0000000000000000000, -0.0000000000000000000 ) ) ;
#269 = CIRCLE ( 'NONE', #324, 1.000000000000000400 ) ;
#270 = AXIS2_PLACEMENT_3D ( 'NONE', #297, #131, #267 ) ;
#271 = ORIENTED_EDGE ( 'NONE', *, *, #318, .T. ) ;
#272 = DIRECTION ( 'NONE',  ( 0.0000000000000000000, 0.0000000000000000000, 1.000000000000000000 ) ) ;
#273 = DIRECTION ( 'NONE',  ( 1.000000000000000000, 6.123233995736766000E-017, -0.0000000000000000000 ) ) ;
#274 = COORDINATED_UNIVERSAL_TIME_OFFSET ( 9, 0, .AHEAD. ) ;
#275 = DIRECTION ( 'NONE',  ( 0.0000000000000000000, 1.000000000000000000, 0.0000000000000000000 ) ) ;
#276 = ORIENTED_EDGE ( 'NONE', *, *, #256, .T. ) ;
#277 = EDGE_CURVE ( 'NONE', #313, #327, #141, .T. ) ;
#278 = CYLINDRICAL_SURFACE ( 'NONE', #270, 3.000000000000000000 ) ;
#279 = ORIENTED_EDGE ( 'NONE', *, *, #239, .F. ) ;
#280 = ADVANCED_BREP_SHAPE_REPRESENTATION ( '03-3071', ( #116, #345, #207 ), #136 ) ;
#281 = CC_DESIGN_APPROVAL ( #262, ( #246 ) ) ;
#282 = LOCAL_TIME ( 10, 16, 34.00000000000000000, #358 ) ;
#283 = ORIENTED_EDGE ( 'NONE', *, *, #147, .T. ) ;
#284 = EDGE_CURVE ( 'NONE', #327, #343, #269, .T. ) ;
#285 = APPROVAL_ROLE ( '' ) ;
#286 = TOROIDAL_SURFACE ( 'NONE', #288, 2.000000000000000000, 1.000000000000000400 ) ;
#287 = VERTEX_POINT ( 'NONE', #104 ) ;
#288 = AXIS2_PLACEMENT_3D ( 'NONE', #323, #268, #162 ) ;
#289 = CARTESIAN_POINT ( 'NONE',  ( 32.00000000000000000, 0.0000000000000000000, 3.000000000000000000 ) ) ;
#290 = DIRECTION ( 'NONE',  ( 1.000000000000000000, 6.123233995736766000E-017, -0.0000000000000000000 ) ) ;
#291 = CALENDAR_DATE ( 2023, 3, 7 ) ;
#292 = EDGE_LOOP ( 'NONE', ( #276, #245, #215, #253 ) ) ;
#293 = PLANE ( 'NONE',  #161 ) ;
#294 = DIRECTION ( 'NONE',  ( -0.0000000000000000000, 0.0000000000000000000, 1.000000000000000000 ) ) ;
#295 = CARTESIAN_POINT ( 'NONE',  ( 0.0000000000000000000, 0.0000000000000000000, 3.000000000000000000 ) ) ;
#296 = CIRCLE ( 'NONE', #176, 2.999999999999998200 ) ;
#297 = CARTESIAN_POINT ( 'NONE',  ( 0.0000000000000000000, 0.0000000000000000000, 0.0000000000000000000 ) ) ;
#298 = DIRECTION ( 'NONE',  ( 0.0000000000000000000, -1.000000000000000000, 0.0000000000000000000 ) ) ;
#299 = PERSON_AND_ORGANIZATION ( #90, #11 ) ;
#300 = CC_DESIGN_PERSON_AND_ORGANIZATION_ASSIGNMENT ( #73, #121, ( #246 ) ) ;
#301 = ORIENTED_EDGE ( 'NONE', *, *, #77, .T. ) ;
#302 = DIRECTION ( 'NONE',  ( -6.123233995736766000E-017, 1.000000000000000000, 0.0000000000000000000 ) ) ;
#303 = EDGE_CURVE ( 'NONE', #313, #65, #342, .T. ) ;
#304 = VECTOR ( 'NONE', #317, 1000.000000000000000 ) ;
#305 = AXIS2_PLACEMENT_3D ( 'NONE', #135, #326, #163 ) ;
#306 = ORIENTED_EDGE ( 'NONE', *, *, #303, .T. ) ;
#307 = FACE_OUTER_BOUND ( 'NONE', #186, .T. ) ;
#308 = ORIENTED_EDGE ( 'NONE', *, *, #284, .F. ) ;
#309 = AXIS2_PLACEMENT_3D ( 'NONE', #259, #36, #152 ) ;
#310 = DATE_TIME_ROLE ( 'creation_date' ) ;
#311 = DIRECTION ( 'NONE',  ( 1.000000000000000000, 0.0000000000000000000, 0.0000000000000000000 ) ) ;
#312 = PLANE ( 'NONE',  #352 ) ;
#313 = VERTEX_POINT ( 'NONE', #244 ) ;
#314 = DIRECTION ( 'NONE',  ( 1.000000000000000000, 6.123233995736766000E-017, -0.0000000000000000000 ) ) ;
#315 = CC_DESIGN_DATE_AND_TIME_ASSIGNMENT ( #139, #310, ( #246 ) ) ;
#316 = DIRECTION ( 'NONE',  ( 1.000000000000000000, 6.123233995736766000E-017, -0.0000000000000000000 ) ) ;
#317 = DIRECTION ( 'NONE',  ( 0.7071067811865475700, -0.7071067811865474600, 8.659560562354931600E-017 ) ) ;
#318 = EDGE_CURVE ( 'NONE', #327, #313, #49, .T. ) ;
#319 = COORDINATED_UNIVERSAL_TIME_OFFSET ( 9, 0, .AHEAD. ) ;
#320 = LINE ( 'NONE', #72, #102 ) ;
#321 = ORIENTED_EDGE ( 'NONE', *, *, #168, .T. ) ;
#322 = ADVANCED_FACE ( 'NONE', ( #197 ), #191, .T. ) ;
#323 = CARTESIAN_POINT ( 'NONE',  ( 32.00000000000000000, 0.0000000000000000000, 0.0000000000000000000 ) ) ;
#324 = AXIS2_PLACEMENT_3D ( 'NONE', #20, #217, #52 ) ;
#325 = FACE_OUTER_BOUND ( 'NONE', #91, .T. ) ;
#326 = DIRECTION ( 'NONE',  ( -1.000000000000000000, -0.0000000000000000000, -0.0000000000000000000 ) ) ;
#327 = VERTEX_POINT ( 'NONE', #356 ) ;
#328 = CARTESIAN_POINT ( 'NONE',  ( -41.99999999999999300, -2.571758278209441300E-015, 0.0000000000000000000 ) ) ;
#329 = ADVANCED_FACE ( 'NONE', ( #114 ), #37, .T. ) ;
#330 = LOCAL_TIME ( 10, 16, 34.00000000000000000, #43 ) ;
#331 = VECTOR ( 'NONE', #10, 1000.000000000000000 ) ;
#332 = AXIS2_PLACEMENT_3D ( 'NONE', #124, #314, #153 ) ;
#333 = CIRCLE ( 'NONE', #85, 3.000000000000000000 ) ;
#334 = PRODUCT ( '03-3071', '03-3071', '', ( #34 ) ) ;
#335 = ORIENTED_EDGE ( 'NONE', *, *, #256, .F. ) ;
#336 = PRODUCT_DEFINITION_FORMATION_WITH_SPECIFIED_SOURCE ( 'ANY', '', #334, .NOT_KNOWN. ) ;
#337 = APPROVAL_DATE_TIME ( #57, #357 ) ;
#338 = ORIENTED_EDGE ( 'NONE', *, *, #77, .F. ) ;
#339 = EDGE_CURVE ( 'NONE', #343, #65, #333, .T. ) ;
#340 = APPROVAL_ROLE ( '' ) ;
#341 =( LENGTH_UNIT ( ) NAMED_UNIT ( * ) SI_UNIT ( .MILLI., .METRE. ) );
#342 = CIRCLE ( 'NONE', #344, 1.000000000000000400 ) ;
#343 = VERTEX_POINT ( 'NONE', #138 ) ;
#344 = AXIS2_PLACEMENT_3D ( 'NONE', #107, #298, #137 ) ;
#345 = MANIFOLD_SOLID_BREP ( 'È¸Àü4', #95 ) ;
#346 = CARTESIAN_POINT ( 'NONE',  ( 0.0000000000000000000, 0.0000000000000000000, 0.0000000000000000000 ) ) ;
#347 = DIRECTION ( 'NONE',  ( 0.0000000000000000000, 1.000000000000000000, 0.0000000000000000000 ) ) ;
#348 = APPROVAL_PERSON_ORGANIZATION ( #64, #357, #340 ) ;
#349 = VERTEX_POINT ( 'NONE', #165 ) ;
#350 = DIRECTION ( 'NONE',  ( 1.000000000000000000, 6.123233995736766000E-017, -0.0000000000000000000 ) ) ;
#351 = DIRECTION ( 'NONE',  ( 1.000000000000000000, 6.123233995736766000E-017, -0.0000000000000000000 ) ) ;
#352 = AXIS2_PLACEMENT_3D ( 'NONE', #231, #311, #177 ) ;
#353 = CIRCLE ( 'NONE', #252, 3.000000000000000000 ) ;
#354 = EDGE_LOOP ( 'NONE', ( #279, #171, #200, #143 ) ) ;
#355 = CARTESIAN_POINT ( 'NONE',  ( 0.0000000000000000000, 0.0000000000000000000, 0.0000000000000000000 ) ) ;
#356 = CARTESIAN_POINT ( 'NONE',  ( 33.00000000000000000, 3.061616997868383600E-016, -2.000000000000000400 ) ) ;
#357 = APPROVAL ( #149, 'UNSPECIFIED' ) ;
#358 = COORDINATED_UNIVERSAL_TIME_OFFSET ( 9, 0, .AHEAD. ) ;
#359 = CARTESIAN_POINT ( 'NONE',  ( 0.9999999999999993300, 3.000000000000000000, 0.0000000000000000000 ) ) ;
#360 = ADVANCED_FACE ( 'NONE', ( #325 ), #28, .T. ) ;
#361 = ORIENTED_EDGE ( 'NONE', *, *, #363, .T. ) ;
#362 = CARTESIAN_POINT ( 'NONE',  ( 0.0000000000000000000, 0.0000000000000000000, 0.0000000000000000000 ) ) ;
#363 = EDGE_CURVE ( 'NONE', #287, #145, #105, .T. ) ;
#364 = CYLINDRICAL_SURFACE ( 'NONE', #216, 3.000000000000000000 ) ;
#365 = VERTEX_POINT ( 'NONE', #359 ) ;
ENDSEC;
END-ISO-10303-21;
