ISO-10303-21;
HEADER;
FILE_DESCRIPTION (( 'STEP AP203' ),
    '1' );
FILE_NAME ('03-3072.STEP',
    '2023-07-03T01:16:48',
    ( 'USER' ),
    ( 'Hewlett-Packard Company' ),
    'SwSTEP 2.0',
    'SolidWorks 2014',
    '' );
FILE_SCHEMA (( 'CONFIG_CONTROL_DESIGN' ));
ENDSEC;

DATA;
#1 = ADVANCED_FACE ( 'NONE', ( #223 ), #103, .T. ) ;
#2 = DIRECTION ( 'NONE',  ( -0.0000000000000000000, 1.000000000000000000, 1.224646799147353200E-016 ) ) ;
#3 = AXIS2_PLACEMENT_3D ( 'NONE', #312, #169, #313 ) ;
#4 = FACE_OUTER_BOUND ( 'NONE', #89, .T. ) ;
#5 = VERTEX_POINT ( 'NONE', #181 ) ;
#6 = EDGE_LOOP ( 'NONE', ( #95, #17 ) ) ;
#7 = CARTESIAN_POINT ( 'NONE',  ( -41.99999999999999300, -2.571758278209441300E-015, 0.0000000000000000000 ) ) ;
#8 = AXIS2_PLACEMENT_3D ( 'NONE', #118, #114, #293 ) ;
#9 = DIRECTION ( 'NONE',  ( -7.228014483236695800E-017, 1.000000000000000000, 0.0000000000000000000 ) ) ;
#10 = EDGE_LOOP ( 'NONE', ( #23, #345, #264, #150 ) ) ;
#11 = ORIENTED_EDGE ( 'NONE', *, *, #134, .F. ) ;
#12 = CARTESIAN_POINT ( 'NONE',  ( -41.99999999999999300, -2.500000000000000400, 3.367778697655219000E-016 ) ) ;
#13 = AXIS2_PLACEMENT_3D ( 'NONE', #105, #286, #171 ) ;
#14 = PRODUCT_DEFINITION ( 'UNKNOWN', '', #129, #304 ) ;
#15 = PERSON_AND_ORGANIZATION_ROLE ( 'design_supplier' ) ;
#16 = VECTOR ( 'NONE', #252, 1000.000000000000000 ) ;
#17 = ORIENTED_EDGE ( 'NONE', *, *, #173, .F. ) ;
#18 = ORIENTED_EDGE ( 'NONE', *, *, #122, .F. ) ;
#19 = DIRECTION ( 'NONE',  ( 0.0000000000000000000, 0.0000000000000000000, 1.000000000000000000 ) ) ;
#20 = AXIS2_PLACEMENT_3D ( 'NONE', #317, #339, #348 ) ;
#21 = CARTESIAN_POINT ( 'NONE',  ( 32.50000000000000000, 0.0000000000000000000, 0.0000000000000000000 ) ) ;
#22 = AXIS2_PLACEMENT_3D ( 'NONE', #285, #289, #136 ) ;
#23 = ORIENTED_EDGE ( 'NONE', *, *, #88, .T. ) ;
#24 = ORIENTED_EDGE ( 'NONE', *, *, #98, .T. ) ;
#25 = ORIENTED_EDGE ( 'NONE', *, *, #164, .F. ) ;
#26 = PRODUCT ( '03-3072', '03-3072', '', ( #351 ) ) ;
#27 = COORDINATED_UNIVERSAL_TIME_OFFSET ( 9, 0, .AHEAD. ) ;
#28 = FACE_OUTER_BOUND ( 'NONE', #10, .T. ) ;
#29 = ORIENTED_EDGE ( 'NONE', *, *, #115, .T. ) ;
#30 = AXIS2_PLACEMENT_3D ( 'NONE', #185, #329, #155 ) ;
#31 = ORIENTED_EDGE ( 'NONE', *, *, #73, .T. ) ;
#32 = VERTEX_POINT ( 'NONE', #330 ) ;
#33 = DIRECTION ( 'NONE',  ( 0.0000000000000000000, -1.000000000000000000, 0.0000000000000000000 ) ) ;
#34 = CALENDAR_DATE ( 2023, 3, 7 ) ;
#35 = AXIS2_PLACEMENT_3D ( 'NONE', #269, #110, #290 ) ;
#36 = ADVANCED_FACE ( 'NONE', ( #276 ), #108, .F. ) ;
#37 = CARTESIAN_POINT ( 'NONE',  ( 0.9999999999999993300, 3.000000000000000000, 0.0000000000000000000 ) ) ;
#38 = APPROVAL ( #145, 'UNSPECIFIED' ) ;
#39 = LOCAL_TIME ( 10, 16, 48.00000000000000000, #127 ) ;
#40 = CIRCLE ( 'NONE', #229, 0.5000000000000004400 ) ;
#41 = EDGE_LOOP ( 'NONE', ( #160, #61, #244, #44 ) ) ;
#42 = VERTEX_POINT ( 'NONE', #75 ) ;
#43 = AXIS2_PLACEMENT_3D ( 'NONE', #202, #287, #324 ) ;
#44 = ORIENTED_EDGE ( 'NONE', *, *, #161, .F. ) ;
#45 = ORIENTED_EDGE ( 'NONE', *, *, #134, .T. ) ;
#46 = CARTESIAN_POINT ( 'NONE',  ( 1.836970198721029900E-016, -3.000000000000000000, 3.673940397442059900E-016 ) ) ;
#47 = APPLICATION_CONTEXT ( 'configuration controlled 3d designs of mechanical parts and assemblies' ) ;
#48 =( GEOMETRIC_REPRESENTATION_CONTEXT ( 3 ) GLOBAL_UNCERTAINTY_ASSIGNED_CONTEXT ( ( #245 ) ) GLOBAL_UNIT_ASSIGNED_CONTEXT ( ( #277, #346, #193 ) ) REPRESENTATION_CONTEXT ( 'NONE', 'WORKASPACE' ) );
#49 = APPROVAL_DATE_TIME ( #137, #153 ) ;
#50 = CIRCLE ( 'NONE', #260, 3.000000000000000400 ) ;
#51 = ORIENTED_EDGE ( 'NONE', *, *, #69, .T. ) ;
#52 = DIRECTION ( 'NONE',  ( 1.000000000000000000, 6.123233995736766000E-017, -0.0000000000000000000 ) ) ;
#53 = ORIENTED_EDGE ( 'NONE', *, *, #63, .F. ) ;
#54 = PERSON_AND_ORGANIZATION_ROLE ( 'classification_officer' ) ;
#55 = DIRECTION ( 'NONE',  ( -1.000000000000000000, -0.0000000000000000000, -0.0000000000000000000 ) ) ;
#56 = CARTESIAN_POINT ( 'NONE',  ( 0.0000000000000000000, 0.0000000000000000000, 0.0000000000000000000 ) ) ;
#57 = AXIS2_PLACEMENT_3D ( 'NONE', #353, #52, #254 ) ;
#58 = FACE_OUTER_BOUND ( 'NONE', #76, .T. ) ;
#59 = DIRECTION ( 'NONE',  ( 0.0000000000000000000, 0.0000000000000000000, 1.000000000000000000 ) ) ;
#60 = EDGE_LOOP ( 'NONE', ( #66, #364, #11, #170 ) ) ;
#61 = ORIENTED_EDGE ( 'NONE', *, *, #158, .T. ) ;
#62 = AXIS2_PLACEMENT_3D ( 'NONE', #133, #319, #141 ) ;
#63 = EDGE_CURVE ( 'NONE', #82, #106, #149, .T. ) ;
#64 = APPROVAL_PERSON_ORGANIZATION ( #148, #153, #350 ) ;
#65 = VECTOR ( 'NONE', #291, 1000.000000000000000 ) ;
#66 = ORIENTED_EDGE ( 'NONE', *, *, #131, .T. ) ;
#67 = ORIENTED_EDGE ( 'NONE', *, *, #101, .F. ) ;
#68 = CC_DESIGN_APPROVAL ( #38, ( #14 ) ) ;
#69 = EDGE_CURVE ( 'NONE', #106, #32, #336, .T. ) ;
#70 = FACE_OUTER_BOUND ( 'NONE', #251, .T. ) ;
#71 = ORIENTED_EDGE ( 'NONE', *, *, #101, .T. ) ;
#72 = VERTEX_POINT ( 'NONE', #37 ) ;
#73 = EDGE_CURVE ( 'NONE', #5, #32, #332, .T. ) ;
#74 = CARTESIAN_POINT ( 'NONE',  ( 32.50000000000000000, 0.0000000000000000000, 0.0000000000000000000 ) ) ;
#75 = CARTESIAN_POINT ( 'NONE',  ( -41.49999999999999300, 2.999999999999995600, 0.0000000000000000000 ) ) ;
#76 = EDGE_LOOP ( 'NONE', ( #45, #123 ) ) ;
#77 = ORIENTED_EDGE ( 'NONE', *, *, #140, .T. ) ;
#78 = ORIENTED_EDGE ( 'NONE', *, *, #73, .F. ) ;
#79 = ADVANCED_FACE ( 'NONE', ( #210 ), #263, .T. ) ;
#80 = EDGE_CURVE ( 'NONE', #82, #5, #326, .T. ) ;
#81 = CYLINDRICAL_SURFACE ( 'NONE', #104, 3.000000000000000000 ) ;
#82 = VERTEX_POINT ( 'NONE', #361 ) ;
#83 = VERTEX_POINT ( 'NONE', #196 ) ;
#84 = DIRECTION ( 'NONE',  ( 1.000000000000000000, 6.123233995736766000E-017, -0.0000000000000000000 ) ) ;
#85 = DIRECTION ( 'NONE',  ( -1.000000000000000000, -0.0000000000000000000, -0.0000000000000000000 ) ) ;
#86 = AXIS2_PLACEMENT_3D ( 'NONE', #259, #93, #333 ) ;
#87 = EDGE_LOOP ( 'NONE', ( #51, #311 ) ) ;
#88 = EDGE_CURVE ( 'NONE', #357, #362, #128, .T. ) ;
#89 = EDGE_LOOP ( 'NONE', ( #307, #31, #130, #53 ) ) ;
#90 = ORIENTED_EDGE ( 'NONE', *, *, #116, .F. ) ;
#91 = CC_DESIGN_PERSON_AND_ORGANIZATION_ASSIGNMENT ( #207, #152, ( #14 ) ) ;
#92 = APPROVAL_STATUS ( 'not_yet_approved' ) ;
#93 = DIRECTION ( 'NONE',  ( 1.000000000000000000, 6.123233995736766000E-017, -0.0000000000000000000 ) ) ;
#94 = VECTOR ( 'NONE', #320, 1000.000000000000000 ) ;
#95 = ORIENTED_EDGE ( 'NONE', *, *, #147, .F. ) ;
#96 = DIRECTION ( 'NONE',  ( -1.000000000000000000, -0.0000000000000000000, -0.0000000000000000000 ) ) ;
#97 = EDGE_CURVE ( 'NONE', #362, #5, #138, .T. ) ;
#98 = EDGE_CURVE ( 'NONE', #357, #82, #40, .T. ) ;
#99 = CLOSED_SHELL ( 'NONE', ( #172, #79, #334, #1, #314, #246 ) ) ;
#100 = CLOSED_SHELL ( 'NONE', ( #224, #109, #266, #198, #135, #36 ) ) ;
#101 = EDGE_CURVE ( 'NONE', #362, #357, #219, .T. ) ;
#102 = LINE ( 'NONE', #341, #241 ) ;
#103 = PLANE ( 'NONE',  #43 ) ;
#104 = AXIS2_PLACEMENT_3D ( 'NONE', #355, #84, #234 ) ;
#105 = CARTESIAN_POINT ( 'NONE',  ( 32.50000000000000000, 0.0000000000000000000, 0.0000000000000000000 ) ) ;
#106 = VERTEX_POINT ( 'NONE', #174 ) ;
#107 = PERSON_AND_ORGANIZATION ( #239, #203 ) ;
#108 = PLANE ( 'NONE',  #22 ) ;
#109 = ADVANCED_FACE ( 'NONE', ( #28 ), #120, .T. ) ;
#110 = DIRECTION ( 'NONE',  ( -1.000000000000000000, -0.0000000000000000000, -0.0000000000000000000 ) ) ;
#111 = CC_DESIGN_DATE_AND_TIME_ASSIGNMENT ( #222, #327, ( #14 ) ) ;
#112 = APPROVAL_DATE_TIME ( #191, #270 ) ;
#113 = LINE ( 'NONE', #46, #16 ) ;
#114 = DIRECTION ( 'NONE',  ( 1.000000000000000000, 0.0000000000000000000, 0.0000000000000000000 ) ) ;
#115 = EDGE_CURVE ( 'NONE', #5, #82, #50, .T. ) ;
#116 = EDGE_CURVE ( 'NONE', #32, #106, #316, .T. ) ;
#117 = VERTEX_POINT ( 'NONE', #12 ) ;
#118 = CARTESIAN_POINT ( 'NONE',  ( 1.000000000000000400, 2.891205793294680800E-016, 0.0000000000000000000 ) ) ;
#119 = APPROVAL_PERSON_ORGANIZATION ( #199, #270, #278 ) ;
#120 = TOROIDAL_SURFACE ( 'NONE', #271, 2.500000000000000000, 0.5000000000000004400 ) ;
#121 = CARTESIAN_POINT ( 'NONE',  ( 33.00000000000000000, 3.367778697655221500E-016, -2.500000000000000000 ) ) ;
#122 = EDGE_CURVE ( 'NONE', #188, #232, #113, .T. ) ;
#123 = ORIENTED_EDGE ( 'NONE', *, *, #164, .T. ) ;
#124 = DIRECTION ( 'NONE',  ( -6.123233995736766000E-017, 1.000000000000000000, 0.0000000000000000000 ) ) ;
#125 = AXIS2_PLACEMENT_3D ( 'NONE', #21, #280, #59 ) ;
#126 = EDGE_LOOP ( 'NONE', ( #288, #71, #24, #296 ) ) ;
#127 = COORDINATED_UNIVERSAL_TIME_OFFSET ( 9, 0, .AHEAD. ) ;
#128 = CIRCLE ( 'NONE', #3, 2.500000000000000000 ) ;
#129 = PRODUCT_DEFINITION_FORMATION_WITH_SPECIFIED_SOURCE ( 'ANY', '', #26, .NOT_KNOWN. ) ;
#130 = ORIENTED_EDGE ( 'NONE', *, *, #69, .F. ) ;
#131 = EDGE_CURVE ( 'NONE', #42, #188, #256, .T. ) ;
#132 = CONICAL_SURFACE ( 'NONE', #144, 2.999999999999998200, 0.7853981633974482800 ) ;
#133 = CARTESIAN_POINT ( 'NONE',  ( -41.49999999999999300, -2.541142108230757500E-015, 0.0000000000000000000 ) ) ;
#134 = EDGE_CURVE ( 'NONE', #72, #232, #192, .T. ) ;
#135 = ADVANCED_FACE ( 'NONE', ( #309 ), #273, .F. ) ;
#136 = DIRECTION ( 'NONE',  ( -0.0000000000000000000, 0.0000000000000000000, 1.000000000000000000 ) ) ;
#137 = DATE_AND_TIME ( #218, #275 ) ;
#138 = CIRCLE ( 'NONE', #183, 0.5000000000000004400 ) ;
#139 = MANIFOLD_SOLID_BREP ( 'È¸Àü4', #99 ) ;
#140 = EDGE_CURVE ( 'NONE', #42, #72, #184, .T. ) ;
#141 = DIRECTION ( 'NONE',  ( 0.0000000000000000000, 1.000000000000000000, 0.0000000000000000000 ) ) ;
#142 = FACE_OUTER_BOUND ( 'NONE', #294, .T. ) ;
#143 = DIRECTION ( 'NONE',  ( -1.000000000000000000, -0.0000000000000000000, -0.0000000000000000000 ) ) ;
#144 = AXIS2_PLACEMENT_3D ( 'NONE', #279, #154, #216 ) ;
#145 = APPROVAL_STATUS ( 'not_yet_approved' ) ;
#146 = DIRECTION ( 'NONE',  ( -1.000000000000000000, -0.0000000000000000000, -0.0000000000000000000 ) ) ;
#147 = EDGE_CURVE ( 'NONE', #83, #117, #200, .T. ) ;
#148 = PERSON_AND_ORGANIZATION ( #239, #203 ) ;
#149 = LINE ( 'NONE', #151, #65 ) ;
#150 = ORIENTED_EDGE ( 'NONE', *, *, #98, .F. ) ;
#151 = CARTESIAN_POINT ( 'NONE',  ( 0.0000000000000000000, 0.0000000000000000000, 3.000000000000000000 ) ) ;
#152 = PERSON_AND_ORGANIZATION_ROLE ( 'creator' ) ;
#153 = APPROVAL ( #182, 'UNSPECIFIED' ) ;
#154 = DIRECTION ( 'NONE',  ( 1.000000000000000000, 6.123233995736766000E-017, -0.0000000000000000000 ) ) ;
#155 = DIRECTION ( 'NONE',  ( -7.228014483236695800E-017, 1.000000000000000000, 0.0000000000000000000 ) ) ;
#156 = CYLINDRICAL_SURFACE ( 'NONE', #168, 3.000000000000000000 ) ;
#157 = CARTESIAN_POINT ( 'NONE',  ( 0.0000000000000000000, 0.0000000000000000000, 0.0000000000000000000 ) ) ;
#158 = EDGE_CURVE ( 'NONE', #117, #188, #102, .T. ) ;
#159 = ORIENTED_EDGE ( 'NONE', *, *, #158, .F. ) ;
#160 = ORIENTED_EDGE ( 'NONE', *, *, #147, .T. ) ;
#161 = EDGE_CURVE ( 'NONE', #83, #42, #302, .T. ) ;
#162 = ORIENTED_EDGE ( 'NONE', *, *, #161, .T. ) ;
#163 = EDGE_LOOP ( 'NONE', ( #282, #67 ) ) ;
#164 = EDGE_CURVE ( 'NONE', #232, #72, #176, .T. ) ;
#165 = CIRCLE ( 'NONE', #86, 2.499999999999997800 ) ;
#166 = PRODUCT_DEFINITION_SHAPE ( 'NONE', 'NONE',  #14 ) ;
#167 = CARTESIAN_POINT ( 'NONE',  ( 0.0000000000000000000, 0.0000000000000000000, 0.0000000000000000000 ) ) ;
#168 = AXIS2_PLACEMENT_3D ( 'NONE', #167, #55, #310 ) ;
#169 = DIRECTION ( 'NONE',  ( -1.000000000000000000, -0.0000000000000000000, -0.0000000000000000000 ) ) ;
#170 = ORIENTED_EDGE ( 'NONE', *, *, #140, .F. ) ;
#171 = DIRECTION ( 'NONE',  ( 0.0000000000000000000, 0.0000000000000000000, 1.000000000000000000 ) ) ;
#172 = ADVANCED_FACE ( 'NONE', ( #360 ), #81, .T. ) ;
#173 = EDGE_CURVE ( 'NONE', #117, #83, #165, .T. ) ;
#174 = CARTESIAN_POINT ( 'NONE',  ( 1.000000000000000000, 0.0000000000000000000, 3.000000000000000000 ) ) ;
#175 = CC_DESIGN_APPROVAL ( #153, ( #129 ) ) ;
#176 = CIRCLE ( 'NONE', #30, 3.000000000000000000 ) ;
#177 = CARTESIAN_POINT ( 'NONE',  ( -1.836970198721029900E-016, 3.000000000000000000, 0.0000000000000000000 ) ) ;
#178 = EDGE_CURVE ( 'NONE', #188, #42, #292, .T. ) ;
#179 = ORIENTED_EDGE ( 'NONE', *, *, #63, .T. ) ;
#180 = DIRECTION ( 'NONE',  ( 1.000000000000000000, 6.123233995736766000E-017, -0.0000000000000000000 ) ) ;
#181 = CARTESIAN_POINT ( 'NONE',  ( 32.50000000000000000, 3.673940397442060400E-016, -3.000000000000000400 ) ) ;
#182 = APPROVAL_STATUS ( 'not_yet_approved' ) ;
#183 = AXIS2_PLACEMENT_3D ( 'NONE', #197, #2, #225 ) ;
#184 = LINE ( 'NONE', #177, #248 ) ;
#185 = CARTESIAN_POINT ( 'NONE',  ( 0.9999999999999995600, 6.123233995736763600E-017, 0.0000000000000000000 ) ) ;
#186 = CARTESIAN_POINT ( 'NONE',  ( -41.49999999999999300, -3.000000000000000900, 3.673940397442057900E-016 ) ) ;
#187 = AXIS2_PLACEMENT_3D ( 'NONE', #157, #96, #305 ) ;
#188 = VERTEX_POINT ( 'NONE', #186 ) ;
#189 = ADVANCED_BREP_SHAPE_REPRESENTATION ( '03-3072', ( #328, #139, #337 ), #48 ) ;
#190 = CC_DESIGN_PERSON_AND_ORGANIZATION_ASSIGNMENT ( #331, #212, ( #129 ) ) ;
#191 = DATE_AND_TIME ( #255, #315 ) ;
#192 = CIRCLE ( 'NONE', #321, 3.000000000000000000 ) ;
#193 =( NAMED_UNIT ( * ) SI_UNIT ( $, .STERADIAN. ) SOLID_ANGLE_UNIT ( ) );
#194 = DIRECTION ( 'NONE',  ( -1.000000000000000000, -0.0000000000000000000, -0.0000000000000000000 ) ) ;
#195 = ORIENTED_EDGE ( 'NONE', *, *, #173, .T. ) ;
#196 = CARTESIAN_POINT ( 'NONE',  ( -41.99999999999999300, 2.499999999999995100, 0.0000000000000000000 ) ) ;
#197 = CARTESIAN_POINT ( 'NONE',  ( 32.50000000000000000, 3.061616997868383100E-016, -2.500000000000000000 ) ) ;
#198 = ADVANCED_FACE ( 'NONE', ( #352 ), #156, .T. ) ;
#199 = PERSON_AND_ORGANIZATION ( #239, #203 ) ;
#200 = CIRCLE ( 'NONE', #356, 2.499999999999997800 ) ;
#201 = ORIENTED_EDGE ( 'NONE', *, *, #178, .F. ) ;
#202 = CARTESIAN_POINT ( 'NONE',  ( -41.99999999999999300, -2.571758278209441300E-015, 0.0000000000000000000 ) ) ;
#203 = ORGANIZATION ( 'UNSPECIFIED', 'UNSPECIFIED', '' ) ;
#204 = DIRECTION ( 'NONE',  ( 0.7071067811865475700, -0.7071067811865474600, 8.659560562354931600E-017 ) ) ;
#205 = DIRECTION ( 'NONE',  ( 1.000000000000000000, 6.123233995736766000E-017, -0.0000000000000000000 ) ) ;
#206 = AXIS2_PLACEMENT_3D ( 'NONE', #56, #300, #124 ) ;
#207 = PERSON_AND_ORGANIZATION ( #239, #203 ) ;
#208 = DIRECTION ( 'NONE',  ( 1.000000000000000000, 6.123233995736766000E-017, -0.0000000000000000000 ) ) ;
#209 = PERSON_AND_ORGANIZATION ( #239, #203 ) ;
#210 = FACE_OUTER_BOUND ( 'NONE', #41, .T. ) ;
#211 = DIRECTION ( 'NONE',  ( -1.000000000000000000, -0.0000000000000000000, -0.0000000000000000000 ) ) ;
#212 = PERSON_AND_ORGANIZATION_ROLE ( 'creator' ) ;
#213 = CC_DESIGN_PERSON_AND_ORGANIZATION_ASSIGNMENT ( #267, #15, ( #129 ) ) ;
#214 = DIRECTION ( 'NONE',  ( 1.000000000000000000, 0.0000000000000000000, 0.0000000000000000000 ) ) ;
#215 = APPLICATION_CONTEXT ( 'configuration controlled 3d designs of mechanical parts and assemblies' ) ;
#216 = DIRECTION ( 'NONE',  ( 0.0000000000000000000, 1.000000000000000000, 0.0000000000000000000 ) ) ;
#217 = SHAPE_DEFINITION_REPRESENTATION ( #166, #189 ) ;
#218 = CALENDAR_DATE ( 2023, 3, 7 ) ;
#219 = CIRCLE ( 'NONE', #242, 2.500000000000000000 ) ;
#220 = CYLINDRICAL_SURFACE ( 'NONE', #206, 3.000000000000000000 ) ;
#221 = CARTESIAN_POINT ( 'NONE',  ( 32.50000000000000000, 0.0000000000000000000, 2.500000000000000000 ) ) ;
#222 = DATE_AND_TIME ( #281, #344 ) ;
#223 = FACE_OUTER_BOUND ( 'NONE', #6, .T. ) ;
#224 = ADVANCED_FACE ( 'NONE', ( #4 ), #340, .T. ) ;
#225 = DIRECTION ( 'NONE',  ( 0.0000000000000000000, -1.224646799147353500E-016, 1.000000000000000000 ) ) ;
#226 = SECURITY_CLASSIFICATION ( '', '', #233 ) ;
#227 = FACE_OUTER_BOUND ( 'NONE', #126, .T. ) ;
#228 = APPLICATION_PROTOCOL_DEFINITION ( 'international standard', 'config_control_design', 1994, #215 ) ;
#229 = AXIS2_PLACEMENT_3D ( 'NONE', #221, #33, #243 ) ;
#230 = DIRECTION ( 'NONE',  ( 1.000000000000000000, 6.123233995736766000E-017, -0.0000000000000000000 ) ) ;
#231 = DIRECTION ( 'NONE',  ( 0.0000000000000000000, 0.0000000000000000000, 1.000000000000000000 ) ) ;
#232 = VERTEX_POINT ( 'NONE', #236 ) ;
#233 = SECURITY_CLASSIFICATION_LEVEL ( 'unclassified' ) ;
#234 = DIRECTION ( 'NONE',  ( -6.123233995736766000E-017, 1.000000000000000000, 0.0000000000000000000 ) ) ;
#235 = TOROIDAL_SURFACE ( 'NONE', #125, 2.500000000000000000, 0.5000000000000004400 ) ;
#236 = CARTESIAN_POINT ( 'NONE',  ( 0.9999999999999997800, -3.000000000000000000, 3.673940397442059900E-016 ) ) ;
#237 = CARTESIAN_POINT ( 'NONE',  ( 33.00000000000000000, 0.0000000000000000000, 2.500000000000000000 ) ) ;
#238 = ORIENTED_EDGE ( 'NONE', *, *, #178, .T. ) ;
#239 = PERSON ( 'UNSPECIFIED', 'UNSPECIFIED', 'UNSPECIFIED', ('UNSPECIFIED'), ('UNSPECIFIED'), ('UNSPECIFIED') ) ;
#240 = CC_DESIGN_PERSON_AND_ORGANIZATION_ASSIGNMENT ( #209, #54, ( #226 ) ) ;
#241 = VECTOR ( 'NONE', #204, 1000.000000000000000 ) ;
#242 = AXIS2_PLACEMENT_3D ( 'NONE', #297, #146, #253 ) ;
#243 = DIRECTION ( 'NONE',  ( 0.0000000000000000000, 0.0000000000000000000, -1.000000000000000000 ) ) ;
#244 = ORIENTED_EDGE ( 'NONE', *, *, #131, .F. ) ;
#245 = UNCERTAINTY_MEASURE_WITH_UNIT (LENGTH_MEASURE( 1.000000000000000100E-005 ), #277, 'distance_accuracy_value', 'NONE');
#246 = ADVANCED_FACE ( 'NONE', ( #70 ), #220, .T. ) ;
#247 = CARTESIAN_POINT ( 'NONE',  ( 0.0000000000000000000, 3.673940397442059900E-016, -3.000000000000000000 ) ) ;
#248 = VECTOR ( 'NONE', #180, 1000.000000000000000 ) ;
#249 = DIRECTION ( 'NONE',  ( 0.0000000000000000000, 1.000000000000000000, 0.0000000000000000000 ) ) ;
#250 = CARTESIAN_POINT ( 'NONE',  ( 1.000000000000000000, 0.0000000000000000000, 0.0000000000000000000 ) ) ;
#251 = EDGE_LOOP ( 'NONE', ( #18, #238, #77, #25 ) ) ;
#252 = DIRECTION ( 'NONE',  ( 1.000000000000000000, 6.123233995736766000E-017, -0.0000000000000000000 ) ) ;
#253 = DIRECTION ( 'NONE',  ( 0.0000000000000000000, 0.0000000000000000000, 1.000000000000000000 ) ) ;
#254 = DIRECTION ( 'NONE',  ( -6.123233995736766000E-017, 1.000000000000000000, 0.0000000000000000000 ) ) ;
#255 = CALENDAR_DATE ( 2023, 3, 7 ) ;
#256 = CIRCLE ( 'NONE', #306, 2.999999999999998200 ) ;
#257 = DATE_TIME_ROLE ( 'classification_date' ) ;
#258 = CC_DESIGN_DATE_AND_TIME_ASSIGNMENT ( #262, #257, ( #226 ) ) ;
#259 = CARTESIAN_POINT ( 'NONE',  ( -41.99999999999999300, -2.571758278209441300E-015, 0.0000000000000000000 ) ) ;
#260 = AXIS2_PLACEMENT_3D ( 'NONE', #323, #143, #322 ) ;
#261 = EDGE_LOOP ( 'NONE', ( #78, #29, #179, #90 ) ) ;
#262 = DATE_AND_TIME ( #325, #39 ) ;
#263 = CONICAL_SURFACE ( 'NONE', #20, 2.999999999999998200, 0.7853981633974482800 ) ;
#264 = ORIENTED_EDGE ( 'NONE', *, *, #80, .F. ) ;
#265 = COORDINATED_UNIVERSAL_TIME_OFFSET ( 9, 0, .AHEAD. ) ;
#266 = ADVANCED_FACE ( 'NONE', ( #227 ), #235, .T. ) ;
#267 = PERSON_AND_ORGANIZATION ( #239, #203 ) ;
#268 = VECTOR ( 'NONE', #211, 1000.000000000000000 ) ;
#269 = CARTESIAN_POINT ( 'NONE',  ( 1.000000000000000000, 0.0000000000000000000, 0.0000000000000000000 ) ) ;
#270 = APPROVAL ( #92, 'UNSPECIFIED' ) ;
#271 = AXIS2_PLACEMENT_3D ( 'NONE', #74, #194, #274 ) ;
#272 = DIRECTION ( 'NONE',  ( 0.0000000000000000000, 1.000000000000000000, 0.0000000000000000000 ) ) ;
#273 = PLANE ( 'NONE',  #8 ) ;
#274 = DIRECTION ( 'NONE',  ( 0.0000000000000000000, 0.0000000000000000000, 1.000000000000000000 ) ) ;
#275 = LOCAL_TIME ( 10, 16, 48.00000000000000000, #335 ) ;
#276 = FACE_OUTER_BOUND ( 'NONE', #163, .T. ) ;
#277 =( LENGTH_UNIT ( ) NAMED_UNIT ( * ) SI_UNIT ( .MILLI., .METRE. ) );
#278 = APPROVAL_ROLE ( '' ) ;
#279 = CARTESIAN_POINT ( 'NONE',  ( -41.49999999999999300, -2.541142108230757500E-015, 0.0000000000000000000 ) ) ;
#280 = DIRECTION ( 'NONE',  ( -1.000000000000000000, -0.0000000000000000000, -0.0000000000000000000 ) ) ;
#281 = CALENDAR_DATE ( 2023, 3, 7 ) ;
#282 = ORIENTED_EDGE ( 'NONE', *, *, #88, .F. ) ;
#283 = CC_DESIGN_APPROVAL ( #270, ( #226 ) ) ;
#284 = AXIS2_PLACEMENT_3D ( 'NONE', #250, #85, #231 ) ;
#285 = CARTESIAN_POINT ( 'NONE',  ( 33.00000000000000000, 0.0000000000000000000, 0.0000000000000000000 ) ) ;
#286 = DIRECTION ( 'NONE',  ( -1.000000000000000000, -0.0000000000000000000, -0.0000000000000000000 ) ) ;
#287 = DIRECTION ( 'NONE',  ( -1.000000000000000000, -6.123233995736766000E-017, 0.0000000000000000000 ) ) ;
#288 = ORIENTED_EDGE ( 'NONE', *, *, #97, .F. ) ;
#289 = DIRECTION ( 'NONE',  ( -1.000000000000000000, 0.0000000000000000000, -0.0000000000000000000 ) ) ;
#290 = DIRECTION ( 'NONE',  ( 0.0000000000000000000, 0.0000000000000000000, 1.000000000000000000 ) ) ;
#291 = DIRECTION ( 'NONE',  ( -1.000000000000000000, -0.0000000000000000000, -0.0000000000000000000 ) ) ;
#292 = CIRCLE ( 'NONE', #62, 2.999999999999998200 ) ;
#293 = DIRECTION ( 'NONE',  ( 0.0000000000000000000, 0.0000000000000000000, -1.000000000000000000 ) ) ;
#294 = EDGE_LOOP ( 'NONE', ( #159, #195, #162, #201 ) ) ;
#295 = CARTESIAN_POINT ( 'NONE',  ( -41.49999999999999300, 2.999999999999995600, 0.0000000000000000000 ) ) ;
#296 = ORIENTED_EDGE ( 'NONE', *, *, #115, .F. ) ;
#297 = CARTESIAN_POINT ( 'NONE',  ( 33.00000000000000000, 0.0000000000000000000, 0.0000000000000000000 ) ) ;
#298 = CARTESIAN_POINT ( 'NONE',  ( 0.0000000000000000000, 0.0000000000000000000, 0.0000000000000000000 ) ) ;
#299 = APPROVAL_ROLE ( '' ) ;
#300 = DIRECTION ( 'NONE',  ( 1.000000000000000000, 6.123233995736766000E-017, -0.0000000000000000000 ) ) ;
#301 = CC_DESIGN_SECURITY_CLASSIFICATION ( #226, ( #129 ) ) ;
#302 = LINE ( 'NONE', #295, #94 ) ;
#303 = PLANE ( 'NONE',  #57 ) ;
#304 = DESIGN_CONTEXT ( 'detailed design', #47, 'design' ) ;
#305 = DIRECTION ( 'NONE',  ( 0.0000000000000000000, 0.0000000000000000000, 1.000000000000000000 ) ) ;
#306 = AXIS2_PLACEMENT_3D ( 'NONE', #343, #208, #272 ) ;
#307 = ORIENTED_EDGE ( 'NONE', *, *, #80, .T. ) ;
#308 = APPLICATION_PROTOCOL_DEFINITION ( 'international standard', 'config_control_design', 1994, #47 ) ;
#309 = FACE_OUTER_BOUND ( 'NONE', #87, .T. ) ;
#310 = DIRECTION ( 'NONE',  ( 0.0000000000000000000, 0.0000000000000000000, 1.000000000000000000 ) ) ;
#311 = ORIENTED_EDGE ( 'NONE', *, *, #116, .T. ) ;
#312 = CARTESIAN_POINT ( 'NONE',  ( 33.00000000000000000, 0.0000000000000000000, 0.0000000000000000000 ) ) ;
#313 = DIRECTION ( 'NONE',  ( 0.0000000000000000000, 0.0000000000000000000, 1.000000000000000000 ) ) ;
#314 = ADVANCED_FACE ( 'NONE', ( #142 ), #132, .T. ) ;
#315 = LOCAL_TIME ( 10, 16, 48.00000000000000000, #27 ) ;
#316 = CIRCLE ( 'NONE', #284, 3.000000000000000000 ) ;
#317 = CARTESIAN_POINT ( 'NONE',  ( -41.49999999999999300, -2.541142108230757500E-015, 0.0000000000000000000 ) ) ;
#318 = PRODUCT_RELATED_PRODUCT_CATEGORY ( 'detail', '', ( #26 ) ) ;
#319 = DIRECTION ( 'NONE',  ( 1.000000000000000000, 6.123233995736766000E-017, -0.0000000000000000000 ) ) ;
#320 = DIRECTION ( 'NONE',  ( 0.7071067811865475700, 0.7071067811865474600, 0.0000000000000000000 ) ) ;
#321 = AXIS2_PLACEMENT_3D ( 'NONE', #342, #205, #9 ) ;
#322 = DIRECTION ( 'NONE',  ( 0.0000000000000000000, 0.0000000000000000000, 1.000000000000000000 ) ) ;
#323 = CARTESIAN_POINT ( 'NONE',  ( 32.50000000000000000, 0.0000000000000000000, 0.0000000000000000000 ) ) ;
#324 = DIRECTION ( 'NONE',  ( 6.123233995736766000E-017, -1.000000000000000000, 0.0000000000000000000 ) ) ;
#325 = CALENDAR_DATE ( 2023, 3, 7 ) ;
#326 = CIRCLE ( 'NONE', #13, 3.000000000000000400 ) ;
#327 = DATE_TIME_ROLE ( 'creation_date' ) ;
#328 = MANIFOLD_SOLID_BREP ( 'È¸Àü3', #100 ) ;
#329 = DIRECTION ( 'NONE',  ( 1.000000000000000000, 6.123233995736766000E-017, -0.0000000000000000000 ) ) ;
#330 = CARTESIAN_POINT ( 'NONE',  ( 1.000000000000000000, 3.673940397442059900E-016, -3.000000000000000000 ) ) ;
#331 = PERSON_AND_ORGANIZATION ( #239, #203 ) ;
#332 = LINE ( 'NONE', #247, #268 ) ;
#333 = DIRECTION ( 'NONE',  ( 0.0000000000000000000, 1.000000000000000000, 0.0000000000000000000 ) ) ;
#334 = ADVANCED_FACE ( 'NONE', ( #58 ), #303, .T. ) ;
#335 = COORDINATED_UNIVERSAL_TIME_OFFSET ( 9, 0, .AHEAD. ) ;
#336 = CIRCLE ( 'NONE', #35, 3.000000000000000000 ) ;
#337 = AXIS2_PLACEMENT_3D ( 'NONE', #298, #19, #214 ) ;
#338 = APPROVAL_PERSON_ORGANIZATION ( #107, #38, #299 ) ;
#339 = DIRECTION ( 'NONE',  ( 1.000000000000000000, 6.123233995736766000E-017, -0.0000000000000000000 ) ) ;
#340 = CYLINDRICAL_SURFACE ( 'NONE', #187, 3.000000000000000000 ) ;
#341 = CARTESIAN_POINT ( 'NONE',  ( -41.49999999999999300, -3.000000000000000900, 3.673940397442057900E-016 ) ) ;
#342 = CARTESIAN_POINT ( 'NONE',  ( 0.9999999999999995600, 6.123233995736763600E-017, 0.0000000000000000000 ) ) ;
#343 = CARTESIAN_POINT ( 'NONE',  ( -41.49999999999999300, -2.541142108230757500E-015, 0.0000000000000000000 ) ) ;
#344 = LOCAL_TIME ( 10, 16, 48.00000000000000000, #265 ) ;
#345 = ORIENTED_EDGE ( 'NONE', *, *, #97, .T. ) ;
#346 =( NAMED_UNIT ( * ) PLANE_ANGLE_UNIT ( ) SI_UNIT ( $, .RADIAN. ) );
#347 = PERSON_AND_ORGANIZATION ( #239, #203 ) ;
#348 = DIRECTION ( 'NONE',  ( 0.0000000000000000000, 1.000000000000000000, 0.0000000000000000000 ) ) ;
#349 = PERSON_AND_ORGANIZATION_ROLE ( 'design_owner' ) ;
#350 = APPROVAL_ROLE ( '' ) ;
#351 = MECHANICAL_CONTEXT ( 'NONE', #215, 'mechanical' ) ;
#352 = FACE_OUTER_BOUND ( 'NONE', #261, .T. ) ;
#353 = CARTESIAN_POINT ( 'NONE',  ( 0.9999999999999995600, 3.000000000000000000, 0.0000000000000000000 ) ) ;
#354 = LOCAL_TIME ( 10, 16, 48.00000000000000000, #358 ) ;
#355 = CARTESIAN_POINT ( 'NONE',  ( 0.0000000000000000000, 0.0000000000000000000, 0.0000000000000000000 ) ) ;
#356 = AXIS2_PLACEMENT_3D ( 'NONE', #7, #230, #249 ) ;
#357 = VERTEX_POINT ( 'NONE', #237 ) ;
#358 = COORDINATED_UNIVERSAL_TIME_OFFSET ( 9, 0, .AHEAD. ) ;
#359 = CC_DESIGN_PERSON_AND_ORGANIZATION_ASSIGNMENT ( #347, #349, ( #26 ) ) ;
#360 = FACE_OUTER_BOUND ( 'NONE', #60, .T. ) ;
#361 = CARTESIAN_POINT ( 'NONE',  ( 32.50000000000000000, 0.0000000000000000000, 3.000000000000000400 ) ) ;
#362 = VERTEX_POINT ( 'NONE', #121 ) ;
#363 = DATE_AND_TIME ( #34, #354 ) ;
#364 = ORIENTED_EDGE ( 'NONE', *, *, #122, .T. ) ;
#365 = APPROVAL_DATE_TIME ( #363, #38 ) ;
ENDSEC;
END-ISO-10303-21;
