ISO-10303-21;
HEADER;
FILE_DESCRIPTION (( 'STEP AP203' ),
    '1' );
FILE_NAME ('03-3074.STEP',
    '2023-07-03T01:17:14',
    ( 'USER' ),
    ( 'Hewlett-Packard Company' ),
    'SwSTEP 2.0',
    'SolidWorks 2014',
    '' );
FILE_SCHEMA (( 'CONFIG_CONTROL_DESIGN' ));
ENDSEC;

DATA;
#1 = VERTEX_POINT ( 'NONE', #23 ) ;
#2 = DIRECTION ( 'NONE',  ( -1.000000000000000000, -0.0000000000000000000, -0.0000000000000000000 ) ) ;
#3 = CYLINDRICAL_SURFACE ( 'NONE', #351, 2.000000000000000000 ) ;
#4 = APPROVAL_STATUS ( 'not_yet_approved' ) ;
#5 = AXIS2_PLACEMENT_3D ( 'NONE', #168, #2, #332 ) ;
#6 = EDGE_LOOP ( 'NONE', ( #115, #265 ) ) ;
#7 = SHAPE_DEFINITION_REPRESENTATION ( #202, #15 ) ;
#8 = DIRECTION ( 'NONE',  ( 0.0000000000000000000, 0.0000000000000000000, 1.000000000000000000 ) ) ;
#9 = PLANE ( 'NONE',  #172 ) ;
#10 = DIRECTION ( 'NONE',  ( 0.0000000000000000000, 0.0000000000000000000, 1.000000000000000000 ) ) ;
#11 = ORIENTED_EDGE ( 'NONE', *, *, #28, .F. ) ;
#12 = SECURITY_CLASSIFICATION ( '', '', #149 ) ;
#13 = EDGE_CURVE ( 'NONE', #162, #214, #169, .T. ) ;
#14 = DIRECTION ( 'NONE',  ( 0.0000000000000000000, 0.0000000000000000000, 1.000000000000000000 ) ) ;
#15 = ADVANCED_BREP_SHAPE_REPRESENTATION ( '03-3074', ( #75, #206, #148 ), #53 ) ;
#16 = CIRCLE ( 'NONE', #236, 2.000000000000000000 ) ;
#17 = AXIS2_PLACEMENT_3D ( 'NONE', #181, #294, #127 ) ;
#18 = CARTESIAN_POINT ( 'NONE',  ( -43.50000000000000000, -2.663606788145493000E-015, 0.0000000000000000000 ) ) ;
#19 = ORIENTED_EDGE ( 'NONE', *, *, #359, .F. ) ;
#20 = DATE_AND_TIME ( #93, #167 ) ;
#21 = ADVANCED_FACE ( 'NONE', ( #244 ), #235, .T. ) ;
#22 = FACE_OUTER_BOUND ( 'NONE', #150, .T. ) ;
#23 = CARTESIAN_POINT ( 'NONE',  ( 0.9999999999999995600, 2.000000000000000000, 0.0000000000000000000 ) ) ;
#24 = DIRECTION ( 'NONE',  ( 1.000000000000000000, 6.123233995736766000E-017, -0.0000000000000000000 ) ) ;
#25 = ORIENTED_EDGE ( 'NONE', *, *, #66, .T. ) ;
#26 = PERSON_AND_ORGANIZATION ( #217, #297 ) ;
#27 = CC_DESIGN_PERSON_AND_ORGANIZATION_ASSIGNMENT ( #36, #331, ( #12 ) ) ;
#28 = EDGE_CURVE ( 'NONE', #46, #269, #311, .T. ) ;
#29 = LINE ( 'NONE', #113, #216 ) ;
#30 = LINE ( 'NONE', #234, #322 ) ;
#31 = CARTESIAN_POINT ( 'NONE',  ( -43.50000000000000000, -2.663606788145493000E-015, 0.0000000000000000000 ) ) ;
#32 = DIRECTION ( 'NONE',  ( 0.0000000000000000000, 0.0000000000000000000, 1.000000000000000000 ) ) ;
#33 = CARTESIAN_POINT ( 'NONE',  ( 20.69999999999999900, 2.081899558550500500E-016, -1.700000000000000200 ) ) ;
#34 = AXIS2_PLACEMENT_3D ( 'NONE', #321, #104, #39 ) ;
#35 = ORIENTED_EDGE ( 'NONE', *, *, #223, .F. ) ;
#36 = PERSON_AND_ORGANIZATION ( #217, #297 ) ;
#37 = CARTESIAN_POINT ( 'NONE',  ( 0.0000000000000000000, 0.0000000000000000000, 0.0000000000000000000 ) ) ;
#38 = ORIENTED_EDGE ( 'NONE', *, *, #126, .T. ) ;
#39 = DIRECTION ( 'NONE',  ( 0.0000000000000000000, 0.0000000000000000000, 1.000000000000000000 ) ) ;
#40 = LINE ( 'NONE', #131, #189 ) ;
#41 = AXIS2_PLACEMENT_3D ( 'NONE', #61, #176, #10 ) ;
#42 = ORIENTED_EDGE ( 'NONE', *, *, #281, .F. ) ;
#43 = CALENDAR_DATE ( 2023, 3, 7 ) ;
#44 = DIRECTION ( 'NONE',  ( 0.0000000000000000000, 1.000000000000000000, 0.0000000000000000000 ) ) ;
#45 = CC_DESIGN_DATE_AND_TIME_ASSIGNMENT ( #105, #163, ( #12 ) ) ;
#46 = VERTEX_POINT ( 'NONE', #114 ) ;
#47 = ADVANCED_FACE ( 'NONE', ( #22 ), #304, .T. ) ;
#48 = LINE ( 'NONE', #96, #125 ) ;
#49 = EDGE_CURVE ( 'NONE', #99, #1, #16, .T. ) ;
#50 = ORIENTED_EDGE ( 'NONE', *, *, #160, .T. ) ;
#51 = DATE_AND_TIME ( #129, #201 ) ;
#52 = CARTESIAN_POINT ( 'NONE',  ( 1.000000000000000000, -2.000000000000000000, 2.449293598294706400E-016 ) ) ;
#53 =( GEOMETRIC_REPRESENTATION_CONTEXT ( 3 ) GLOBAL_UNCERTAINTY_ASSIGNED_CONTEXT ( ( #141 ) ) GLOBAL_UNIT_ASSIGNED_CONTEXT ( ( #237, #70, #182 ) ) REPRESENTATION_CONTEXT ( 'NONE', 'WORKASPACE' ) );
#54 = EDGE_LOOP ( 'NONE', ( #103, #204, #226, #326 ) ) ;
#55 = CARTESIAN_POINT ( 'NONE',  ( 0.9999999999999997800, 6.123233995736764800E-017, 0.0000000000000000000 ) ) ;
#56 = FACE_OUTER_BOUND ( 'NONE', #308, .T. ) ;
#57 = AXIS2_PLACEMENT_3D ( 'NONE', #307, #24, #220 ) ;
#58 = APPROVAL_DATE_TIME ( #136, #203 ) ;
#59 = CARTESIAN_POINT ( 'NONE',  ( 1.000000000000000000, 2.449293598294706400E-016, -2.000000000000000000 ) ) ;
#60 = DIRECTION ( 'NONE',  ( 0.0000000000000000000, -1.224646799147353000E-016, 1.000000000000000000 ) ) ;
#61 = CARTESIAN_POINT ( 'NONE',  ( 20.69999999999999600, 0.0000000000000000000, 0.0000000000000000000 ) ) ;
#62 = PERSON_AND_ORGANIZATION_ROLE ( 'design_supplier' ) ;
#63 = APPROVAL ( #4, 'UNSPECIFIED' ) ;
#64 = ORIENTED_EDGE ( 'NONE', *, *, #86, .T. ) ;
#65 = CIRCLE ( 'NONE', #100, 1.700000000000000200 ) ;
#66 = EDGE_CURVE ( 'NONE', #162, #46, #87, .T. ) ;
#67 = CARTESIAN_POINT ( 'NONE',  ( 0.0000000000000000000, 0.0000000000000000000, 0.0000000000000000000 ) ) ;
#68 = CIRCLE ( 'NONE', #5, 2.000000000000000000 ) ;
#69 = APPROVAL_PERSON_ORGANIZATION ( #145, #203, #157 ) ;
#70 =( NAMED_UNIT ( * ) PLANE_ANGLE_UNIT ( ) SI_UNIT ( $, .RADIAN. ) );
#71 = AXIS2_PLACEMENT_3D ( 'NONE', #154, #283, #323 ) ;
#72 = DIRECTION ( 'NONE',  ( 6.123233995736766000E-017, -1.000000000000000000, 0.0000000000000000000 ) ) ;
#73 = VERTEX_POINT ( 'NONE', #195 ) ;
#74 = ADVANCED_FACE ( 'NONE', ( #152 ), #3, .T. ) ;
#75 = MANIFOLD_SOLID_BREP ( 'È¸Àü3', #296 ) ;
#76 = CIRCLE ( 'NONE', #78, 0.3000000000000025400 ) ;
#77 = ORIENTED_EDGE ( 'NONE', *, *, #86, .F. ) ;
#78 = AXIS2_PLACEMENT_3D ( 'NONE', #33, #230, #60 ) ;
#79 = CARTESIAN_POINT ( 'NONE',  ( 0.0000000000000000000, 0.0000000000000000000, 0.0000000000000000000 ) ) ;
#80 = CARTESIAN_POINT ( 'NONE',  ( 21.00000000000000400, 0.0000000000000000000, 1.700000000000000200 ) ) ;
#81 = DIRECTION ( 'NONE',  ( 0.7071067811865473500, 0.7071067811865477900, 0.0000000000000000000 ) ) ;
#82 = ORIENTED_EDGE ( 'NONE', *, *, #242, .F. ) ;
#83 = CC_DESIGN_APPROVAL ( #63, ( #12 ) ) ;
#84 = DIRECTION ( 'NONE',  ( -1.084202172485504400E-016, 1.000000000000000000, 0.0000000000000000000 ) ) ;
#85 = DIRECTION ( 'NONE',  ( 0.0000000000000000000, 0.0000000000000000000, 1.000000000000000000 ) ) ;
#86 = EDGE_CURVE ( 'NONE', #214, #269, #161, .T. ) ;
#87 = CIRCLE ( 'NONE', #255, 1.499999999999996700 ) ;
#88 = DIRECTION ( 'NONE',  ( 0.0000000000000000000, 1.000000000000000000, 0.0000000000000000000 ) ) ;
#89 = CARTESIAN_POINT ( 'NONE',  ( 1.000000000000000000, 0.0000000000000000000, 0.0000000000000000000 ) ) ;
#90 = CARTESIAN_POINT ( 'NONE',  ( -43.50000000000000000, -2.000000000000000000, 2.449293598294703500E-016 ) ) ;
#91 = CARTESIAN_POINT ( 'NONE',  ( 1.000000000000000400, 4.336808689942021700E-016, 0.0000000000000000000 ) ) ;
#92 = ORIENTED_EDGE ( 'NONE', *, *, #160, .F. ) ;
#93 = CALENDAR_DATE ( 2023, 3, 7 ) ;
#94 = DIRECTION ( 'NONE',  ( 1.000000000000000000, 6.123233995736766000E-017, -0.0000000000000000000 ) ) ;
#95 = APPROVAL_ROLE ( '' ) ;
#96 = CARTESIAN_POINT ( 'NONE',  ( 1.224646799147353200E-016, -2.000000000000000000, 2.449293598294706400E-016 ) ) ;
#97 = DIRECTION ( 'NONE',  ( 1.000000000000000000, 6.123233995736766000E-017, -0.0000000000000000000 ) ) ;
#98 = VECTOR ( 'NONE', #276, 999.9999999999998900 ) ;
#99 = VERTEX_POINT ( 'NONE', #52 ) ;
#100 = AXIS2_PLACEMENT_3D ( 'NONE', #314, #199, #32 ) ;
#101 = DIRECTION ( 'NONE',  ( -1.000000000000000000, 0.0000000000000000000, -0.0000000000000000000 ) ) ;
#102 = DATE_TIME_ROLE ( 'creation_date' ) ;
#103 = ORIENTED_EDGE ( 'NONE', *, *, #281, .T. ) ;
#104 = DIRECTION ( 'NONE',  ( -1.000000000000000000, -0.0000000000000000000, -0.0000000000000000000 ) ) ;
#105 = DATE_AND_TIME ( #175, #250 ) ;
#106 = CC_DESIGN_SECURITY_CLASSIFICATION ( #12, ( #277 ) ) ;
#107 = VERTEX_POINT ( 'NONE', #80 ) ;
#108 = ADVANCED_FACE ( 'NONE', ( #225 ), #361, .T. ) ;
#109 = EDGE_CURVE ( 'NONE', #232, #239, #68, .T. ) ;
#110 = TOROIDAL_SURFACE ( 'NONE', #71, 1.700000000000000200, 0.3000000000000025400 ) ;
#111 = EDGE_LOOP ( 'NONE', ( #188, #345 ) ) ;
#112 = PERSON_AND_ORGANIZATION ( #217, #297 ) ;
#113 = CARTESIAN_POINT ( 'NONE',  ( 0.0000000000000000000, 2.449293598294706400E-016, -2.000000000000000000 ) ) ;
#114 = CARTESIAN_POINT ( 'NONE',  ( -44.00000000000000000, 1.499999999999994200, 0.0000000000000000000 ) ) ;
#115 = ORIENTED_EDGE ( 'NONE', *, *, #319, .T. ) ;
#116 = CIRCLE ( 'NONE', #348, 2.000000000000000000 ) ;
#117 = DIRECTION ( 'NONE',  ( 0.0000000000000000000, 0.0000000000000000000, 1.000000000000000000 ) ) ;
#118 = AXIS2_PLACEMENT_3D ( 'NONE', #37, #94, #231 ) ;
#119 = ORIENTED_EDGE ( 'NONE', *, *, #303, .T. ) ;
#120 = LOCAL_TIME ( 10, 17, 14.00000000000000000, #192 ) ;
#121 = APPROVAL_ROLE ( '' ) ;
#122 = PRODUCT_RELATED_PRODUCT_CATEGORY ( 'detail', '', ( #164 ) ) ;
#123 = ORIENTED_EDGE ( 'NONE', *, *, #66, .F. ) ;
#124 = PERSON_AND_ORGANIZATION_ROLE ( 'design_owner' ) ;
#125 = VECTOR ( 'NONE', #156, 1000.000000000000000 ) ;
#126 = EDGE_CURVE ( 'NONE', #73, #239, #29, .T. ) ;
#127 = DIRECTION ( 'NONE',  ( 0.0000000000000000000, 1.000000000000000000, 0.0000000000000000000 ) ) ;
#128 = EDGE_LOOP ( 'NONE', ( #191, #38, #158, #261 ) ) ;
#129 = CALENDAR_DATE ( 2023, 3, 7 ) ;
#130 = APPLICATION_PROTOCOL_DEFINITION ( 'international standard', 'config_control_design', 1994, #233 ) ;
#131 = CARTESIAN_POINT ( 'NONE',  ( 0.0000000000000000000, 0.0000000000000000000, 2.000000000000000000 ) ) ;
#132 = ORIENTED_EDGE ( 'NONE', *, *, #28, .T. ) ;
#133 = FACE_OUTER_BOUND ( 'NONE', #316, .T. ) ;
#134 = ADVANCED_FACE ( 'NONE', ( #295 ), #193, .T. ) ;
#135 = CIRCLE ( 'NONE', #211, 2.000000000000000000 ) ;
#136 = DATE_AND_TIME ( #210, #286 ) ;
#137 = CARTESIAN_POINT ( 'NONE',  ( 20.69999999999999600, 0.0000000000000000000, 2.000000000000001300 ) ) ;
#138 = DIRECTION ( 'NONE',  ( 1.000000000000000000, 6.123233995736766000E-017, -0.0000000000000000000 ) ) ;
#139 = ORIENTED_EDGE ( 'NONE', *, *, #359, .T. ) ;
#140 = DIRECTION ( 'NONE',  ( -1.000000000000000000, -0.0000000000000000000, -0.0000000000000000000 ) ) ;
#141 = UNCERTAINTY_MEASURE_WITH_UNIT (LENGTH_MEASURE( 1.000000000000000100E-005 ), #237, 'distance_accuracy_value', 'NONE');
#142 = CARTESIAN_POINT ( 'NONE',  ( 0.0000000000000000000, 0.0000000000000000000, 0.0000000000000000000 ) ) ;
#143 = EDGE_CURVE ( 'NONE', #333, #73, #284, .T. ) ;
#144 = CIRCLE ( 'NONE', #155, 0.3000000000000025400 ) ;
#145 = PERSON_AND_ORGANIZATION ( #217, #297 ) ;
#146 = CARTESIAN_POINT ( 'NONE',  ( 1.000000000000000000, 0.0000000000000000000, 2.000000000000000000 ) ) ;
#147 = DIRECTION ( 'NONE',  ( 0.0000000000000000000, 0.0000000000000000000, -1.000000000000000000 ) ) ;
#148 = AXIS2_PLACEMENT_3D ( 'NONE', #67, #305, #353 ) ;
#149 = SECURITY_CLASSIFICATION_LEVEL ( 'unclassified' ) ;
#150 = EDGE_LOOP ( 'NONE', ( #289, #329, #119, #82 ) ) ;
#151 = DIRECTION ( 'NONE',  ( -1.000000000000000000, -0.0000000000000000000, -0.0000000000000000000 ) ) ;
#152 = FACE_OUTER_BOUND ( 'NONE', #128, .T. ) ;
#153 = ORIENTED_EDGE ( 'NONE', *, *, #198, .T. ) ;
#154 = CARTESIAN_POINT ( 'NONE',  ( 20.69999999999999900, 0.0000000000000000000, 0.0000000000000000000 ) ) ;
#155 = AXIS2_PLACEMENT_3D ( 'NONE', #347, #173, #254 ) ;
#156 = DIRECTION ( 'NONE',  ( 1.000000000000000000, 6.123233995736766000E-017, -0.0000000000000000000 ) ) ;
#157 = APPROVAL_ROLE ( '' ) ;
#158 = ORIENTED_EDGE ( 'NONE', *, *, #109, .F. ) ;
#159 = ADVANCED_FACE ( 'NONE', ( #209 ), #358, .T. ) ;
#160 = EDGE_CURVE ( 'NONE', #107, #183, #65, .T. ) ;
#161 = CIRCLE ( 'NONE', #330, 1.999999999999997300 ) ;
#162 = VERTEX_POINT ( 'NONE', #287 ) ;
#163 = DATE_TIME_ROLE ( 'classification_date' ) ;
#164 = PRODUCT ( '03-3074', '03-3074', '', ( #291 ) ) ;
#165 = CC_DESIGN_PERSON_AND_ORGANIZATION_ASSIGNMENT ( #219, #124, ( #164 ) ) ;
#166 = ORIENTED_EDGE ( 'NONE', *, *, #180, .T. ) ;
#167 = LOCAL_TIME ( 10, 17, 14.00000000000000000, #240 ) ;
#168 = CARTESIAN_POINT ( 'NONE',  ( 1.000000000000000000, 0.0000000000000000000, 0.0000000000000000000 ) ) ;
#169 = LINE ( 'NONE', #339, #98 ) ;
#170 = DIRECTION ( 'NONE',  ( -1.000000000000000000, -0.0000000000000000000, -0.0000000000000000000 ) ) ;
#171 = DIRECTION ( 'NONE',  ( -1.000000000000000000, -0.0000000000000000000, -0.0000000000000000000 ) ) ;
#172 = AXIS2_PLACEMENT_3D ( 'NONE', #91, #315, #147 ) ;
#173 = DIRECTION ( 'NONE',  ( 0.0000000000000000000, -1.000000000000000000, 0.0000000000000000000 ) ) ;
#174 = ORIENTED_EDGE ( 'NONE', *, *, #180, .F. ) ;
#175 = CALENDAR_DATE ( 2023, 3, 7 ) ;
#176 = DIRECTION ( 'NONE',  ( -1.000000000000000000, -0.0000000000000000000, -0.0000000000000000000 ) ) ;
#177 = CARTESIAN_POINT ( 'NONE',  ( -44.00000000000000000, -2.694222958124176800E-015, 0.0000000000000000000 ) ) ;
#178 = ORIENTED_EDGE ( 'NONE', *, *, #340, .T. ) ;
#179 = CIRCLE ( 'NONE', #17, 1.499999999999996700 ) ;
#180 = EDGE_CURVE ( 'NONE', #183, #73, #76, .T. ) ;
#181 = CARTESIAN_POINT ( 'NONE',  ( -44.00000000000000000, -2.694222958124176800E-015, 0.0000000000000000000 ) ) ;
#182 =( NAMED_UNIT ( * ) SI_UNIT ( $, .STERADIAN. ) SOLID_ANGLE_UNIT ( ) );
#183 = VERTEX_POINT ( 'NONE', #228 ) ;
#184 = PLANE ( 'NONE',  #363 ) ;
#185 = PERSON_AND_ORGANIZATION ( #217, #297 ) ;
#186 = PRODUCT_DEFINITION ( 'UNKNOWN', '', #277, #365 ) ;
#187 = ADVANCED_FACE ( 'NONE', ( #205 ), #9, .F. ) ;
#188 = ORIENTED_EDGE ( 'NONE', *, *, #109, .T. ) ;
#189 = VECTOR ( 'NONE', #292, 1000.000000000000000 ) ;
#190 = AXIS2_PLACEMENT_3D ( 'NONE', #343, #170, #117 ) ;
#191 = ORIENTED_EDGE ( 'NONE', *, *, #143, .T. ) ;
#192 = COORDINATED_UNIVERSAL_TIME_OFFSET ( 9, 0, .AHEAD. ) ;
#193 = PLANE ( 'NONE',  #57 ) ;
#194 = DIRECTION ( 'NONE',  ( 0.0000000000000000000, 1.000000000000000000, 0.0000000000000000000 ) ) ;
#195 = CARTESIAN_POINT ( 'NONE',  ( 20.69999999999999600, 2.449293598294707900E-016, -2.000000000000001300 ) ) ;
#196 = ORIENTED_EDGE ( 'NONE', *, *, #215, .F. ) ;
#197 = CIRCLE ( 'NONE', #288, 1.999999999999997300 ) ;
#198 = EDGE_CURVE ( 'NONE', #107, #333, #144, .T. ) ;
#199 = DIRECTION ( 'NONE',  ( -1.000000000000000000, -0.0000000000000000000, -0.0000000000000000000 ) ) ;
#200 = EDGE_LOOP ( 'NONE', ( #92, #196 ) ) ;
#201 = LOCAL_TIME ( 10, 17, 14.00000000000000000, #274 ) ;
#202 = PRODUCT_DEFINITION_SHAPE ( 'NONE', 'NONE',  #186 ) ;
#203 = APPROVAL ( #325, 'UNSPECIFIED' ) ;
#204 = ORIENTED_EDGE ( 'NONE', *, *, #260, .T. ) ;
#205 = FACE_OUTER_BOUND ( 'NONE', #111, .T. ) ;
#206 = MANIFOLD_SOLID_BREP ( 'È¸Àü4', #301 ) ;
#207 = DIRECTION ( 'NONE',  ( -1.084202172485504400E-016, 1.000000000000000000, 0.0000000000000000000 ) ) ;
#208 = APPLICATION_CONTEXT ( 'configuration controlled 3d designs of mechanical parts and assemblies' ) ;
#209 = FACE_OUTER_BOUND ( 'NONE', #273, .T. ) ;
#210 = CALENDAR_DATE ( 2023, 3, 7 ) ;
#211 = AXIS2_PLACEMENT_3D ( 'NONE', #344, #171, #8 ) ;
#212 = APPLICATION_PROTOCOL_DEFINITION ( 'international standard', 'config_control_design', 1994, #208 ) ;
#213 = DIRECTION ( 'NONE',  ( 1.000000000000000000, 6.123233995736766000E-017, -0.0000000000000000000 ) ) ;
#214 = VERTEX_POINT ( 'NONE', #90 ) ;
#215 = EDGE_CURVE ( 'NONE', #183, #107, #280, .T. ) ;
#216 = VECTOR ( 'NONE', #140, 1000.000000000000000 ) ;
#217 = PERSON ( 'UNSPECIFIED', 'UNSPECIFIED', 'UNSPECIFIED', ('UNSPECIFIED'), ('UNSPECIFIED'), ('UNSPECIFIED') ) ;
#218 = ORIENTED_EDGE ( 'NONE', *, *, #198, .F. ) ;
#219 = PERSON_AND_ORGANIZATION ( #217, #297 ) ;
#220 = DIRECTION ( 'NONE',  ( -6.123233995736766000E-017, 1.000000000000000000, 0.0000000000000000000 ) ) ;
#221 = CC_DESIGN_APPROVAL ( #203, ( #186 ) ) ;
#222 = EDGE_LOOP ( 'NONE', ( #50, #166, #349, #218 ) ) ;
#223 = EDGE_CURVE ( 'NONE', #73, #333, #135, .T. ) ;
#224 = CARTESIAN_POINT ( 'NONE',  ( -43.50000000000000000, 1.999999999999994900, 0.0000000000000000000 ) ) ;
#225 = FACE_OUTER_BOUND ( 'NONE', #338, .T. ) ;
#226 = ORIENTED_EDGE ( 'NONE', *, *, #319, .F. ) ;
#227 = DIRECTION ( 'NONE',  ( 1.000000000000000000, 6.123233995736766000E-017, -0.0000000000000000000 ) ) ;
#228 = CARTESIAN_POINT ( 'NONE',  ( 21.00000000000000400, 2.265596578422605100E-016, -1.700000000000000200 ) ) ;
#229 = AXIS2_PLACEMENT_3D ( 'NONE', #89, #285, #14 ) ;
#230 = DIRECTION ( 'NONE',  ( -0.0000000000000000000, 1.000000000000000000, 1.224646799147353200E-016 ) ) ;
#231 = DIRECTION ( 'NONE',  ( -6.123233995736766000E-017, 1.000000000000000000, 0.0000000000000000000 ) ) ;
#232 = VERTEX_POINT ( 'NONE', #146 ) ;
#233 = APPLICATION_CONTEXT ( 'configuration controlled 3d designs of mechanical parts and assemblies' ) ;
#234 = CARTESIAN_POINT ( 'NONE',  ( -1.224646799147353200E-016, 2.000000000000000000, 0.0000000000000000000 ) ) ;
#235 = CYLINDRICAL_SURFACE ( 'NONE', #272, 2.000000000000000000 ) ;
#236 = AXIS2_PLACEMENT_3D ( 'NONE', #55, #251, #84 ) ;
#237 =( LENGTH_UNIT ( ) NAMED_UNIT ( * ) SI_UNIT ( .MILLI., .METRE. ) );
#238 = DIRECTION ( 'NONE',  ( -1.000000000000000000, -6.123233995736766000E-017, 0.0000000000000000000 ) ) ;
#239 = VERTEX_POINT ( 'NONE', #59 ) ;
#240 = COORDINATED_UNIVERSAL_TIME_OFFSET ( 9, 0, .AHEAD. ) ;
#241 = CC_DESIGN_PERSON_AND_ORGANIZATION_ASSIGNMENT ( #354, #266, ( #186 ) ) ;
#242 = EDGE_CURVE ( 'NONE', #239, #232, #350, .T. ) ;
#243 = ADVANCED_FACE ( 'NONE', ( #133 ), #262, .T. ) ;
#244 = FACE_OUTER_BOUND ( 'NONE', #54, .T. ) ;
#245 = FACE_OUTER_BOUND ( 'NONE', #222, .T. ) ;
#246 = DIRECTION ( 'NONE',  ( -6.123233995736766000E-017, 1.000000000000000000, 0.0000000000000000000 ) ) ;
#247 = AXIS2_PLACEMENT_3D ( 'NONE', #31, #227, #88 ) ;
#248 = DIRECTION ( 'NONE',  ( 1.000000000000000000, 6.123233995736766000E-017, -0.0000000000000000000 ) ) ;
#249 = ORIENTED_EDGE ( 'NONE', *, *, #260, .F. ) ;
#250 = LOCAL_TIME ( 10, 17, 14.00000000000000000, #327 ) ;
#251 = DIRECTION ( 'NONE',  ( 1.000000000000000000, 6.123233995736766000E-017, -0.0000000000000000000 ) ) ;
#252 = ORIENTED_EDGE ( 'NONE', *, *, #13, .T. ) ;
#253 = TOROIDAL_SURFACE ( 'NONE', #34, 1.700000000000000200, 0.3000000000000025400 ) ;
#254 = DIRECTION ( 'NONE',  ( 0.0000000000000000000, 0.0000000000000000000, -1.000000000000000000 ) ) ;
#255 = AXIS2_PLACEMENT_3D ( 'NONE', #177, #364, #194 ) ;
#256 = ORIENTED_EDGE ( 'NONE', *, *, #49, .F. ) ;
#257 = APPROVAL_DATE_TIME ( #334, #300 ) ;
#258 = CC_DESIGN_DATE_AND_TIME_ASSIGNMENT ( #51, #102, ( #186 ) ) ;
#259 = PERSON_AND_ORGANIZATION_ROLE ( 'creator' ) ;
#260 = EDGE_CURVE ( 'NONE', #214, #99, #48, .T. ) ;
#261 = ORIENTED_EDGE ( 'NONE', *, *, #303, .F. ) ;
#262 = CONICAL_SURFACE ( 'NONE', #247, 1.999999999999997300, 0.7853981633974485000 ) ;
#263 = CARTESIAN_POINT ( 'NONE',  ( 0.9999999999999997800, 6.123233995736764800E-017, 0.0000000000000000000 ) ) ;
#264 = DIRECTION ( 'NONE',  ( -0.0000000000000000000, 0.0000000000000000000, 1.000000000000000000 ) ) ;
#265 = ORIENTED_EDGE ( 'NONE', *, *, #49, .T. ) ;
#266 = PERSON_AND_ORGANIZATION_ROLE ( 'creator' ) ;
#267 = APPROVAL_PERSON_ORGANIZATION ( #346, #300, #95 ) ;
#268 = DIRECTION ( 'NONE',  ( 1.000000000000000000, 6.123233995736766000E-017, -0.0000000000000000000 ) ) ;
#269 = VERTEX_POINT ( 'NONE', #324 ) ;
#270 = FACE_OUTER_BOUND ( 'NONE', #357, .T. ) ;
#271 = ADVANCED_FACE ( 'NONE', ( #341 ), #298, .F. ) ;
#272 = AXIS2_PLACEMENT_3D ( 'NONE', #79, #290, #246 ) ;
#273 = EDGE_LOOP ( 'NONE', ( #249, #64, #178, #256 ) ) ;
#274 = COORDINATED_UNIVERSAL_TIME_OFFSET ( 9, 0, .AHEAD. ) ;
#275 = DIRECTION ( 'NONE',  ( 0.0000000000000000000, 1.000000000000000000, 0.0000000000000000000 ) ) ;
#276 = DIRECTION ( 'NONE',  ( 0.7071067811865473500, -0.7071067811865477900, 8.659560562354936600E-017 ) ) ;
#277 = PRODUCT_DEFINITION_FORMATION_WITH_SPECIFIED_SOURCE ( 'ANY', '', #164, .NOT_KNOWN. ) ;
#278 = DIRECTION ( 'NONE',  ( 0.0000000000000000000, 0.0000000000000000000, 1.000000000000000000 ) ) ;
#279 = ORIENTED_EDGE ( 'NONE', *, *, #215, .T. ) ;
#280 = CIRCLE ( 'NONE', #190, 1.700000000000000200 ) ;
#281 = EDGE_CURVE ( 'NONE', #269, #214, #197, .T. ) ;
#282 = CARTESIAN_POINT ( 'NONE',  ( 0.0000000000000000000, 0.0000000000000000000, 0.0000000000000000000 ) ) ;
#283 = DIRECTION ( 'NONE',  ( -1.000000000000000000, -0.0000000000000000000, -0.0000000000000000000 ) ) ;
#284 = CIRCLE ( 'NONE', #41, 2.000000000000000000 ) ;
#285 = DIRECTION ( 'NONE',  ( -1.000000000000000000, -0.0000000000000000000, -0.0000000000000000000 ) ) ;
#286 = LOCAL_TIME ( 10, 17, 14.00000000000000000, #362 ) ;
#287 = CARTESIAN_POINT ( 'NONE',  ( -44.00000000000000000, -1.499999999999999300, 2.143131898507864800E-016 ) ) ;
#288 = AXIS2_PLACEMENT_3D ( 'NONE', #18, #213, #44 ) ;
#289 = ORIENTED_EDGE ( 'NONE', *, *, #126, .F. ) ;
#290 = DIRECTION ( 'NONE',  ( 1.000000000000000000, 6.123233995736766000E-017, -0.0000000000000000000 ) ) ;
#291 = MECHANICAL_CONTEXT ( 'NONE', #208, 'mechanical' ) ;
#292 = DIRECTION ( 'NONE',  ( -1.000000000000000000, -0.0000000000000000000, -0.0000000000000000000 ) ) ;
#293 = AXIS2_PLACEMENT_3D ( 'NONE', #142, #342, #278 ) ;
#294 = DIRECTION ( 'NONE',  ( 1.000000000000000000, 6.123233995736766000E-017, -0.0000000000000000000 ) ) ;
#295 = FACE_OUTER_BOUND ( 'NONE', #6, .T. ) ;
#296 = CLOSED_SHELL ( 'NONE', ( #74, #360, #328, #47, #187, #271 ) ) ;
#297 = ORGANIZATION ( 'UNSPECIFIED', 'UNSPECIFIED', '' ) ;
#298 = PLANE ( 'NONE',  #306 ) ;
#299 = APPROVAL_STATUS ( 'not_yet_approved' ) ;
#300 = APPROVAL ( #299, 'UNSPECIFIED' ) ;
#301 = CLOSED_SHELL ( 'NONE', ( #21, #108, #134, #302, #243, #159 ) ) ;
#302 = ADVANCED_FACE ( 'NONE', ( #56 ), #184, .T. ) ;
#303 = EDGE_CURVE ( 'NONE', #333, #232, #40, .T. ) ;
#304 = CYLINDRICAL_SURFACE ( 'NONE', #293, 2.000000000000000000 ) ;
#305 = DIRECTION ( 'NONE',  ( 0.0000000000000000000, 0.0000000000000000000, 1.000000000000000000 ) ) ;
#306 = AXIS2_PLACEMENT_3D ( 'NONE', #355, #101, #264 ) ;
#307 = CARTESIAN_POINT ( 'NONE',  ( 0.9999999999999997800, 2.000000000000000000, 0.0000000000000000000 ) ) ;
#308 = EDGE_LOOP ( 'NONE', ( #19, #123 ) ) ;
#309 = APPROVAL_DATE_TIME ( #20, #63 ) ;
#310 = CARTESIAN_POINT ( 'NONE',  ( -43.50000000000000000, -2.663606788145493000E-015, 0.0000000000000000000 ) ) ;
#311 = LINE ( 'NONE', #224, #320 ) ;
#312 = AXIS2_PLACEMENT_3D ( 'NONE', #335, #248, #275 ) ;
#313 = CARTESIAN_POINT ( 'NONE',  ( -44.00000000000000000, -2.694222958124176800E-015, 0.0000000000000000000 ) ) ;
#314 = CARTESIAN_POINT ( 'NONE',  ( 21.00000000000000400, 0.0000000000000000000, 0.0000000000000000000 ) ) ;
#315 = DIRECTION ( 'NONE',  ( 1.000000000000000000, 0.0000000000000000000, 0.0000000000000000000 ) ) ;
#316 = EDGE_LOOP ( 'NONE', ( #352, #25, #132, #77 ) ) ;
#317 = APPROVAL_PERSON_ORGANIZATION ( #26, #63, #121 ) ;
#318 = CC_DESIGN_APPROVAL ( #300, ( #277 ) ) ;
#319 = EDGE_CURVE ( 'NONE', #1, #99, #116, .T. ) ;
#320 = VECTOR ( 'NONE', #81, 999.9999999999998900 ) ;
#321 = CARTESIAN_POINT ( 'NONE',  ( 20.69999999999999900, 0.0000000000000000000, 0.0000000000000000000 ) ) ;
#322 = VECTOR ( 'NONE', #268, 1000.000000000000000 ) ;
#323 = DIRECTION ( 'NONE',  ( 0.0000000000000000000, 0.0000000000000000000, 1.000000000000000000 ) ) ;
#324 = CARTESIAN_POINT ( 'NONE',  ( -43.50000000000000000, 1.999999999999994900, 0.0000000000000000000 ) ) ;
#325 = APPROVAL_STATUS ( 'not_yet_approved' ) ;
#326 = ORIENTED_EDGE ( 'NONE', *, *, #340, .F. ) ;
#327 = COORDINATED_UNIVERSAL_TIME_OFFSET ( 9, 0, .AHEAD. ) ;
#328 = ADVANCED_FACE ( 'NONE', ( #270 ), #253, .T. ) ;
#329 = ORIENTED_EDGE ( 'NONE', *, *, #223, .T. ) ;
#330 = AXIS2_PLACEMENT_3D ( 'NONE', #310, #138, #336 ) ;
#331 = PERSON_AND_ORGANIZATION_ROLE ( 'classification_officer' ) ;
#332 = DIRECTION ( 'NONE',  ( 0.0000000000000000000, 0.0000000000000000000, 1.000000000000000000 ) ) ;
#333 = VERTEX_POINT ( 'NONE', #137 ) ;
#334 = DATE_AND_TIME ( #43, #120 ) ;
#335 = CARTESIAN_POINT ( 'NONE',  ( -43.50000000000000000, -2.663606788145493000E-015, 0.0000000000000000000 ) ) ;
#336 = DIRECTION ( 'NONE',  ( 0.0000000000000000000, 1.000000000000000000, 0.0000000000000000000 ) ) ;
#337 = CC_DESIGN_PERSON_AND_ORGANIZATION_ASSIGNMENT ( #185, #259, ( #277 ) ) ;
#338 = EDGE_LOOP ( 'NONE', ( #139, #252, #42, #11 ) ) ;
#339 = CARTESIAN_POINT ( 'NONE',  ( -43.50000000000000000, -2.000000000000000000, 2.449293598294703500E-016 ) ) ;
#340 = EDGE_CURVE ( 'NONE', #269, #1, #30, .T. ) ;
#341 = FACE_OUTER_BOUND ( 'NONE', #200, .T. ) ;
#342 = DIRECTION ( 'NONE',  ( -1.000000000000000000, -0.0000000000000000000, -0.0000000000000000000 ) ) ;
#343 = CARTESIAN_POINT ( 'NONE',  ( 21.00000000000000400, 0.0000000000000000000, 0.0000000000000000000 ) ) ;
#344 = CARTESIAN_POINT ( 'NONE',  ( 20.69999999999999600, 0.0000000000000000000, 0.0000000000000000000 ) ) ;
#345 = ORIENTED_EDGE ( 'NONE', *, *, #242, .T. ) ;
#346 = PERSON_AND_ORGANIZATION ( #217, #297 ) ;
#347 = CARTESIAN_POINT ( 'NONE',  ( 20.69999999999999900, 0.0000000000000000000, 1.700000000000000200 ) ) ;
#348 = AXIS2_PLACEMENT_3D ( 'NONE', #263, #97, #207 ) ;
#349 = ORIENTED_EDGE ( 'NONE', *, *, #143, .F. ) ;
#350 = CIRCLE ( 'NONE', #229, 2.000000000000000000 ) ;
#351 = AXIS2_PLACEMENT_3D ( 'NONE', #282, #151, #85 ) ;
#352 = ORIENTED_EDGE ( 'NONE', *, *, #13, .F. ) ;
#353 = DIRECTION ( 'NONE',  ( 1.000000000000000000, 0.0000000000000000000, 0.0000000000000000000 ) ) ;
#354 = PERSON_AND_ORGANIZATION ( #217, #297 ) ;
#355 = CARTESIAN_POINT ( 'NONE',  ( 21.00000000000000400, -4.285787411236826700E-014, 0.0000000000000000000 ) ) ;
#356 = CC_DESIGN_PERSON_AND_ORGANIZATION_ASSIGNMENT ( #112, #62, ( #277 ) ) ;
#357 = EDGE_LOOP ( 'NONE', ( #174, #279, #153, #35 ) ) ;
#358 = CYLINDRICAL_SURFACE ( 'NONE', #118, 2.000000000000000000 ) ;
#359 = EDGE_CURVE ( 'NONE', #46, #162, #179, .T. ) ;
#360 = ADVANCED_FACE ( 'NONE', ( #245 ), #110, .T. ) ;
#361 = CONICAL_SURFACE ( 'NONE', #312, 1.999999999999997300, 0.7853981633974485000 ) ;
#362 = COORDINATED_UNIVERSAL_TIME_OFFSET ( 9, 0, .AHEAD. ) ;
#363 = AXIS2_PLACEMENT_3D ( 'NONE', #313, #238, #72 ) ;
#364 = DIRECTION ( 'NONE',  ( 1.000000000000000000, 6.123233995736766000E-017, -0.0000000000000000000 ) ) ;
#365 = DESIGN_CONTEXT ( 'detailed design', #233, 'design' ) ;
ENDSEC;
END-ISO-10303-21;
