ISO-10303-21;
HEADER;
FILE_DESCRIPTION (( 'STEP AP203' ),
    '1' );
FILE_NAME ('03-3075.STEP',
    '2023-07-03T01:17:34',
    ( 'USER' ),
    ( 'Hewlett-Packard Company' ),
    'SwSTEP 2.0',
    'SolidWorks 2014',
    '' );
FILE_SCHEMA (( 'CONFIG_CONTROL_DESIGN' ));
ENDSEC;

DATA;
#1 = ORIENTED_EDGE ( 'NONE', *, *, #197, .F. ) ;
#2 = ORIENTED_EDGE ( 'NONE', *, *, #106, .T. ) ;
#3 = UNCERTAINTY_MEASURE_WITH_UNIT (LENGTH_MEASURE( 1.000000000000000100E-005 ), #75, 'distance_accuracy_value', 'NONE');
#4 = APPROVAL ( #277, 'UNSPECIFIED' ) ;
#5 = AXIS2_PLACEMENT_3D ( 'NONE', #27, #332, #70 ) ;
#6 = ORIENTED_EDGE ( 'NONE', *, *, #143, .T. ) ;
#7 = CIRCLE ( 'NONE', #254, 1.500000000000000000 ) ;
#8 = ORIENTED_EDGE ( 'NONE', *, *, #150, .F. ) ;
#9 = AXIS2_PLACEMENT_3D ( 'NONE', #157, #323, #186 ) ;
#10 = VERTEX_POINT ( 'NONE', #132 ) ;
#11 = VERTEX_POINT ( 'NONE', #262 ) ;
#12 = DIRECTION ( 'NONE',  ( 1.000000000000000000, 6.123233995736766000E-017, -0.0000000000000000000 ) ) ;
#13 = CARTESIAN_POINT ( 'NONE',  ( 0.0000000000000000000, 0.0000000000000000000, 1.500000000000000000 ) ) ;
#14 = DIRECTION ( 'NONE',  ( 1.000000000000000000, 6.123233995736766000E-017, -0.0000000000000000000 ) ) ;
#15 = ORIENTED_EDGE ( 'NONE', *, *, #152, .T. ) ;
#16 = ORIENTED_EDGE ( 'NONE', *, *, #163, .F. ) ;
#17 = AXIS2_PLACEMENT_3D ( 'NONE', #48, #258, #87 ) ;
#18 = DIRECTION ( 'NONE',  ( 0.0000000000000000000, 1.000000000000000000, 0.0000000000000000000 ) ) ;
#19 = DIRECTION ( 'NONE',  ( 0.7071067811865479100, -0.7071067811865472400, 8.659560562354930400E-017 ) ) ;
#20 = DIRECTION ( 'NONE',  ( -1.000000000000000000, -0.0000000000000000000, -0.0000000000000000000 ) ) ;
#21 = AXIS2_PLACEMENT_3D ( 'NONE', #235, #311, #167 ) ;
#22 = CARTESIAN_POINT ( 'NONE',  ( 0.0000000000000000000, 0.0000000000000000000, 0.0000000000000000000 ) ) ;
#23 = LINE ( 'NONE', #13, #342 ) ;
#24 = FACE_OUTER_BOUND ( 'NONE', #233, .T. ) ;
#25 = ORIENTED_EDGE ( 'NONE', *, *, #163, .T. ) ;
#26 = DIRECTION ( 'NONE',  ( 0.0000000000000000000, 1.000000000000000000, 0.0000000000000000000 ) ) ;
#27 = CARTESIAN_POINT ( 'NONE',  ( 16.69999999999999900, 0.0000000000000000000, 0.0000000000000000000 ) ) ;
#28 = CARTESIAN_POINT ( 'NONE',  ( 17.00000000000000000, 4.915049848600966500E-014, 0.0000000000000000000 ) ) ;
#29 = FACE_OUTER_BOUND ( 'NONE', #64, .T. ) ;
#30 = AXIS2_PLACEMENT_3D ( 'NONE', #285, #303, #237 ) ;
#31 = PLANE ( 'NONE',  #68 ) ;
#32 = ORIENTED_EDGE ( 'NONE', *, *, #121, .T. ) ;
#33 = EDGE_LOOP ( 'NONE', ( #57, #193 ) ) ;
#34 = DIRECTION ( 'NONE',  ( 1.000000000000000000, 0.0000000000000000000, 0.0000000000000000000 ) ) ;
#35 = SECURITY_CLASSIFICATION_LEVEL ( 'unclassified' ) ;
#36 = CC_DESIGN_APPROVAL ( #4, ( #324 ) ) ;
#37 = AXIS2_PLACEMENT_3D ( 'NONE', #22, #244, #331 ) ;
#38 = COORDINATED_UNIVERSAL_TIME_OFFSET ( 9, 0, .AHEAD. ) ;
#39 = CIRCLE ( 'NONE', #17, 0.2999999999999990500 ) ;
#40 = ORIENTED_EDGE ( 'NONE', *, *, #77, .F. ) ;
#41 = ORIENTED_EDGE ( 'NONE', *, *, #84, .T. ) ;
#42 = PRODUCT ( '03-3075', '03-3075', '', ( #249 ) ) ;
#43 = ORIENTED_EDGE ( 'NONE', *, *, #160, .F. ) ;
#44 = FACE_OUTER_BOUND ( 'NONE', #183, .T. ) ;
#45 = ORIENTED_EDGE ( 'NONE', *, *, #69, .F. ) ;
#46 = ORIENTED_EDGE ( 'NONE', *, *, #91, .T. ) ;
#47 = AXIS2_PLACEMENT_3D ( 'NONE', #243, #20, #216 ) ;
#48 = CARTESIAN_POINT ( 'NONE',  ( 16.69999999999999900, 1.469576158976823800E-016, -1.200000000000000200 ) ) ;
#49 = LOCAL_TIME ( 10, 17, 34.00000000000000000, #151 ) ;
#50 = CARTESIAN_POINT ( 'NONE',  ( 16.99999999999999600, 0.0000000000000000000, 0.0000000000000000000 ) ) ;
#51 = VERTEX_POINT ( 'NONE', #238 ) ;
#52 = ORIENTED_EDGE ( 'NONE', *, *, #150, .T. ) ;
#53 = CIRCLE ( 'NONE', #56, 1.500000000000000000 ) ;
#54 = DIRECTION ( 'NONE',  ( -1.000000000000000000, -0.0000000000000000000, -0.0000000000000000000 ) ) ;
#55 = TOROIDAL_SURFACE ( 'NONE', #89, 1.200000000000000200, 0.2999999999999990500 ) ;
#56 = AXIS2_PLACEMENT_3D ( 'NONE', #104, #54, #261 ) ;
#57 = ORIENTED_EDGE ( 'NONE', *, *, #77, .T. ) ;
#58 = ORIENTED_EDGE ( 'NONE', *, *, #106, .F. ) ;
#59 = CARTESIAN_POINT ( 'NONE',  ( -43.00000000000000000, -1.000000000000000000, 1.530808498934188400E-016 ) ) ;
#60 = CARTESIAN_POINT ( 'NONE',  ( 1.000000000000000000, 0.0000000000000000000, 0.0000000000000000000 ) ) ;
#61 =( GEOMETRIC_REPRESENTATION_CONTEXT ( 3 ) GLOBAL_UNCERTAINTY_ASSIGNED_CONTEXT ( ( #3 ) ) GLOBAL_UNIT_ASSIGNED_CONTEXT ( ( #75, #147, #316 ) ) REPRESENTATION_CONTEXT ( 'NONE', 'WORKASPACE' ) );
#62 = APPROVAL_DATE_TIME ( #156, #267 ) ;
#63 = DIRECTION ( 'NONE',  ( -6.123233995736766000E-017, 1.000000000000000000, 0.0000000000000000000 ) ) ;
#64 = EDGE_LOOP ( 'NONE', ( #43, #74 ) ) ;
#65 = EDGE_LOOP ( 'NONE', ( #295, #128, #15, #176 ) ) ;
#66 = CC_DESIGN_SECURITY_CLASSIFICATION ( #324, ( #253 ) ) ;
#67 = AXIS2_PLACEMENT_3D ( 'NONE', #142, #170, #271 ) ;
#68 = AXIS2_PLACEMENT_3D ( 'NONE', #199, #173, #248 ) ;
#69 = EDGE_CURVE ( 'NONE', #10, #109, #23, .T. ) ;
#70 = DIRECTION ( 'NONE',  ( 0.0000000000000000000, 0.0000000000000000000, 1.000000000000000000 ) ) ;
#71 = VERTEX_POINT ( 'NONE', #59 ) ;
#72 = FACE_OUTER_BOUND ( 'NONE', #93, .T. ) ;
#73 = VERTEX_POINT ( 'NONE', #212 ) ;
#74 = ORIENTED_EDGE ( 'NONE', *, *, #190, .F. ) ;
#75 =( LENGTH_UNIT ( ) NAMED_UNIT ( * ) SI_UNIT ( .MILLI., .METRE. ) );
#76 = PERSON_AND_ORGANIZATION_ROLE ( 'design_owner' ) ;
#77 = EDGE_CURVE ( 'NONE', #109, #159, #53, .T. ) ;
#78 = DATE_TIME_ROLE ( 'classification_date' ) ;
#79 = APPROVAL_PERSON_ORGANIZATION ( #164, #267, #201 ) ;
#80 = ORIENTED_EDGE ( 'NONE', *, *, #113, .F. ) ;
#81 = EDGE_CURVE ( 'NONE', #340, #159, #179, .T. ) ;
#82 = ADVANCED_FACE ( 'NONE', ( #29 ), #94, .T. ) ;
#83 = FACE_OUTER_BOUND ( 'NONE', #227, .T. ) ;
#84 = EDGE_CURVE ( 'NONE', #10, #340, #328, .T. ) ;
#85 = COORDINATED_UNIVERSAL_TIME_OFFSET ( 9, 0, .AHEAD. ) ;
#86 = ORIENTED_EDGE ( 'NONE', *, *, #121, .F. ) ;
#87 = DIRECTION ( 'NONE',  ( 0.0000000000000000000, -1.224646799147353000E-016, 1.000000000000000000 ) ) ;
#88 = PRODUCT_RELATED_PRODUCT_CATEGORY ( 'detail', '', ( #42 ) ) ;
#89 = AXIS2_PLACEMENT_3D ( 'NONE', #111, #246, #144 ) ;
#90 = ORIENTED_EDGE ( 'NONE', *, *, #190, .T. ) ;
#91 = EDGE_CURVE ( 'NONE', #51, #146, #138, .T. ) ;
#92 = LINE ( 'NONE', #166, #236 ) ;
#93 = EDGE_LOOP ( 'NONE', ( #46, #257, #326, #58 ) ) ;
#94 = PLANE ( 'NONE',  #30 ) ;
#95 = DIRECTION ( 'NONE',  ( 0.0000000000000000000, 0.0000000000000000000, 1.000000000000000000 ) ) ;
#96 = DIRECTION ( 'NONE',  ( 0.0000000000000000000, 0.0000000000000000000, 1.000000000000000000 ) ) ;
#97 = LOCAL_TIME ( 10, 17, 34.00000000000000000, #182 ) ;
#98 = EDGE_CURVE ( 'NONE', #146, #340, #39, .T. ) ;
#99 = EDGE_LOOP ( 'NONE', ( #355, #32, #361, #141 ) ) ;
#100 = EDGE_LOOP ( 'NONE', ( #234, #364, #2, #86 ) ) ;
#101 = CARTESIAN_POINT ( 'NONE',  ( 0.9999999999999995600, 6.123233995736763600E-017, 0.0000000000000000000 ) ) ;
#102 = MANIFOLD_SOLID_BREP ( 'È¸Àü3', #122 ) ;
#103 = ORIENTED_EDGE ( 'NONE', *, *, #168, .T. ) ;
#104 = CARTESIAN_POINT ( 'NONE',  ( 1.000000000000000000, 0.0000000000000000000, 0.0000000000000000000 ) ) ;
#105 = CARTESIAN_POINT ( 'NONE',  ( -43.00000000000000000, -2.632990618166809200E-015, 0.0000000000000000000 ) ) ;
#106 = EDGE_CURVE ( 'NONE', #51, #10, #272, .T. ) ;
#107 = DIRECTION ( 'NONE',  ( 1.000000000000000000, 6.123233995736766000E-017, -0.0000000000000000000 ) ) ;
#108 = FACE_OUTER_BOUND ( 'NONE', #65, .T. ) ;
#109 = VERTEX_POINT ( 'NONE', #230 ) ;
#110 = ORIENTED_EDGE ( 'NONE', *, *, #125, .T. ) ;
#111 = CARTESIAN_POINT ( 'NONE',  ( 16.69999999999999900, 0.0000000000000000000, 0.0000000000000000000 ) ) ;
#112 = DIRECTION ( 'NONE',  ( -0.0000000000000000000, 0.0000000000000000000, 1.000000000000000000 ) ) ;
#113 = EDGE_CURVE ( 'NONE', #146, #51, #205, .T. ) ;
#114 = ORGANIZATION ( 'UNSPECIFIED', 'UNSPECIFIED', '' ) ;
#115 = APPLICATION_PROTOCOL_DEFINITION ( 'international standard', 'config_control_design', 1994, #276 ) ;
#116 = ORIENTED_EDGE ( 'NONE', *, *, #187, .T. ) ;
#117 = APPROVAL_ROLE ( '' ) ;
#118 = CYLINDRICAL_SURFACE ( 'NONE', #214, 1.500000000000000000 ) ;
#119 = EDGE_LOOP ( 'NONE', ( #129, #25, #301, #155 ) ) ;
#120 = ADVANCED_FACE ( 'NONE', ( #24 ), #118, .T. ) ;
#121 = EDGE_CURVE ( 'NONE', #340, #10, #196, .T. ) ;
#122 = CLOSED_SHELL ( 'NONE', ( #206, #256, #279, #226, #299, #322 ) ) ;
#123 = AXIS2_PLACEMENT_3D ( 'NONE', #275, #223, #34 ) ;
#124 = EDGE_CURVE ( 'NONE', #159, #109, #321, .T. ) ;
#125 = EDGE_CURVE ( 'NONE', #133, #318, #260, .T. ) ;
#126 = APPROVAL_DATE_TIME ( #204, #4 ) ;
#127 = CIRCLE ( 'NONE', #232, 1.499999999999997300 ) ;
#128 = ORIENTED_EDGE ( 'NONE', *, *, #197, .T. ) ;
#129 = ORIENTED_EDGE ( 'NONE', *, *, #160, .T. ) ;
#130 = AXIS2_PLACEMENT_3D ( 'NONE', #50, #259, #95 ) ;
#131 = CONICAL_SURFACE ( 'NONE', #158, 1.499999999999997300, 0.7853981633974479500 ) ;
#132 = CARTESIAN_POINT ( 'NONE',  ( 16.69999999999999900, 0.0000000000000000000, 1.499999999999999600 ) ) ;
#133 = VERTEX_POINT ( 'NONE', #134 ) ;
#134 = CARTESIAN_POINT ( 'NONE',  ( -42.49999999999999300, -1.500000000000000000, 1.836970198721026700E-016 ) ) ;
#135 = DIRECTION ( 'NONE',  ( 0.0000000000000000000, 1.000000000000000000, 0.0000000000000000000 ) ) ;
#136 = DIRECTION ( 'NONE',  ( 0.0000000000000000000, 1.000000000000000000, 0.0000000000000000000 ) ) ;
#137 = APPROVAL_PERSON_ORGANIZATION ( #208, #4, #117 ) ;
#138 = CIRCLE ( 'NONE', #21, 1.200000000000000200 ) ;
#139 = AXIS2_PLACEMENT_3D ( 'NONE', #290, #198, #356 ) ;
#140 = CARTESIAN_POINT ( 'NONE',  ( 0.9999999999999995600, 6.123233995736763600E-017, 0.0000000000000000000 ) ) ;
#141 = ORIENTED_EDGE ( 'NONE', *, *, #124, .F. ) ;
#142 = CARTESIAN_POINT ( 'NONE',  ( 0.0000000000000000000, 0.0000000000000000000, 0.0000000000000000000 ) ) ;
#143 = EDGE_CURVE ( 'NONE', #242, #133, #127, .T. ) ;
#144 = DIRECTION ( 'NONE',  ( 0.0000000000000000000, 0.0000000000000000000, 1.000000000000000000 ) ) ;
#145 = FACE_OUTER_BOUND ( 'NONE', #251, .T. ) ;
#146 = VERTEX_POINT ( 'NONE', #306 ) ;
#147 =( NAMED_UNIT ( * ) PLANE_ANGLE_UNIT ( ) SI_UNIT ( $, .RADIAN. ) );
#148 = APPROVAL_ROLE ( '' ) ;
#149 = CC_DESIGN_PERSON_AND_ORGANIZATION_ASSIGNMENT ( #365, #76, ( #42 ) ) ;
#150 = EDGE_CURVE ( 'NONE', #73, #318, #7, .T. ) ;
#151 = COORDINATED_UNIVERSAL_TIME_OFFSET ( 9, 0, .AHEAD. ) ;
#152 = EDGE_CURVE ( 'NONE', #242, #73, #255, .T. ) ;
#153 = ADVANCED_FACE ( 'NONE', ( #188 ), #298, .T. ) ;
#154 = CYLINDRICAL_SURFACE ( 'NONE', #67, 1.500000000000000000 ) ;
#155 = ORIENTED_EDGE ( 'NONE', *, *, #168, .F. ) ;
#156 = DATE_AND_TIME ( #225, #287 ) ;
#157 = CARTESIAN_POINT ( 'NONE',  ( 16.69999999999999900, 0.0000000000000000000, 1.200000000000000200 ) ) ;
#158 = AXIS2_PLACEMENT_3D ( 'NONE', #292, #315, #221 ) ;
#159 = VERTEX_POINT ( 'NONE', #215 ) ;
#160 = EDGE_CURVE ( 'NONE', #11, #71, #245, .T. ) ;
#161 = FACE_OUTER_BOUND ( 'NONE', #99, .T. ) ;
#162 = PRODUCT_DEFINITION ( 'UNKNOWN', '', #253, #181 ) ;
#163 = EDGE_CURVE ( 'NONE', #71, #133, #354, .T. ) ;
#164 = PERSON_AND_ORGANIZATION ( #317, #114 ) ;
#165 = DIRECTION ( 'NONE',  ( 0.0000000000000000000, 1.000000000000000000, 0.0000000000000000000 ) ) ;
#166 = CARTESIAN_POINT ( 'NONE',  ( -42.49999999999999300, 1.499999999999994900, 0.0000000000000000000 ) ) ;
#167 = DIRECTION ( 'NONE',  ( 0.0000000000000000000, 0.0000000000000000000, 1.000000000000000000 ) ) ;
#168 = EDGE_CURVE ( 'NONE', #11, #242, #92, .T. ) ;
#169 = DIRECTION ( 'NONE',  ( 0.0000000000000000000, 1.000000000000000000, 0.0000000000000000000 ) ) ;
#170 = DIRECTION ( 'NONE',  ( -1.000000000000000000, -0.0000000000000000000, -0.0000000000000000000 ) ) ;
#171 = CIRCLE ( 'NONE', #297, 0.9999999999999974500 ) ;
#172 = PLANE ( 'NONE',  #139 ) ;
#173 = DIRECTION ( 'NONE',  ( 1.000000000000000000, 6.123233995736766000E-017, -0.0000000000000000000 ) ) ;
#174 = DATE_TIME_ROLE ( 'creation_date' ) ;
#175 = PERSON_AND_ORGANIZATION ( #317, #114 ) ;
#176 = ORIENTED_EDGE ( 'NONE', *, *, #187, .F. ) ;
#177 = AXIS2_PLACEMENT_3D ( 'NONE', #28, #274, #112 ) ;
#178 = ADVANCED_FACE ( 'NONE', ( #108 ), #291, .T. ) ;
#179 = LINE ( 'NONE', #241, #209 ) ;
#180 = VECTOR ( 'NONE', #19, 999.9999999999998900 ) ;
#181 = DESIGN_CONTEXT ( 'detailed design', #276, 'design' ) ;
#182 = COORDINATED_UNIVERSAL_TIME_OFFSET ( 9, 0, .AHEAD. ) ;
#183 = EDGE_LOOP ( 'NONE', ( #52, #116 ) ) ;
#184 = APPROVAL ( #293, 'UNSPECIFIED' ) ;
#185 = AXIS2_PLACEMENT_3D ( 'NONE', #60, #263, #96 ) ;
#186 = DIRECTION ( 'NONE',  ( 0.0000000000000000000, 0.0000000000000000000, -1.000000000000000000 ) ) ;
#187 = EDGE_CURVE ( 'NONE', #318, #73, #346, .T. ) ;
#188 = FACE_OUTER_BOUND ( 'NONE', #200, .T. ) ;
#189 = DIRECTION ( 'NONE',  ( -1.000000000000000000, -0.0000000000000000000, -0.0000000000000000000 ) ) ;
#190 = EDGE_CURVE ( 'NONE', #71, #11, #171, .T. ) ;
#191 = CARTESIAN_POINT ( 'NONE',  ( 16.69999999999999900, 0.0000000000000000000, 0.0000000000000000000 ) ) ;
#192 = SHAPE_DEFINITION_REPRESENTATION ( #345, #266 ) ;
#193 = ORIENTED_EDGE ( 'NONE', *, *, #124, .T. ) ;
#194 = CARTESIAN_POINT ( 'NONE',  ( 0.0000000000000000000, 0.0000000000000000000, 0.0000000000000000000 ) ) ;
#195 = DIRECTION ( 'NONE',  ( 0.7071067811865479100, 0.7071067811865472400, 0.0000000000000000000 ) ) ;
#196 = CIRCLE ( 'NONE', #203, 1.500000000000000000 ) ;
#197 = EDGE_CURVE ( 'NONE', #133, #242, #302, .T. ) ;
#198 = DIRECTION ( 'NONE',  ( 1.000000000000000000, 0.0000000000000000000, 0.0000000000000000000 ) ) ;
#199 = CARTESIAN_POINT ( 'NONE',  ( 0.9999999999999997800, 1.500000000000000000, 0.0000000000000000000 ) ) ;
#200 = EDGE_LOOP ( 'NONE', ( #16, #90, #103, #1 ) ) ;
#201 = APPROVAL_ROLE ( '' ) ;
#202 = CC_DESIGN_APPROVAL ( #184, ( #162 ) ) ;
#203 = AXIS2_PLACEMENT_3D ( 'NONE', #191, #347, #210 ) ;
#204 = DATE_AND_TIME ( #270, #327 ) ;
#205 = CIRCLE ( 'NONE', #130, 1.200000000000000200 ) ;
#206 = ADVANCED_FACE ( 'NONE', ( #83 ), #284, .T. ) ;
#207 = ORIENTED_EDGE ( 'NONE', *, *, #91, .F. ) ;
#208 = PERSON_AND_ORGANIZATION ( #317, #114 ) ;
#209 = VECTOR ( 'NONE', #265, 1000.000000000000000 ) ;
#210 = DIRECTION ( 'NONE',  ( 0.0000000000000000000, 0.0000000000000000000, 1.000000000000000000 ) ) ;
#211 = DIRECTION ( 'NONE',  ( 1.000000000000000000, 6.123233995736766000E-017, -0.0000000000000000000 ) ) ;
#212 = CARTESIAN_POINT ( 'NONE',  ( 0.9999999999999995600, 1.500000000000000000, 0.0000000000000000000 ) ) ;
#213 = CC_DESIGN_PERSON_AND_ORGANIZATION_ASSIGNMENT ( #175, #319, ( #162 ) ) ;
#214 = AXIS2_PLACEMENT_3D ( 'NONE', #351, #12, #280 ) ;
#215 = CARTESIAN_POINT ( 'NONE',  ( 1.000000000000000000, 1.836970198721029900E-016, -1.500000000000000000 ) ) ;
#216 = DIRECTION ( 'NONE',  ( 0.0000000000000000000, 0.0000000000000000000, 1.000000000000000000 ) ) ;
#217 = PERSON_AND_ORGANIZATION ( #317, #114 ) ;
#218 = DIRECTION ( 'NONE',  ( 1.000000000000000000, 6.123233995736766000E-017, -0.0000000000000000000 ) ) ;
#219 = DIRECTION ( 'NONE',  ( 1.000000000000000000, 6.123233995736766000E-017, -0.0000000000000000000 ) ) ;
#220 = CARTESIAN_POINT ( 'NONE',  ( -42.49999999999999300, 1.499999999999994900, 0.0000000000000000000 ) ) ;
#221 = DIRECTION ( 'NONE',  ( 0.0000000000000000000, 1.000000000000000000, 0.0000000000000000000 ) ) ;
#222 = FACE_OUTER_BOUND ( 'NONE', #100, .T. ) ;
#223 = DIRECTION ( 'NONE',  ( 0.0000000000000000000, 0.0000000000000000000, 1.000000000000000000 ) ) ;
#224 = PERSON_AND_ORGANIZATION_ROLE ( 'design_supplier' ) ;
#225 = CALENDAR_DATE ( 2023, 3, 7 ) ;
#226 = ADVANCED_FACE ( 'NONE', ( #161 ), #154, .T. ) ;
#227 = EDGE_LOOP ( 'NONE', ( #41, #307, #40, #45 ) ) ;
#228 = TOROIDAL_SURFACE ( 'NONE', #5, 1.200000000000000200, 0.2999999999999990500 ) ;
#229 = DATE_AND_TIME ( #294, #349 ) ;
#230 = CARTESIAN_POINT ( 'NONE',  ( 1.000000000000000000, 0.0000000000000000000, 1.500000000000000000 ) ) ;
#231 = CC_DESIGN_DATE_AND_TIME_ASSIGNMENT ( #229, #174, ( #162 ) ) ;
#232 = AXIS2_PLACEMENT_3D ( 'NONE', #348, #211, #18 ) ;
#233 = EDGE_LOOP ( 'NONE', ( #6, #110, #8, #350 ) ) ;
#234 = ORIENTED_EDGE ( 'NONE', *, *, #98, .F. ) ;
#235 = CARTESIAN_POINT ( 'NONE',  ( 16.99999999999999600, 0.0000000000000000000, 0.0000000000000000000 ) ) ;
#236 = VECTOR ( 'NONE', #195, 999.9999999999998900 ) ;
#237 = DIRECTION ( 'NONE',  ( 6.123233995736766000E-017, -1.000000000000000000, 0.0000000000000000000 ) ) ;
#238 = CARTESIAN_POINT ( 'NONE',  ( 16.99999999999999600, 0.0000000000000000000, 1.200000000000000200 ) ) ;
#239 = APPROVAL_DATE_TIME ( #300, #184 ) ;
#240 = CARTESIAN_POINT ( 'NONE',  ( -42.49999999999999300, -2.602374448188125100E-015, 0.0000000000000000000 ) ) ;
#241 = CARTESIAN_POINT ( 'NONE',  ( 0.0000000000000000000, 1.836970198721029900E-016, -1.500000000000000000 ) ) ;
#242 = VERTEX_POINT ( 'NONE', #220 ) ;
#243 = CARTESIAN_POINT ( 'NONE',  ( 16.69999999999999900, 0.0000000000000000000, 0.0000000000000000000 ) ) ;
#244 = DIRECTION ( 'NONE',  ( -1.000000000000000000, -0.0000000000000000000, -0.0000000000000000000 ) ) ;
#245 = CIRCLE ( 'NONE', #282, 0.9999999999999974500 ) ;
#246 = DIRECTION ( 'NONE',  ( -1.000000000000000000, -0.0000000000000000000, -0.0000000000000000000 ) ) ;
#247 = CARTESIAN_POINT ( 'NONE',  ( 0.9999999999999995600, -1.500000000000000000, 1.836970198721029900E-016 ) ) ;
#248 = DIRECTION ( 'NONE',  ( -6.123233995736766000E-017, 1.000000000000000000, 0.0000000000000000000 ) ) ;
#249 = MECHANICAL_CONTEXT ( 'NONE', #357, 'mechanical' ) ;
#250 = APPROVAL_PERSON_ORGANIZATION ( #305, #184, #148 ) ;
#251 = EDGE_LOOP ( 'NONE', ( #207, #80 ) ) ;
#252 = PERSON_AND_ORGANIZATION_ROLE ( 'classification_officer' ) ;
#253 = PRODUCT_DEFINITION_FORMATION_WITH_SPECIFIED_SOURCE ( 'ANY', '', #42, .NOT_KNOWN. ) ;
#254 = AXIS2_PLACEMENT_3D ( 'NONE', #101, #286, #135 ) ;
#255 = LINE ( 'NONE', #264, #363 ) ;
#256 = ADVANCED_FACE ( 'NONE', ( #72 ), #228, .T. ) ;
#257 = ORIENTED_EDGE ( 'NONE', *, *, #98, .T. ) ;
#258 = DIRECTION ( 'NONE',  ( -0.0000000000000000000, 1.000000000000000000, 1.224646799147353200E-016 ) ) ;
#259 = DIRECTION ( 'NONE',  ( -1.000000000000000000, -0.0000000000000000000, -0.0000000000000000000 ) ) ;
#260 = LINE ( 'NONE', #304, #313 ) ;
#261 = DIRECTION ( 'NONE',  ( 0.0000000000000000000, 0.0000000000000000000, 1.000000000000000000 ) ) ;
#262 = CARTESIAN_POINT ( 'NONE',  ( -43.00000000000000000, 0.9999999999999947800, 0.0000000000000000000 ) ) ;
#263 = DIRECTION ( 'NONE',  ( -1.000000000000000000, -0.0000000000000000000, -0.0000000000000000000 ) ) ;
#264 = CARTESIAN_POINT ( 'NONE',  ( -9.184850993605149700E-017, 1.500000000000000000, 0.0000000000000000000 ) ) ;
#265 = DIRECTION ( 'NONE',  ( -1.000000000000000000, -0.0000000000000000000, -0.0000000000000000000 ) ) ;
#266 = ADVANCED_BREP_SHAPE_REPRESENTATION ( '03-3075', ( #102, #320, #123 ), #61 ) ;
#267 = APPROVAL ( #336, 'UNSPECIFIED' ) ;
#268 = AXIS2_PLACEMENT_3D ( 'NONE', #240, #308, #165 ) ;
#269 = CARTESIAN_POINT ( 'NONE',  ( -42.49999999999999300, -1.500000000000000000, 1.836970198721026700E-016 ) ) ;
#270 = CALENDAR_DATE ( 2023, 3, 7 ) ;
#271 = DIRECTION ( 'NONE',  ( 0.0000000000000000000, 0.0000000000000000000, 1.000000000000000000 ) ) ;
#272 = CIRCLE ( 'NONE', #9, 0.2999999999999990500 ) ;
#273 = CARTESIAN_POINT ( 'NONE',  ( -42.49999999999999300, -2.602374448188125100E-015, 0.0000000000000000000 ) ) ;
#274 = DIRECTION ( 'NONE',  ( -1.000000000000000000, 0.0000000000000000000, -0.0000000000000000000 ) ) ;
#275 = CARTESIAN_POINT ( 'NONE',  ( 0.0000000000000000000, 0.0000000000000000000, 0.0000000000000000000 ) ) ;
#276 = APPLICATION_CONTEXT ( 'configuration controlled 3d designs of mechanical parts and assemblies' ) ;
#277 = APPROVAL_STATUS ( 'not_yet_approved' ) ;
#278 = DATE_AND_TIME ( #330, #49 ) ;
#279 = ADVANCED_FACE ( 'NONE', ( #222 ), #55, .T. ) ;
#280 = DIRECTION ( 'NONE',  ( -6.123233995736766000E-017, 1.000000000000000000, 0.0000000000000000000 ) ) ;
#281 = CC_DESIGN_APPROVAL ( #267, ( #253 ) ) ;
#282 = AXIS2_PLACEMENT_3D ( 'NONE', #105, #288, #136 ) ;
#283 = PERSON_AND_ORGANIZATION ( #317, #114 ) ;
#284 = CYLINDRICAL_SURFACE ( 'NONE', #37, 1.500000000000000000 ) ;
#285 = CARTESIAN_POINT ( 'NONE',  ( -43.00000000000000000, -2.632990618166809200E-015, 0.0000000000000000000 ) ) ;
#286 = DIRECTION ( 'NONE',  ( 1.000000000000000000, 6.123233995736766000E-017, -0.0000000000000000000 ) ) ;
#287 = LOCAL_TIME ( 10, 17, 34.00000000000000000, #344 ) ;
#288 = DIRECTION ( 'NONE',  ( 1.000000000000000000, 6.123233995736766000E-017, -0.0000000000000000000 ) ) ;
#289 = DIRECTION ( 'NONE',  ( 0.0000000000000000000, 1.000000000000000000, 0.0000000000000000000 ) ) ;
#290 = CARTESIAN_POINT ( 'NONE',  ( 1.000000000000000400, 5.782411586589361600E-016, 0.0000000000000000000 ) ) ;
#291 = CYLINDRICAL_SURFACE ( 'NONE', #325, 1.500000000000000000 ) ;
#292 = CARTESIAN_POINT ( 'NONE',  ( -42.49999999999999300, -2.602374448188125100E-015, 0.0000000000000000000 ) ) ;
#293 = APPROVAL_STATUS ( 'not_yet_approved' ) ;
#294 = CALENDAR_DATE ( 2023, 3, 7 ) ;
#295 = ORIENTED_EDGE ( 'NONE', *, *, #125, .F. ) ;
#296 = CC_DESIGN_PERSON_AND_ORGANIZATION_ASSIGNMENT ( #337, #359, ( #253 ) ) ;
#297 = AXIS2_PLACEMENT_3D ( 'NONE', #353, #219, #26 ) ;
#298 = CONICAL_SURFACE ( 'NONE', #268, 1.499999999999997300, 0.7853981633974479500 ) ;
#299 = ADVANCED_FACE ( 'NONE', ( #343 ), #172, .F. ) ;
#300 = DATE_AND_TIME ( #358, #97 ) ;
#301 = ORIENTED_EDGE ( 'NONE', *, *, #143, .F. ) ;
#302 = CIRCLE ( 'NONE', #339, 1.499999999999997300 ) ;
#303 = DIRECTION ( 'NONE',  ( -1.000000000000000000, -6.123233995736766000E-017, 0.0000000000000000000 ) ) ;
#304 = CARTESIAN_POINT ( 'NONE',  ( 9.184850993605149700E-017, -1.500000000000000000, 1.836970198721029900E-016 ) ) ;
#305 = PERSON_AND_ORGANIZATION ( #317, #114 ) ;
#306 = CARTESIAN_POINT ( 'NONE',  ( 16.99999999999999600, 1.653273178848926400E-016, -1.200000000000000200 ) ) ;
#307 = ORIENTED_EDGE ( 'NONE', *, *, #81, .T. ) ;
#308 = DIRECTION ( 'NONE',  ( 1.000000000000000000, 6.123233995736766000E-017, -0.0000000000000000000 ) ) ;
#309 = CC_DESIGN_PERSON_AND_ORGANIZATION_ASSIGNMENT ( #283, #224, ( #253 ) ) ;
#310 = AXIS2_PLACEMENT_3D ( 'NONE', #140, #312, #169 ) ;
#311 = DIRECTION ( 'NONE',  ( -1.000000000000000000, -0.0000000000000000000, -0.0000000000000000000 ) ) ;
#312 = DIRECTION ( 'NONE',  ( 1.000000000000000000, 6.123233995736766000E-017, -0.0000000000000000000 ) ) ;
#313 = VECTOR ( 'NONE', #329, 1000.000000000000000 ) ;
#314 = CARTESIAN_POINT ( 'NONE',  ( 16.69999999999999900, 1.836970198721029200E-016, -1.499999999999999600 ) ) ;
#315 = DIRECTION ( 'NONE',  ( 1.000000000000000000, 6.123233995736766000E-017, -0.0000000000000000000 ) ) ;
#316 =( NAMED_UNIT ( * ) SI_UNIT ( $, .STERADIAN. ) SOLID_ANGLE_UNIT ( ) );
#317 = PERSON ( 'UNSPECIFIED', 'UNSPECIFIED', 'UNSPECIFIED', ('UNSPECIFIED'), ('UNSPECIFIED'), ('UNSPECIFIED') ) ;
#318 = VERTEX_POINT ( 'NONE', #247 ) ;
#319 = PERSON_AND_ORGANIZATION_ROLE ( 'creator' ) ;
#320 = MANIFOLD_SOLID_BREP ( 'È¸Àü4', #360 ) ;
#321 = CIRCLE ( 'NONE', #185, 1.500000000000000000 ) ;
#322 = ADVANCED_FACE ( 'NONE', ( #145 ), #333, .F. ) ;
#323 = DIRECTION ( 'NONE',  ( 0.0000000000000000000, -1.000000000000000000, 0.0000000000000000000 ) ) ;
#324 = SECURITY_CLASSIFICATION ( '', '', #35 ) ;
#325 = AXIS2_PLACEMENT_3D ( 'NONE', #194, #218, #63 ) ;
#326 = ORIENTED_EDGE ( 'NONE', *, *, #84, .F. ) ;
#327 = LOCAL_TIME ( 10, 17, 34.00000000000000000, #38 ) ;
#328 = CIRCLE ( 'NONE', #47, 1.500000000000000000 ) ;
#329 = DIRECTION ( 'NONE',  ( 1.000000000000000000, 6.123233995736766000E-017, -0.0000000000000000000 ) ) ;
#330 = CALENDAR_DATE ( 2023, 3, 7 ) ;
#331 = DIRECTION ( 'NONE',  ( 0.0000000000000000000, 0.0000000000000000000, 1.000000000000000000 ) ) ;
#332 = DIRECTION ( 'NONE',  ( -1.000000000000000000, -0.0000000000000000000, -0.0000000000000000000 ) ) ;
#333 = PLANE ( 'NONE',  #177 ) ;
#334 = FACE_OUTER_BOUND ( 'NONE', #119, .T. ) ;
#335 = APPLICATION_PROTOCOL_DEFINITION ( 'international standard', 'config_control_design', 1994, #357 ) ;
#336 = APPROVAL_STATUS ( 'not_yet_approved' ) ;
#337 = PERSON_AND_ORGANIZATION ( #317, #114 ) ;
#338 = CC_DESIGN_PERSON_AND_ORGANIZATION_ASSIGNMENT ( #217, #252, ( #324 ) ) ;
#339 = AXIS2_PLACEMENT_3D ( 'NONE', #273, #107, #289 ) ;
#340 = VERTEX_POINT ( 'NONE', #314 ) ;
#341 = ADVANCED_FACE ( 'NONE', ( #334 ), #131, .T. ) ;
#342 = VECTOR ( 'NONE', #189, 1000.000000000000000 ) ;
#343 = FACE_OUTER_BOUND ( 'NONE', #33, .T. ) ;
#344 = COORDINATED_UNIVERSAL_TIME_OFFSET ( 9, 0, .AHEAD. ) ;
#345 = PRODUCT_DEFINITION_SHAPE ( 'NONE', 'NONE',  #162 ) ;
#346 = CIRCLE ( 'NONE', #310, 1.500000000000000000 ) ;
#347 = DIRECTION ( 'NONE',  ( -1.000000000000000000, -0.0000000000000000000, -0.0000000000000000000 ) ) ;
#348 = CARTESIAN_POINT ( 'NONE',  ( -42.49999999999999300, -2.602374448188125100E-015, 0.0000000000000000000 ) ) ;
#349 = LOCAL_TIME ( 10, 17, 34.00000000000000000, #85 ) ;
#350 = ORIENTED_EDGE ( 'NONE', *, *, #152, .F. ) ;
#351 = CARTESIAN_POINT ( 'NONE',  ( 0.0000000000000000000, 0.0000000000000000000, 0.0000000000000000000 ) ) ;
#352 = CC_DESIGN_DATE_AND_TIME_ASSIGNMENT ( #278, #78, ( #324 ) ) ;
#353 = CARTESIAN_POINT ( 'NONE',  ( -43.00000000000000000, -2.632990618166809200E-015, 0.0000000000000000000 ) ) ;
#354 = LINE ( 'NONE', #269, #180 ) ;
#355 = ORIENTED_EDGE ( 'NONE', *, *, #81, .F. ) ;
#356 = DIRECTION ( 'NONE',  ( 0.0000000000000000000, 0.0000000000000000000, -1.000000000000000000 ) ) ;
#357 = APPLICATION_CONTEXT ( 'configuration controlled 3d designs of mechanical parts and assemblies' ) ;
#358 = CALENDAR_DATE ( 2023, 3, 7 ) ;
#359 = PERSON_AND_ORGANIZATION_ROLE ( 'creator' ) ;
#360 = CLOSED_SHELL ( 'NONE', ( #120, #341, #362, #82, #153, #178 ) ) ;
#361 = ORIENTED_EDGE ( 'NONE', *, *, #69, .T. ) ;
#362 = ADVANCED_FACE ( 'NONE', ( #44 ), #31, .T. ) ;
#363 = VECTOR ( 'NONE', #14, 1000.000000000000000 ) ;
#364 = ORIENTED_EDGE ( 'NONE', *, *, #113, .T. ) ;
#365 = PERSON_AND_ORGANIZATION ( #317, #114 ) ;
ENDSEC;
END-ISO-10303-21;
