ISO-10303-21;
HEADER;
FILE_DESCRIPTION (( 'STEP AP203' ),
    '1' );
FILE_NAME ('03-3177.STEP',
    '2023-07-12T07:36:33',
    ( 'USER' ),
    ( 'Hewlett-Packard Company' ),
    'SwSTEP 2.0',
    'SolidWorks 2014',
    '' );
FILE_SCHEMA (( 'CONFIG_CONTROL_DESIGN' ));
ENDSEC;

DATA;
#1 = CARTESIAN_POINT ( 'NONE',  ( -48.70000000000000300, -5.929864210201623900E-015, 0.0000000000000000000 ) ) ;
#2 = VERTEX_POINT ( 'NONE', #59 ) ;
#3 = AXIS2_PLACEMENT_3D ( 'NONE', #71, #100, #296 ) ;
#4 = DIRECTION ( 'NONE',  ( 0.0000000000000000000, 1.000000000000000000, 0.0000000000000000000 ) ) ;
#5 = DIRECTION ( 'NONE',  ( 1.000000000000000000, 0.0000000000000000000, 0.0000000000000000000 ) ) ;
#6 = CARTESIAN_POINT ( 'NONE',  ( 20.00000000000000400, 0.0000000000000000000, 0.0000000000000000000 ) ) ;
#7 = CARTESIAN_POINT ( 'NONE',  ( -0.9999999999999961100, -2.386263263662620400E-016, 0.0000000000000000000 ) ) ;
#8 = CIRCLE ( 'NONE', #96, 4.000000000000003600 ) ;
#9 = DIRECTION ( 'NONE',  ( 0.0000000000000000000, 1.000000000000000000, 0.0000000000000000000 ) ) ;
#10 = APPROVAL_PERSON_ORGANIZATION ( #92, #42, #241 ) ;
#11 = APPLICATION_CONTEXT ( 'configuration controlled 3d designs of mechanical parts and assemblies' ) ;
#12 = APPROVAL_STATUS ( 'not_yet_approved' ) ;
#13 = AXIS2_PLACEMENT_3D ( 'NONE', #7, #231, #40 ) ;
#14 = ORIENTED_EDGE ( 'NONE', *, *, #309, .F. ) ;
#15 = ORIENTED_EDGE ( 'NONE', *, *, #175, .F. ) ;
#16 = VECTOR ( 'NONE', #35, 1000.000000000000000 ) ;
#17 = CC_DESIGN_DATE_AND_TIME_ASSIGNMENT ( #176, #209, ( #387 ) ) ;
#18 = COORDINATED_UNIVERSAL_TIME_OFFSET ( 9, 0, .AHEAD. ) ;
#19 = EDGE_CURVE ( 'NONE', #69, #190, #227, .T. ) ;
#20 = ADVANCED_FACE ( 'NONE', ( #312 ), #283, .T. ) ;
#21 = ORIENTED_EDGE ( 'NONE', *, *, #127, .F. ) ;
#22 = ORIENTED_EDGE ( 'NONE', *, *, #245, .T. ) ;
#23 = LINE ( 'NONE', #356, #193 ) ;
#24 =( GEOMETRIC_REPRESENTATION_CONTEXT ( 3 ) GLOBAL_UNCERTAINTY_ASSIGNED_CONTEXT ( ( #34 ) ) GLOBAL_UNIT_ASSIGNED_CONTEXT ( ( #265, #75, #299 ) ) REPRESENTATION_CONTEXT ( 'NONE', 'WORKASPACE' ) );
#25 = CONICAL_SURFACE ( 'NONE', #240, 5.000000000000000000, 0.7853981633974453900 ) ;
#26 = ORIENTED_EDGE ( 'NONE', *, *, #108, .F. ) ;
#27 = DATE_AND_TIME ( #117, #203 ) ;
#28 = ADVANCED_FACE ( 'NONE', ( #384 ), #216, .T. ) ;
#29 = DIRECTION ( 'NONE',  ( 0.0000000000000000000, 0.0000000000000000000, 1.000000000000000000 ) ) ;
#30 = ORIENTED_EDGE ( 'NONE', *, *, #116, .F. ) ;
#31 = ORIENTED_EDGE ( 'NONE', *, *, #330, .T. ) ;
#32 = AXIS2_PLACEMENT_3D ( 'NONE', #381, #5, #228 ) ;
#33 = VECTOR ( 'NONE', #353, 1000.000000000000000 ) ;
#34 = UNCERTAINTY_MEASURE_WITH_UNIT (LENGTH_MEASURE( 1.000000000000000100E-005 ), #265, 'distance_accuracy_value', 'NONE');
#35 = DIRECTION ( 'NONE',  ( 1.000000000000000000, 1.193131631831312700E-016, -0.0000000000000000000 ) ) ;
#36 = CARTESIAN_POINT ( 'NONE',  ( -48.70000000000000300, 4.999999999999993800, 0.0000000000000000000 ) ) ;
#37 = CARTESIAN_POINT ( 'NONE',  ( 0.0000000000000000000, 0.0000000000000000000, 4.000000000000001800 ) ) ;
#38 = FACE_OUTER_BOUND ( 'NONE', #200, .T. ) ;
#39 = DIRECTION ( 'NONE',  ( 0.0000000000000000000, 0.0000000000000000000, 1.000000000000000000 ) ) ;
#40 = DIRECTION ( 'NONE',  ( -1.301042606982605600E-016, 1.000000000000000000, 0.0000000000000000000 ) ) ;
#41 = EDGE_LOOP ( 'NONE', ( #403, #217, #277, #99 ) ) ;
#42 = APPROVAL ( #12, 'UNSPECIFIED' ) ;
#43 = DIRECTION ( 'NONE',  ( 1.000000000000000000, 1.193131631831312700E-016, -0.0000000000000000000 ) ) ;
#44 = DIRECTION ( 'NONE',  ( -1.000000000000000000, -0.0000000000000000000, -0.0000000000000000000 ) ) ;
#45 = PERSON_AND_ORGANIZATION ( #291, #401 ) ;
#46 = DIRECTION ( 'NONE',  ( 1.000000000000000000, 1.193131631831312700E-016, -0.0000000000000000000 ) ) ;
#47 = EDGE_CURVE ( 'NONE', #69, #52, #142, .T. ) ;
#48 = APPROVAL_STATUS ( 'not_yet_approved' ) ;
#49 = CARTESIAN_POINT ( 'NONE',  ( -49.00000000000000000, 4.699999999999994000, 0.0000000000000000000 ) ) ;
#50 = AXIS2_PLACEMENT_3D ( 'NONE', #359, #165, #390 ) ;
#51 = CIRCLE ( 'NONE', #319, 4.000000000000000000 ) ;
#52 = VERTEX_POINT ( 'NONE', #223 ) ;
#53 = PERSON_AND_ORGANIZATION ( #291, #401 ) ;
#54 = AXIS2_PLACEMENT_3D ( 'NONE', #198, #354, #133 ) ;
#55 = DIRECTION ( 'NONE',  ( 1.000000000000000000, 1.193131631831312700E-016, -0.0000000000000000000 ) ) ;
#56 = CIRCLE ( 'NONE', #276, 4.000000000000000000 ) ;
#57 = EDGE_LOOP ( 'NONE', ( #243, #182 ) ) ;
#58 = COORDINATED_UNIVERSAL_TIME_OFFSET ( 9, 0, .AHEAD. ) ;
#59 = CARTESIAN_POINT ( 'NONE',  ( -48.70000000000000300, -5.000000000000006200, 6.123233995736769200E-016 ) ) ;
#60 = CC_DESIGN_APPROVAL ( #42, ( #387 ) ) ;
#61 = DIRECTION ( 'NONE',  ( -1.193131631831312700E-016, 1.000000000000000000, 0.0000000000000000000 ) ) ;
#62 = CONICAL_SURFACE ( 'NONE', #311, 5.000000000000000000, 0.7853981633974453900 ) ;
#63 = EDGE_CURVE ( 'NONE', #348, #80, #56, .T. ) ;
#64 = ADVANCED_FACE ( 'NONE', ( #130 ), #213, .T. ) ;
#65 = ORIENTED_EDGE ( 'NONE', *, *, #169, .T. ) ;
#66 = CARTESIAN_POINT ( 'NONE',  ( 0.9999999999999991100, -9.828898524006407300E-032, 0.0000000000000000000 ) ) ;
#67 = DIRECTION ( 'NONE',  ( 1.000000000000000000, 1.193131631831312700E-016, -0.0000000000000000000 ) ) ;
#68 = ORIENTED_EDGE ( 'NONE', *, *, #127, .T. ) ;
#69 = VERTEX_POINT ( 'NONE', #94 ) ;
#70 = SHAPE_DEFINITION_REPRESENTATION ( #399, #304 ) ;
#71 = CARTESIAN_POINT ( 'NONE',  ( 1.000000000000000000, 0.0000000000000000000, 0.0000000000000000000 ) ) ;
#72 = DIRECTION ( 'NONE',  ( 1.000000000000000000, 1.193131631831312700E-016, -0.0000000000000000000 ) ) ;
#73 = DIRECTION ( 'NONE',  ( -1.000000000000000000, -0.0000000000000000000, -0.0000000000000000000 ) ) ;
#74 = FACE_OUTER_BOUND ( 'NONE', #110, .T. ) ;
#75 =( NAMED_UNIT ( * ) PLANE_ANGLE_UNIT ( ) SI_UNIT ( $, .RADIAN. ) );
#76 = CARTESIAN_POINT ( 'NONE',  ( 0.9999999999999997800, 0.0000000000000000000, 0.0000000000000000000 ) ) ;
#77 = PERSON_AND_ORGANIZATION_ROLE ( 'creator' ) ;
#78 = DIRECTION ( 'NONE',  ( 0.7071067811865496800, -0.7071067811865453500, 8.659560562354908200E-017 ) ) ;
#79 = AXIS2_PLACEMENT_3D ( 'NONE', #357, #163, #389 ) ;
#80 = VERTEX_POINT ( 'NONE', #320 ) ;
#81 = ORIENTED_EDGE ( 'NONE', *, *, #89, .T. ) ;
#82 = CC_DESIGN_SECURITY_CLASSIFICATION ( #387, ( #281 ) ) ;
#83 = CYLINDRICAL_SURFACE ( 'NONE', #157, 4.000000000000000000 ) ;
#84 = DATE_AND_TIME ( #168, #251 ) ;
#85 = EDGE_CURVE ( 'NONE', #190, #119, #375, .T. ) ;
#86 = ORIENTED_EDGE ( 'NONE', *, *, #264, .T. ) ;
#87 = ORIENTED_EDGE ( 'NONE', *, *, #220, .F. ) ;
#88 = CARTESIAN_POINT ( 'NONE',  ( -48.70000000000000300, -5.929864210201623900E-015, 0.0000000000000000000 ) ) ;
#89 = EDGE_CURVE ( 'NONE', #118, #347, #51, .T. ) ;
#90 = CIRCLE ( 'NONE', #141, 5.000000000000000000 ) ;
#91 = DIRECTION ( 'NONE',  ( 1.193131631831312700E-016, -1.000000000000000000, 0.0000000000000000000 ) ) ;
#92 = PERSON_AND_ORGANIZATION ( #291, #401 ) ;
#93 = ADVANCED_FACE ( 'NONE', ( #38 ), #25, .T. ) ;
#94 = CARTESIAN_POINT ( 'NONE',  ( -4.357178373832331000E-017, 4.000000000000000000, 0.0000000000000000000 ) ) ;
#95 = ORIENTED_EDGE ( 'NONE', *, *, #138, .F. ) ;
#96 = AXIS2_PLACEMENT_3D ( 'NONE', #234, #44, #263 ) ;
#97 = DIRECTION ( 'NONE',  ( -1.084202172485504400E-016, 1.000000000000000000, 0.0000000000000000000 ) ) ;
#98 = ORIENTED_EDGE ( 'NONE', *, *, #392, .T. ) ;
#99 = ORIENTED_EDGE ( 'NONE', *, *, #392, .F. ) ;
#100 = DIRECTION ( 'NONE',  ( 1.000000000000000000, 1.193131631831312700E-016, -0.0000000000000000000 ) ) ;
#101 = CIRCLE ( 'NONE', #13, 4.999999999999999100 ) ;
#102 = ORIENTED_EDGE ( 'NONE', *, *, #47, .T. ) ;
#103 = PRODUCT_RELATED_PRODUCT_CATEGORY ( 'detail', '', ( #258 ) ) ;
#104 = CARTESIAN_POINT ( 'NONE',  ( 0.0000000000000000000, 4.898587196589415800E-016, -4.000000000000001800 ) ) ;
#105 = CARTESIAN_POINT ( 'NONE',  ( 20.00000000000000400, -1.734723475976807100E-014, 0.0000000000000000000 ) ) ;
#106 = PERSON_AND_ORGANIZATION ( #291, #401 ) ;
#107 = DIRECTION ( 'NONE',  ( -1.000000000000000000, -0.0000000000000000000, -0.0000000000000000000 ) ) ;
#108 = EDGE_CURVE ( 'NONE', #190, #118, #199, .T. ) ;
#109 = APPROVAL_STATUS ( 'not_yet_approved' ) ;
#110 = EDGE_LOOP ( 'NONE', ( #171, #65, #376, #177 ) ) ;
#111 = CLOSED_SHELL ( 'NONE', ( #28, #64, #128, #222 ) ) ;
#112 = MANIFOLD_SOLID_BREP ( 'È¸Àü4', #247 ) ;
#113 = FACE_OUTER_BOUND ( 'NONE', #229, .T. ) ;
#114 = CIRCLE ( 'NONE', #380, 4.000000000000000000 ) ;
#115 = EDGE_LOOP ( 'NONE', ( #68, #81 ) ) ;
#116 = EDGE_CURVE ( 'NONE', #190, #69, #294, .T. ) ;
#117 = CALENDAR_DATE ( 2023, 12, 7 ) ;
#118 = VERTEX_POINT ( 'NONE', #192 ) ;
#119 = VERTEX_POINT ( 'NONE', #322 ) ;
#120 = ORIENTED_EDGE ( 'NONE', *, *, #410, .T. ) ;
#121 = AXIS2_PLACEMENT_3D ( 'NONE', #76, #107, #300 ) ;
#122 = CIRCLE ( 'NONE', #398, 4.999999999999999100 ) ;
#123 = VECTOR ( 'NONE', #346, 999.9999999999998900 ) ;
#124 = ORIENTED_EDGE ( 'NONE', *, *, #285, .F. ) ;
#125 = DATE_AND_TIME ( #215, #297 ) ;
#126 = DIRECTION ( 'NONE',  ( 0.0000000000000000000, 0.0000000000000000000, 1.000000000000000000 ) ) ;
#127 = EDGE_CURVE ( 'NONE', #347, #118, #114, .T. ) ;
#128 = ADVANCED_FACE ( 'NONE', ( #305 ), #324, .F. ) ;
#129 = DIRECTION ( 'NONE',  ( -1.000000000000000000, -0.0000000000000000000, -0.0000000000000000000 ) ) ;
#130 = FACE_OUTER_BOUND ( 'NONE', #333, .T. ) ;
#131 = AXIS2_PLACEMENT_3D ( 'NONE', #205, #328, #167 ) ;
#132 = CARTESIAN_POINT ( 'NONE',  ( 20.00000000000000400, 4.898587196589417800E-016, -4.000000000000003600 ) ) ;
#133 = DIRECTION ( 'NONE',  ( 1.193131631831312700E-016, -1.000000000000000000, 0.0000000000000000000 ) ) ;
#134 = ORIENTED_EDGE ( 'NONE', *, *, #108, .T. ) ;
#135 = CARTESIAN_POINT ( 'NONE',  ( 0.9999999999999997800, 0.0000000000000000000, 4.000000000000000000 ) ) ;
#136 = CARTESIAN_POINT ( 'NONE',  ( 1.000000000000000000, 0.0000000000000000000, 0.0000000000000000000 ) ) ;
#137 = APPROVAL_DATE_TIME ( #219, #196 ) ;
#138 = EDGE_CURVE ( 'NONE', #295, #348, #273, .T. ) ;
#139 = DIRECTION ( 'NONE',  ( -0.0000000000000000000, 0.0000000000000000000, 1.000000000000000000 ) ) ;
#140 = PERSON_AND_ORGANIZATION_ROLE ( 'creator' ) ;
#141 = AXIS2_PLACEMENT_3D ( 'NONE', #391, #206, #9 ) ;
#142 = LINE ( 'NONE', #379, #397 ) ;
#143 = ORIENTED_EDGE ( 'NONE', *, *, #264, .F. ) ;
#144 = ORIENTED_EDGE ( 'NONE', *, *, #85, .T. ) ;
#145 = APPROVAL_PERSON_ORGANIZATION ( #232, #196, #268 ) ;
#146 = CONICAL_SURFACE ( 'NONE', #212, 4.000000000000000000, 0.7853981633974496100 ) ;
#147 = EDGE_CURVE ( 'NONE', #69, #347, #355, .T. ) ;
#148 = EDGE_LOOP ( 'NONE', ( #323, #15 ) ) ;
#149 = ORIENTED_EDGE ( 'NONE', *, *, #19, .F. ) ;
#150 = CC_DESIGN_PERSON_AND_ORGANIZATION_ASSIGNMENT ( #316, #207, ( #258 ) ) ;
#151 = EDGE_CURVE ( 'NONE', #119, #52, #101, .T. ) ;
#152 = CIRCLE ( 'NONE', #351, 4.000000000000003600 ) ;
#153 = DIRECTION ( 'NONE',  ( -1.000000000000000000, -0.0000000000000000000, -0.0000000000000000000 ) ) ;
#154 = ORIENTED_EDGE ( 'NONE', *, *, #19, .T. ) ;
#155 = ADVANCED_FACE ( 'NONE', ( #181 ), #250, .T. ) ;
#156 = DIRECTION ( 'NONE',  ( 0.0000000000000000000, 1.000000000000000000, 0.0000000000000000000 ) ) ;
#157 = AXIS2_PLACEMENT_3D ( 'NONE', #136, #72, #202 ) ;
#158 = CARTESIAN_POINT ( 'NONE',  ( 1.000000000000000400, -4.000000000000000000, 4.898587196589412800E-016 ) ) ;
#159 = ORIENTED_EDGE ( 'NONE', *, *, #116, .T. ) ;
#160 = DIRECTION ( 'NONE',  ( 0.7071067811865493500, 0.7071067811865455700, 0.0000000000000000000 ) ) ;
#161 = CARTESIAN_POINT ( 'NONE',  ( 0.9999999999999991100, -9.828898524006407300E-032, 0.0000000000000000000 ) ) ;
#162 = DESIGN_CONTEXT ( 'detailed design', #11, 'design' ) ;
#163 = DIRECTION ( 'NONE',  ( 1.000000000000000000, 1.193131631831312700E-016, -0.0000000000000000000 ) ) ;
#164 = FACE_OUTER_BOUND ( 'NONE', #148, .T. ) ;
#165 = DIRECTION ( 'NONE',  ( 1.000000000000000000, 1.193131631831312700E-016, -0.0000000000000000000 ) ) ;
#166 = CARTESIAN_POINT ( 'NONE',  ( -48.70000000000000300, -5.000000000000006200, 6.123233995736766300E-016 ) ) ;
#167 = DIRECTION ( 'NONE',  ( 1.000000000000000000, 0.0000000000000000000, 0.0000000000000000000 ) ) ;
#168 = CALENDAR_DATE ( 2023, 12, 7 ) ;
#169 = EDGE_CURVE ( 'NONE', #274, #269, #335, .T. ) ;
#170 = SECURITY_CLASSIFICATION_LEVEL ( 'unclassified' ) ;
#171 = ORIENTED_EDGE ( 'NONE', *, *, #245, .F. ) ;
#172 = FACE_OUTER_BOUND ( 'NONE', #115, .T. ) ;
#173 = PRODUCT_DEFINITION ( 'UNKNOWN', '', #281, #162 ) ;
#174 = FACE_OUTER_BOUND ( 'NONE', #338, .T. ) ;
#175 = EDGE_CURVE ( 'NONE', #325, #295, #8, .T. ) ;
#176 = DATE_AND_TIME ( #267, #343 ) ;
#177 = ORIENTED_EDGE ( 'NONE', *, *, #204, .F. ) ;
#178 = ORIENTED_EDGE ( 'NONE', *, *, #147, .T. ) ;
#179 = CYLINDRICAL_SURFACE ( 'NONE', #3, 4.000000000000000000 ) ;
#180 = DIRECTION ( 'NONE',  ( -0.7071067811865466800, 0.7071067811865483500, 8.659560562354944000E-017 ) ) ;
#181 = FACE_OUTER_BOUND ( 'NONE', #191, .T. ) ;
#182 = ORIENTED_EDGE ( 'NONE', *, *, #220, .T. ) ;
#183 = CARTESIAN_POINT ( 'NONE',  ( 4.336808689942017700E-016, -1.193131631831312200E-016, 0.0000000000000000000 ) ) ;
#184 = PERSON_AND_ORGANIZATION ( #291, #401 ) ;
#185 = DIRECTION ( 'NONE',  ( -1.000000000000000000, -0.0000000000000000000, -0.0000000000000000000 ) ) ;
#186 = ADVANCED_FACE ( 'NONE', ( #174 ), #83, .T. ) ;
#187 = AXIS2_PLACEMENT_3D ( 'NONE', #183, #378, #61 ) ;
#188 = CARTESIAN_POINT ( 'NONE',  ( 0.0000000000000000000, 0.0000000000000000000, 0.0000000000000000000 ) ) ;
#189 = CARTESIAN_POINT ( 'NONE',  ( 20.00000000000000400, 0.0000000000000000000, 4.000000000000003600 ) ) ;
#190 = VERTEX_POINT ( 'NONE', #298 ) ;
#191 = EDGE_LOOP ( 'NONE', ( #149, #102, #369, #256 ) ) ;
#192 = CARTESIAN_POINT ( 'NONE',  ( 0.9999999999999995600, -4.000000000000000000, 4.898587196589412800E-016 ) ) ;
#193 = VECTOR ( 'NONE', #201, 1000.000000000000000 ) ;
#194 = DIRECTION ( 'NONE',  ( 1.000000000000000000, 1.193131631831312700E-016, -0.0000000000000000000 ) ) ;
#195 = DIRECTION ( 'NONE',  ( -1.084202172485504400E-016, 1.000000000000000000, 0.0000000000000000000 ) ) ;
#196 = APPROVAL ( #48, 'UNSPECIFIED' ) ;
#197 = CARTESIAN_POINT ( 'NONE',  ( 1.000000000000000700, -4.999999999999999100, 6.123233995736765300E-016 ) ) ;
#198 = CARTESIAN_POINT ( 'NONE',  ( 4.336808689942017700E-016, -1.193131631831312200E-016, 0.0000000000000000000 ) ) ;
#199 = LINE ( 'NONE', #158, #280 ) ;
#200 = EDGE_LOOP ( 'NONE', ( #86, #22, #124, #14 ) ) ;
#201 = DIRECTION ( 'NONE',  ( 1.000000000000000000, 1.193131631831312700E-016, -0.0000000000000000000 ) ) ;
#202 = DIRECTION ( 'NONE',  ( -1.084202172485504400E-016, 1.000000000000000000, 0.0000000000000000000 ) ) ;
#203 = LOCAL_TIME ( 16, 36, 33.00000000000000000, #284 ) ;
#204 = EDGE_CURVE ( 'NONE', #2, #314, #90, .T. ) ;
#205 = CARTESIAN_POINT ( 'NONE',  ( 0.0000000000000000000, 0.0000000000000000000, 0.0000000000000000000 ) ) ;
#206 = DIRECTION ( 'NONE',  ( 1.000000000000000000, 1.193131631831312700E-016, -0.0000000000000000000 ) ) ;
#207 = PERSON_AND_ORGANIZATION_ROLE ( 'design_owner' ) ;
#208 = DIRECTION ( 'NONE',  ( -1.301042606982605600E-016, 1.000000000000000000, 0.0000000000000000000 ) ) ;
#209 = DATE_TIME_ROLE ( 'classification_date' ) ;
#210 = ORIENTED_EDGE ( 'NONE', *, *, #169, .F. ) ;
#211 = VECTOR ( 'NONE', #160, 1000.000000000000100 ) ;
#212 = AXIS2_PLACEMENT_3D ( 'NONE', #302, #360, #238 ) ;
#213 = CYLINDRICAL_SURFACE ( 'NONE', #337, 4.000000000000001800 ) ;
#214 = ORIENTED_EDGE ( 'NONE', *, *, #63, .F. ) ;
#215 = CALENDAR_DATE ( 2023, 12, 7 ) ;
#216 = CYLINDRICAL_SURFACE ( 'NONE', #303, 4.000000000000001800 ) ;
#217 = ORIENTED_EDGE ( 'NONE', *, *, #344, .T. ) ;
#218 = CC_DESIGN_APPROVAL ( #196, ( #173 ) ) ;
#219 = DATE_AND_TIME ( #308, #386 ) ;
#220 = EDGE_CURVE ( 'NONE', #80, #348, #342, .T. ) ;
#221 = CARTESIAN_POINT ( 'NONE',  ( 0.0000000000000000000, 0.0000000000000000000, 0.0000000000000000000 ) ) ;
#222 = ADVANCED_FACE ( 'NONE', ( #164 ), #235, .F. ) ;
#223 = CARTESIAN_POINT ( 'NONE',  ( -0.9999999999999965600, 4.999999999999999100, 6.123233995736765300E-016 ) ) ;
#224 = ORIENTED_EDGE ( 'NONE', *, *, #89, .F. ) ;
#225 = DIRECTION ( 'NONE',  ( -1.000000000000000000, -0.0000000000000000000, -0.0000000000000000000 ) ) ;
#226 = AXIS2_PLACEMENT_3D ( 'NONE', #105, #363, #139 ) ;
#227 = CIRCLE ( 'NONE', #187, 4.000000000000000000 ) ;
#228 = DIRECTION ( 'NONE',  ( 0.0000000000000000000, 0.0000000000000000000, -1.000000000000000000 ) ) ;
#229 = EDGE_LOOP ( 'NONE', ( #358, #404, #98, #282 ) ) ;
#230 = DIRECTION ( 'NONE',  ( -1.000000000000000000, -0.0000000000000000000, -0.0000000000000000000 ) ) ;
#231 = DIRECTION ( 'NONE',  ( 1.000000000000000000, 1.193131631831312700E-016, -0.0000000000000000000 ) ) ;
#232 = PERSON_AND_ORGANIZATION ( #291, #401 ) ;
#233 = CARTESIAN_POINT ( 'NONE',  ( -0.9999999999999961100, -2.386263263662620400E-016, 0.0000000000000000000 ) ) ;
#234 = CARTESIAN_POINT ( 'NONE',  ( 20.00000000000000400, 0.0000000000000000000, 0.0000000000000000000 ) ) ;
#235 = PLANE ( 'NONE',  #226 ) ;
#236 = CIRCLE ( 'NONE', #248, 4.700000000000000200 ) ;
#237 = APPLICATION_PROTOCOL_DEFINITION ( 'international standard', 'config_control_design', 1994, #11 ) ;
#238 = DIRECTION ( 'NONE',  ( 1.193131631831312700E-016, -1.000000000000000000, 0.0000000000000000000 ) ) ;
#239 = ORIENTED_EDGE ( 'NONE', *, *, #147, .F. ) ;
#240 = AXIS2_PLACEMENT_3D ( 'NONE', #1, #255, #156 ) ;
#241 = APPROVAL_ROLE ( '' ) ;
#242 = EDGE_LOOP ( 'NONE', ( #143, #210 ) ) ;
#243 = ORIENTED_EDGE ( 'NONE', *, *, #63, .T. ) ;
#244 = CC_DESIGN_PERSON_AND_ORGANIZATION_ASSIGNMENT ( #53, #77, ( #173 ) ) ;
#245 = EDGE_CURVE ( 'NONE', #274, #2, #409, .T. ) ;
#246 = FACE_OUTER_BOUND ( 'NONE', #339, .T. ) ;
#247 = CLOSED_SHELL ( 'NONE', ( #93, #287, #155, #186, #20, #412, #345, #254, #318, #310 ) ) ;
#248 = AXIS2_PLACEMENT_3D ( 'NONE', #279, #55, #249 ) ;
#249 = DIRECTION ( 'NONE',  ( 0.0000000000000000000, 1.000000000000000000, 0.0000000000000000000 ) ) ;
#250 = CONICAL_SURFACE ( 'NONE', #54, 4.000000000000000000, 0.7853981633974496100 ) ;
#251 = LOCAL_TIME ( 16, 36, 33.00000000000000000, #336 ) ;
#252 = DIRECTION ( 'NONE',  ( 0.0000000000000000000, 0.0000000000000000000, 1.000000000000000000 ) ) ;
#253 = AXIS2_PLACEMENT_3D ( 'NONE', #408, #286, #91 ) ;
#254 = ADVANCED_FACE ( 'NONE', ( #246 ), #146, .T. ) ;
#255 = DIRECTION ( 'NONE',  ( 1.000000000000000000, 1.193131631831312700E-016, -0.0000000000000000000 ) ) ;
#256 = ORIENTED_EDGE ( 'NONE', *, *, #85, .F. ) ;
#257 = CARTESIAN_POINT ( 'NONE',  ( 4.336808689942017700E-016, -1.193131631831312200E-016, 0.0000000000000000000 ) ) ;
#258 = PRODUCT ( '03-3177', '03-3177', '', ( #394 ) ) ;
#259 = DIRECTION ( 'NONE',  ( 1.000000000000000000, 1.193131631831312700E-016, -0.0000000000000000000 ) ) ;
#260 = CC_DESIGN_DATE_AND_TIME_ASSIGNMENT ( #125, #301, ( #173 ) ) ;
#261 = VECTOR ( 'NONE', #78, 1000.000000000000000 ) ;
#262 = DIRECTION ( 'NONE',  ( -1.301042606982605600E-016, 1.000000000000000000, 0.0000000000000000000 ) ) ;
#263 = DIRECTION ( 'NONE',  ( 0.0000000000000000000, 0.0000000000000000000, 1.000000000000000000 ) ) ;
#264 = EDGE_CURVE ( 'NONE', #269, #274, #236, .T. ) ;
#265 =( LENGTH_UNIT ( ) NAMED_UNIT ( * ) SI_UNIT ( .MILLI., .METRE. ) );
#266 = CARTESIAN_POINT ( 'NONE',  ( 1.000000000000000000, 0.0000000000000000000, 0.0000000000000000000 ) ) ;
#267 = CALENDAR_DATE ( 2023, 12, 7 ) ;
#268 = APPROVAL_ROLE ( '' ) ;
#269 = VERTEX_POINT ( 'NONE', #49 ) ;
#270 = EDGE_LOOP ( 'NONE', ( #26, #159, #178, #224 ) ) ;
#271 = AXIS2_PLACEMENT_3D ( 'NONE', #88, #406, #315 ) ;
#272 = LINE ( 'NONE', #104, #340 ) ;
#273 = LINE ( 'NONE', #37, #368 ) ;
#274 = VERTEX_POINT ( 'NONE', #313 ) ;
#275 = PERSON_AND_ORGANIZATION ( #291, #401 ) ;
#276 = AXIS2_PLACEMENT_3D ( 'NONE', #413, #225, #29 ) ;
#277 = ORIENTED_EDGE ( 'NONE', *, *, #372, .F. ) ;
#278 = LINE ( 'NONE', #197, #33 ) ;
#279 = CARTESIAN_POINT ( 'NONE',  ( -49.00000000000000000, -5.965658159156563700E-015, 0.0000000000000000000 ) ) ;
#280 = VECTOR ( 'NONE', #349, 1000.000000000000000 ) ;
#281 = PRODUCT_DEFINITION_FORMATION_WITH_SPECIFIED_SOURCE ( 'ANY', '', #258, .NOT_KNOWN. ) ;
#282 = ORIENTED_EDGE ( 'NONE', *, *, #151, .F. ) ;
#283 = PLANE ( 'NONE',  #253 ) ;
#284 = COORDINATED_UNIVERSAL_TIME_OFFSET ( 9, 0, .AHEAD. ) ;
#285 = EDGE_CURVE ( 'NONE', #314, #2, #317, .T. ) ;
#286 = DIRECTION ( 'NONE',  ( -1.000000000000000000, -1.193131631831312700E-016, 0.0000000000000000000 ) ) ;
#287 = ADVANCED_FACE ( 'NONE', ( #402 ), #393, .T. ) ;
#288 = CARTESIAN_POINT ( 'NONE',  ( 9.109335217267269400E-016, -4.000000000000000000, 0.0000000000000000000 ) ) ;
#289 = DIRECTION ( 'NONE',  ( 1.000000000000000000, 1.193131631831312700E-016, -0.0000000000000000000 ) ) ;
#290 = DIRECTION ( 'NONE',  ( -1.193131631831312700E-016, 1.000000000000000000, 0.0000000000000000000 ) ) ;
#291 = PERSON ( 'UNSPECIFIED', 'UNSPECIFIED', 'UNSPECIFIED', ('UNSPECIFIED'), ('UNSPECIFIED'), ('UNSPECIFIED') ) ;
#292 = DIRECTION ( 'NONE',  ( -1.301042606982605600E-016, 1.000000000000000000, 0.0000000000000000000 ) ) ;
#293 = CARTESIAN_POINT ( 'NONE',  ( 0.9999999999999995600, 4.000000000000000000, 0.0000000000000000000 ) ) ;
#294 = CIRCLE ( 'NONE', #366, 4.000000000000000000 ) ;
#295 = VERTEX_POINT ( 'NONE', #189 ) ;
#296 = DIRECTION ( 'NONE',  ( -1.084202172485504400E-016, 1.000000000000000000, 0.0000000000000000000 ) ) ;
#297 = LOCAL_TIME ( 16, 36, 33.00000000000000000, #377 ) ;
#298 = CARTESIAN_POINT ( 'NONE',  ( 9.109335217267269400E-016, -4.000000000000000000, 4.898587196589412800E-016 ) ) ;
#299 =( NAMED_UNIT ( * ) SI_UNIT ( $, .STERADIAN. ) SOLID_ANGLE_UNIT ( ) );
#300 = DIRECTION ( 'NONE',  ( 0.0000000000000000000, 0.0000000000000000000, 1.000000000000000000 ) ) ;
#301 = DATE_TIME_ROLE ( 'creation_date' ) ;
#302 = CARTESIAN_POINT ( 'NONE',  ( 4.336808689942017700E-016, -1.193131631831312200E-016, 0.0000000000000000000 ) ) ;
#303 = AXIS2_PLACEMENT_3D ( 'NONE', #221, #153, #126 ) ;
#304 = ADVANCED_BREP_SHAPE_REPRESENTATION ( '03-3177', ( #373, #112, #131 ), #24 ) ;
#305 = FACE_OUTER_BOUND ( 'NONE', #57, .T. ) ;
#306 = ORIENTED_EDGE ( 'NONE', *, *, #175, .T. ) ;
#307 = APPROVAL ( #109, 'UNSPECIFIED' ) ;
#308 = CALENDAR_DATE ( 2023, 12, 7 ) ;
#309 = EDGE_CURVE ( 'NONE', #269, #314, #329, .T. ) ;
#310 = ADVANCED_FACE ( 'NONE', ( #74 ), #62, .T. ) ;
#311 = AXIS2_PLACEMENT_3D ( 'NONE', #382, #194, #4 ) ;
#312 = FACE_OUTER_BOUND ( 'NONE', #242, .T. ) ;
#313 = CARTESIAN_POINT ( 'NONE',  ( -49.00000000000000000, -4.700000000000006400, 5.939536975864664000E-016 ) ) ;
#314 = VERTEX_POINT ( 'NONE', #36 ) ;
#315 = DIRECTION ( 'NONE',  ( 0.0000000000000000000, 1.000000000000000000, 0.0000000000000000000 ) ) ;
#316 = PERSON_AND_ORGANIZATION ( #291, #401 ) ;
#317 = CIRCLE ( 'NONE', #271, 5.000000000000000000 ) ;
#318 = ADVANCED_FACE ( 'NONE', ( #113 ), #367, .T. ) ;
#319 = AXIS2_PLACEMENT_3D ( 'NONE', #66, #289, #97 ) ;
#320 = CARTESIAN_POINT ( 'NONE',  ( 0.9999999999999997800, 4.898587196589414800E-016, -4.000000000000000000 ) ) ;
#321 = CARTESIAN_POINT ( 'NONE',  ( -48.70000000000000300, 4.999999999999993800, 0.0000000000000000000 ) ) ;
#322 = CARTESIAN_POINT ( 'NONE',  ( -0.9999999999999954500, -4.999999999999999100, 0.0000000000000000000 ) ) ;
#323 = ORIENTED_EDGE ( 'NONE', *, *, #330, .F. ) ;
#324 = PLANE ( 'NONE',  #32 ) ;
#325 = VERTEX_POINT ( 'NONE', #132 ) ;
#326 = CC_DESIGN_APPROVAL ( #307, ( #281 ) ) ;
#327 = CARTESIAN_POINT ( 'NONE',  ( 0.9999999999999986700, 4.000000000000000000, 0.0000000000000000000 ) ) ;
#328 = DIRECTION ( 'NONE',  ( 0.0000000000000000000, 0.0000000000000000000, 1.000000000000000000 ) ) ;
#329 = LINE ( 'NONE', #321, #211 ) ;
#330 = EDGE_CURVE ( 'NONE', #295, #325, #152, .T. ) ;
#331 = APPLICATION_PROTOCOL_DEFINITION ( 'international standard', 'config_control_design', 1994, #362 ) ;
#332 = APPROVAL_ROLE ( '' ) ;
#333 = EDGE_LOOP ( 'NONE', ( #395, #306, #365, #87 ) ) ;
#334 = AXIS2_PLACEMENT_3D ( 'NONE', #266, #46, #208 ) ;
#335 = CIRCLE ( 'NONE', #79, 4.700000000000000200 ) ;
#336 = COORDINATED_UNIVERSAL_TIME_OFFSET ( 9, 0, .AHEAD. ) ;
#337 = AXIS2_PLACEMENT_3D ( 'NONE', #188, #185, #252 ) ;
#338 = EDGE_LOOP ( 'NONE', ( #154, #134, #21, #239 ) ) ;
#339 = EDGE_LOOP ( 'NONE', ( #385, #30, #144, #405 ) ) ;
#340 = VECTOR ( 'NONE', #73, 1000.000000000000000 ) ;
#341 = CC_DESIGN_PERSON_AND_ORGANIZATION_ASSIGNMENT ( #275, #140, ( #281 ) ) ;
#342 = CIRCLE ( 'NONE', #121, 4.000000000000000000 ) ;
#343 = LOCAL_TIME ( 16, 36, 33.00000000000000000, #18 ) ;
#344 = EDGE_CURVE ( 'NONE', #2, #119, #278, .T. ) ;
#345 = ADVANCED_FACE ( 'NONE', ( #350 ), #179, .T. ) ;
#346 = DIRECTION ( 'NONE',  ( -0.7071067811865464600, -0.7071067811865486800, 0.0000000000000000000 ) ) ;
#347 = VERTEX_POINT ( 'NONE', #327 ) ;
#348 = VERTEX_POINT ( 'NONE', #135 ) ;
#349 = DIRECTION ( 'NONE',  ( 1.000000000000000000, 1.193131631831312700E-016, -0.0000000000000000000 ) ) ;
#350 = FACE_OUTER_BOUND ( 'NONE', #270, .T. ) ;
#351 = AXIS2_PLACEMENT_3D ( 'NONE', #6, #230, #39 ) ;
#352 = CARTESIAN_POINT ( 'NONE',  ( 1.000000000000000000, 0.0000000000000000000, 0.0000000000000000000 ) ) ;
#353 = DIRECTION ( 'NONE',  ( 1.000000000000000000, 1.193131631831312700E-016, -0.0000000000000000000 ) ) ;
#354 = DIRECTION ( 'NONE',  ( -1.000000000000000000, -1.193131631831312700E-016, 0.0000000000000000000 ) ) ;
#355 = LINE ( 'NONE', #293, #16 ) ;
#356 = CARTESIAN_POINT ( 'NONE',  ( 0.9999999999999993300, 4.999999999999999100, 0.0000000000000000000 ) ) ;
#357 = CARTESIAN_POINT ( 'NONE',  ( -49.00000000000000000, -5.965658159156563700E-015, 0.0000000000000000000 ) ) ;
#358 = ORIENTED_EDGE ( 'NONE', *, *, #344, .F. ) ;
#359 = CARTESIAN_POINT ( 'NONE',  ( 0.9999999999999991100, 4.000000000000000000, 0.0000000000000000000 ) ) ;
#360 = DIRECTION ( 'NONE',  ( -1.000000000000000000, -1.193131631831312700E-016, 0.0000000000000000000 ) ) ;
#361 = APPROVAL_DATE_TIME ( #27, #307 ) ;
#362 = APPLICATION_CONTEXT ( 'configuration controlled 3d designs of mechanical parts and assemblies' ) ;
#363 = DIRECTION ( 'NONE',  ( -1.000000000000000000, 0.0000000000000000000, -0.0000000000000000000 ) ) ;
#364 = PERSON_AND_ORGANIZATION_ROLE ( 'design_supplier' ) ;
#365 = ORIENTED_EDGE ( 'NONE', *, *, #138, .T. ) ;
#366 = AXIS2_PLACEMENT_3D ( 'NONE', #257, #67, #290 ) ;
#367 = CYLINDRICAL_SURFACE ( 'NONE', #374, 4.999999999999999100 ) ;
#368 = VECTOR ( 'NONE', #129, 1000.000000000000000 ) ;
#369 = ORIENTED_EDGE ( 'NONE', *, *, #372, .T. ) ;
#370 = CC_DESIGN_PERSON_AND_ORGANIZATION_ASSIGNMENT ( #184, #364, ( #281 ) ) ;
#371 = APPROVAL_PERSON_ORGANIZATION ( #45, #307, #332 ) ;
#372 = EDGE_CURVE ( 'NONE', #52, #119, #122, .T. ) ;
#373 = MANIFOLD_SOLID_BREP ( 'È¸Àü3', #111 ) ;
#374 = AXIS2_PLACEMENT_3D ( 'NONE', #352, #259, #292 ) ;
#375 = LINE ( 'NONE', #288, #123 ) ;
#376 = ORIENTED_EDGE ( 'NONE', *, *, #309, .T. ) ;
#377 = COORDINATED_UNIVERSAL_TIME_OFFSET ( 9, 0, .AHEAD. ) ;
#378 = DIRECTION ( 'NONE',  ( 1.000000000000000000, 1.193131631831312700E-016, -0.0000000000000000000 ) ) ;
#379 = CARTESIAN_POINT ( 'NONE',  ( -4.357178373832331000E-017, 4.000000000000000000, 4.898587196589412800E-016 ) ) ;
#380 = AXIS2_PLACEMENT_3D ( 'NONE', #161, #383, #195 ) ;
#381 = CARTESIAN_POINT ( 'NONE',  ( 1.000000000000000400, 2.710505431213763600E-016, 0.0000000000000000000 ) ) ;
#382 = CARTESIAN_POINT ( 'NONE',  ( -48.70000000000000300, -5.929864210201623900E-015, 0.0000000000000000000 ) ) ;
#383 = DIRECTION ( 'NONE',  ( 1.000000000000000000, 1.193131631831312700E-016, -0.0000000000000000000 ) ) ;
#384 = FACE_OUTER_BOUND ( 'NONE', #400, .T. ) ;
#385 = ORIENTED_EDGE ( 'NONE', *, *, #47, .F. ) ;
#386 = LOCAL_TIME ( 16, 36, 33.00000000000000000, #58 ) ;
#387 = SECURITY_CLASSIFICATION ( '', '', #170 ) ;
#388 = PLANE ( 'NONE',  #50 ) ;
#389 = DIRECTION ( 'NONE',  ( 0.0000000000000000000, 1.000000000000000000, 0.0000000000000000000 ) ) ;
#390 = DIRECTION ( 'NONE',  ( -1.193131631831312700E-016, 1.000000000000000000, 0.0000000000000000000 ) ) ;
#391 = CARTESIAN_POINT ( 'NONE',  ( -48.70000000000000300, -5.929864210201623900E-015, 0.0000000000000000000 ) ) ;
#392 = EDGE_CURVE ( 'NONE', #314, #52, #23, .T. ) ;
#393 = CYLINDRICAL_SURFACE ( 'NONE', #334, 4.999999999999999100 ) ;
#394 = MECHANICAL_CONTEXT ( 'NONE', #362, 'mechanical' ) ;
#395 = ORIENTED_EDGE ( 'NONE', *, *, #410, .F. ) ;
#396 = PERSON_AND_ORGANIZATION_ROLE ( 'classification_officer' ) ;
#397 = VECTOR ( 'NONE', #180, 1000.000000000000000 ) ;
#398 = AXIS2_PLACEMENT_3D ( 'NONE', #233, #43, #262 ) ;
#399 = PRODUCT_DEFINITION_SHAPE ( 'NONE', 'NONE',  #173 ) ;
#400 = EDGE_LOOP ( 'NONE', ( #31, #120, #214, #95 ) ) ;
#401 = ORGANIZATION ( 'UNSPECIFIED', 'UNSPECIFIED', '' ) ;
#402 = FACE_OUTER_BOUND ( 'NONE', #41, .T. ) ;
#403 = ORIENTED_EDGE ( 'NONE', *, *, #285, .T. ) ;
#404 = ORIENTED_EDGE ( 'NONE', *, *, #204, .T. ) ;
#405 = ORIENTED_EDGE ( 'NONE', *, *, #151, .T. ) ;
#406 = DIRECTION ( 'NONE',  ( 1.000000000000000000, 1.193131631831312700E-016, -0.0000000000000000000 ) ) ;
#407 = CC_DESIGN_PERSON_AND_ORGANIZATION_ASSIGNMENT ( #106, #396, ( #387 ) ) ;
#408 = CARTESIAN_POINT ( 'NONE',  ( -49.00000000000000000, -5.965658159156563700E-015, 0.0000000000000000000 ) ) ;
#409 = LINE ( 'NONE', #166, #261 ) ;
#410 = EDGE_CURVE ( 'NONE', #325, #80, #272, .T. ) ;
#411 = APPROVAL_DATE_TIME ( #84, #42 ) ;
#412 = ADVANCED_FACE ( 'NONE', ( #172 ), #388, .T. ) ;
#413 = CARTESIAN_POINT ( 'NONE',  ( 0.9999999999999997800, 0.0000000000000000000, 0.0000000000000000000 ) ) ;
ENDSEC;
END-ISO-10303-21;
