ISO-10303-21;
HEADER;
FILE_DESCRIPTION (( 'STEP AP203' ),
    '1' );
FILE_NAME ('03-3178.STEP',
    '2023-07-12T07:36:50',
    ( 'USER' ),
    ( 'Hewlett-Packard Company' ),
    'SwSTEP 2.0',
    'SolidWorks 2014',
    '' );
FILE_SCHEMA (( 'CONFIG_CONTROL_DESIGN' ));
ENDSEC;

DATA;
#1 = MECHANICAL_CONTEXT ( 'NONE', #115, 'mechanical' ) ;
#2 = CONICAL_SURFACE ( 'NONE', #144, 5.000000000000000000, 0.7853981633974453900 ) ;
#3 = PERSON_AND_ORGANIZATION_ROLE ( 'classification_officer' ) ;
#4 = ORIENTED_EDGE ( 'NONE', *, *, #154, .F. ) ;
#5 = AXIS2_PLACEMENT_3D ( 'NONE', #169, #96, #276 ) ;
#6 = CALENDAR_DATE ( 2023, 12, 7 ) ;
#7 = PRODUCT_RELATED_PRODUCT_CATEGORY ( 'detail', '', ( #267 ) ) ;
#8 = ADVANCED_FACE ( 'NONE', ( #179 ), #224, .T. ) ;
#9 = CARTESIAN_POINT ( 'NONE',  ( 1.000000000000000000, 0.0000000000000000000, 0.0000000000000000000 ) ) ;
#10 = DIRECTION ( 'NONE',  ( -1.301042606982605300E-016, 1.000000000000000000, 0.0000000000000000000 ) ) ;
#11 = DIRECTION ( 'NONE',  ( 1.000000000000000000, 1.193131631831312700E-016, -0.0000000000000000000 ) ) ;
#12 = VECTOR ( 'NONE', #11, 1000.000000000000000 ) ;
#13 = ORIENTED_EDGE ( 'NONE', *, *, #69, .F. ) ;
#14 = CARTESIAN_POINT ( 'NONE',  ( 0.9999999999999993300, -8.405335433129956000E-032, 0.0000000000000000000 ) ) ;
#15 = DIRECTION ( 'NONE',  ( 0.0000000000000000000, 0.0000000000000000000, 1.000000000000000000 ) ) ;
#16 = CARTESIAN_POINT ( 'NONE',  ( 23.00000000000000000, 0.0000000000000000000, 0.0000000000000000000 ) ) ;
#17 = DATE_AND_TIME ( #75, #138 ) ;
#18 = CARTESIAN_POINT ( 'NONE',  ( -48.70000000000000300, -5.929864210201623900E-015, 0.0000000000000000000 ) ) ;
#19 = VERTEX_POINT ( 'NONE', #51 ) ;
#20 = CIRCLE ( 'NONE', #94, 5.000000000000004400 ) ;
#21 = ORIENTED_EDGE ( 'NONE', *, *, #203, .F. ) ;
#22 = AXIS2_PLACEMENT_3D ( 'NONE', #54, #120, #145 ) ;
#23 = APPROVAL_DATE_TIME ( #83, #76 ) ;
#24 = ORIENTED_EDGE ( 'NONE', *, *, #101, .T. ) ;
#25 = LINE ( 'NONE', #125, #12 ) ;
#26 = APPLICATION_CONTEXT ( 'configuration controlled 3d designs of mechanical parts and assemblies' ) ;
#27 = EDGE_LOOP ( 'NONE', ( #21, #250 ) ) ;
#28 = APPROVAL_STATUS ( 'not_yet_approved' ) ;
#29 = CARTESIAN_POINT ( 'NONE',  ( 0.9999999999999991100, 5.000000000000000000, 0.0000000000000000000 ) ) ;
#30 = APPROVAL_PERSON_ORGANIZATION ( #88, #76, #220 ) ;
#31 = DIRECTION ( 'NONE',  ( -1.193131631831312700E-016, 1.000000000000000000, 0.0000000000000000000 ) ) ;
#32 = AXIS2_PLACEMENT_3D ( 'NONE', #313, #294, #141 ) ;
#33 = CARTESIAN_POINT ( 'NONE',  ( -49.00000000000000000, -5.965658159156563700E-015, 0.0000000000000000000 ) ) ;
#34 = DIRECTION ( 'NONE',  ( 1.000000000000000000, 1.193131631831312700E-016, -0.0000000000000000000 ) ) ;
#35 = ADVANCED_FACE ( 'NONE', ( #243 ), #103, .T. ) ;
#36 = PLANE ( 'NONE',  #285 ) ;
#37 = ORIENTED_EDGE ( 'NONE', *, *, #240, .T. ) ;
#38 = DIRECTION ( 'NONE',  ( 0.0000000000000000000, 0.0000000000000000000, 1.000000000000000000 ) ) ;
#39 = AXIS2_PLACEMENT_3D ( 'NONE', #254, #97, #277 ) ;
#40 = DIRECTION ( 'NONE',  ( 0.0000000000000000000, 0.0000000000000000000, 1.000000000000000000 ) ) ;
#41 = DIRECTION ( 'NONE',  ( 1.000000000000000000, 1.193131631831312700E-016, -0.0000000000000000000 ) ) ;
#42 = EDGE_LOOP ( 'NONE', ( #239, #87 ) ) ;
#43 = FACE_OUTER_BOUND ( 'NONE', #247, .T. ) ;
#44 = CC_DESIGN_PERSON_AND_ORGANIZATION_ASSIGNMENT ( #156, #165, ( #267 ) ) ;
#45 = CALENDAR_DATE ( 2023, 12, 7 ) ;
#46 = ORIENTED_EDGE ( 'NONE', *, *, #101, .F. ) ;
#47 = APPROVAL_STATUS ( 'not_yet_approved' ) ;
#48 = CYLINDRICAL_SURFACE ( 'NONE', #268, 5.000000000000000000 ) ;
#49 = AXIS2_PLACEMENT_3D ( 'NONE', #230, #80, #258 ) ;
#50 = FACE_OUTER_BOUND ( 'NONE', #27, .T. ) ;
#51 = CARTESIAN_POINT ( 'NONE',  ( 0.9999999999999997800, 6.123233995736769200E-016, -5.000000000000000000 ) ) ;
#52 = ADVANCED_FACE ( 'NONE', ( #50 ), #225, .T. ) ;
#53 = DATE_AND_TIME ( #111, #184 ) ;
#54 = CARTESIAN_POINT ( 'NONE',  ( -48.70000000000000300, -5.929864210201623900E-015, 0.0000000000000000000 ) ) ;
#55 = VERTEX_POINT ( 'NONE', #199 ) ;
#56 = EDGE_CURVE ( 'NONE', #260, #196, #304, .T. ) ;
#57 = CARTESIAN_POINT ( 'NONE',  ( 23.00000000000000000, 0.0000000000000000000, 0.0000000000000000000 ) ) ;
#58 = ORIENTED_EDGE ( 'NONE', *, *, #134, .T. ) ;
#59 = CARTESIAN_POINT ( 'NONE',  ( 23.00000000000000000, 0.0000000000000000000, 0.0000000000000000000 ) ) ;
#60 = PRODUCT_DEFINITION ( 'UNKNOWN', '', #139, #66 ) ;
#61 = PERSON_AND_ORGANIZATION ( #242, #223 ) ;
#62 = FACE_OUTER_BOUND ( 'NONE', #214, .T. ) ;
#63 = CIRCLE ( 'NONE', #161, 4.700000000000000200 ) ;
#64 = ORIENTED_EDGE ( 'NONE', *, *, #218, .T. ) ;
#65 = AXIS2_PLACEMENT_3D ( 'NONE', #59, #232, #15 ) ;
#66 = DESIGN_CONTEXT ( 'detailed design', #26, 'design' ) ;
#67 = LOCAL_TIME ( 16, 36, 50.00000000000000000, #132 ) ;
#68 = EDGE_LOOP ( 'NONE', ( #64, #308, #90, #102 ) ) ;
#69 = EDGE_CURVE ( 'NONE', #160, #137, #168, .T. ) ;
#70 =( NAMED_UNIT ( * ) SI_UNIT ( $, .STERADIAN. ) SOLID_ANGLE_UNIT ( ) );
#71 = CIRCLE ( 'NONE', #49, 5.000000000000000000 ) ;
#72 = PERSON_AND_ORGANIZATION_ROLE ( 'creator' ) ;
#73 = ORIENTED_EDGE ( 'NONE', *, *, #164, .F. ) ;
#74 = DIRECTION ( 'NONE',  ( 1.000000000000000000, 1.193131631831312700E-016, -0.0000000000000000000 ) ) ;
#75 = CALENDAR_DATE ( 2023, 12, 7 ) ;
#76 = APPROVAL ( #47, 'UNSPECIFIED' ) ;
#77 = DIRECTION ( 'NONE',  ( 1.000000000000000000, 1.193131631831312700E-016, -0.0000000000000000000 ) ) ;
#78 = LINE ( 'NONE', #127, #204 ) ;
#79 = ORIENTED_EDGE ( 'NONE', *, *, #203, .T. ) ;
#80 = DIRECTION ( 'NONE',  ( -1.000000000000000000, -0.0000000000000000000, -0.0000000000000000000 ) ) ;
#81 = AXIS2_PLACEMENT_3D ( 'NONE', #123, #95, #147 ) ;
#82 = DIRECTION ( 'NONE',  ( 0.7071067811865493500, 0.7071067811865455700, 0.0000000000000000000 ) ) ;
#83 = DATE_AND_TIME ( #146, #216 ) ;
#84 = DIRECTION ( 'NONE',  ( 1.000000000000000000, 1.193131631831312700E-016, -0.0000000000000000000 ) ) ;
#85 = EDGE_CURVE ( 'NONE', #55, #163, #109, .T. ) ;
#86 = CIRCLE ( 'NONE', #65, 5.000000000000004400 ) ;
#87 = ORIENTED_EDGE ( 'NONE', *, *, #69, .T. ) ;
#88 = PERSON_AND_ORGANIZATION ( #242, #223 ) ;
#89 = CC_DESIGN_APPROVAL ( #76, ( #60 ) ) ;
#90 = ORIENTED_EDGE ( 'NONE', *, *, #166, .F. ) ;
#91 = APPLICATION_PROTOCOL_DEFINITION ( 'international standard', 'config_control_design', 1994, #115 ) ;
#92 = VERTEX_POINT ( 'NONE', #300 ) ;
#93 = APPROVAL_STATUS ( 'not_yet_approved' ) ;
#94 = AXIS2_PLACEMENT_3D ( 'NONE', #57, #177, #38 ) ;
#95 = DIRECTION ( 'NONE',  ( -1.000000000000000000, -0.0000000000000000000, -0.0000000000000000000 ) ) ;
#96 = DIRECTION ( 'NONE',  ( 1.000000000000000000, 1.193131631831312700E-016, -0.0000000000000000000 ) ) ;
#97 = DIRECTION ( 'NONE',  ( -1.000000000000000000, -0.0000000000000000000, -0.0000000000000000000 ) ) ;
#98 = CARTESIAN_POINT ( 'NONE',  ( 1.000000000000000000, 0.0000000000000000000, 0.0000000000000000000 ) ) ;
#99 = ADVANCED_FACE ( 'NONE', ( #43 ), #246, .T. ) ;
#100 = DIRECTION ( 'NONE',  ( 1.193131631831312700E-016, -1.000000000000000000, 0.0000000000000000000 ) ) ;
#101 = EDGE_CURVE ( 'NONE', #92, #19, #162, .T. ) ;
#102 = ORIENTED_EDGE ( 'NONE', *, *, #187, .F. ) ;
#103 = CYLINDRICAL_SURFACE ( 'NONE', #273, 5.000000000000000000 ) ;
#104 = CARTESIAN_POINT ( 'NONE',  ( 0.9999999999999986700, 5.000000000000000000, 0.0000000000000000000 ) ) ;
#105 = DIRECTION ( 'NONE',  ( 1.000000000000000000, 1.193131631831312700E-016, -0.0000000000000000000 ) ) ;
#106 = CC_DESIGN_PERSON_AND_ORGANIZATION_ASSIGNMENT ( #275, #72, ( #60 ) ) ;
#107 = LOCAL_TIME ( 16, 36, 50.00000000000000000, #174 ) ;
#108 = VERTEX_POINT ( 'NONE', #296 ) ;
#109 = CIRCLE ( 'NONE', #5, 5.000000000000000000 ) ;
#110 = AXIS2_PLACEMENT_3D ( 'NONE', #208, #180, #40 ) ;
#111 = CALENDAR_DATE ( 2023, 12, 7 ) ;
#112 = ADVANCED_BREP_SHAPE_REPRESENTATION ( '03-3178', ( #173, #291, #32 ), #215 ) ;
#113 = ORIENTED_EDGE ( 'NONE', *, *, #150, .T. ) ;
#114 = EDGE_CURVE ( 'NONE', #283, #19, #238, .T. ) ;
#115 = APPLICATION_CONTEXT ( 'configuration controlled 3d designs of mechanical parts and assemblies' ) ;
#116 = PERSON_AND_ORGANIZATION_ROLE ( 'creator' ) ;
#117 = VECTOR ( 'NONE', #249, 1000.000000000000000 ) ;
#118 = EDGE_LOOP ( 'NONE', ( #272, #233 ) ) ;
#119 =( LENGTH_UNIT ( ) NAMED_UNIT ( * ) SI_UNIT ( .MILLI., .METRE. ) );
#120 = DIRECTION ( 'NONE',  ( 1.000000000000000000, 1.193131631831312700E-016, -0.0000000000000000000 ) ) ;
#121 = CC_DESIGN_DATE_AND_TIME_ASSIGNMENT ( #17, #248, ( #60 ) ) ;
#122 = PERSON_AND_ORGANIZATION ( #242, #223 ) ;
#123 = CARTESIAN_POINT ( 'NONE',  ( 0.0000000000000000000, 0.0000000000000000000, 0.0000000000000000000 ) ) ;
#124 = ADVANCED_FACE ( 'NONE', ( #62 ), #151, .T. ) ;
#125 = CARTESIAN_POINT ( 'NONE',  ( 0.9999999999999993300, 5.000000000000000000, 0.0000000000000000000 ) ) ;
#126 = LINE ( 'NONE', #282, #193 ) ;
#127 = CARTESIAN_POINT ( 'NONE',  ( 1.000000000000000700, -5.000000000000000000, 6.123233995736766300E-016 ) ) ;
#128 = ORIENTED_EDGE ( 'NONE', *, *, #114, .F. ) ;
#129 = CARTESIAN_POINT ( 'NONE',  ( -48.70000000000000300, -5.929864210201623900E-015, 0.0000000000000000000 ) ) ;
#130 = AXIS2_PLACEMENT_3D ( 'NONE', #14, #149, #10 ) ;
#131 = DIRECTION ( 'NONE',  ( 1.000000000000000000, 0.0000000000000000000, 0.0000000000000000000 ) ) ;
#132 = COORDINATED_UNIVERSAL_TIME_OFFSET ( 9, 0, .AHEAD. ) ;
#133 = ORIENTED_EDGE ( 'NONE', *, *, #186, .F. ) ;
#134 = EDGE_CURVE ( 'NONE', #108, #283, #86, .T. ) ;
#135 = FACE_OUTER_BOUND ( 'NONE', #194, .T. ) ;
#136 = EDGE_CURVE ( 'NONE', #196, #163, #281, .T. ) ;
#137 = VERTEX_POINT ( 'NONE', #104 ) ;
#138 = LOCAL_TIME ( 16, 36, 50.00000000000000000, #210 ) ;
#139 = PRODUCT_DEFINITION_FORMATION_WITH_SPECIFIED_SOURCE ( 'ANY', '', #267, .NOT_KNOWN. ) ;
#140 = CIRCLE ( 'NONE', #130, 5.000000000000000000 ) ;
#141 = DIRECTION ( 'NONE',  ( 1.000000000000000000, 0.0000000000000000000, 0.0000000000000000000 ) ) ;
#142 = ORIENTED_EDGE ( 'NONE', *, *, #114, .T. ) ;
#143 = SECURITY_CLASSIFICATION_LEVEL ( 'unclassified' ) ;
#144 = AXIS2_PLACEMENT_3D ( 'NONE', #129, #302, #155 ) ;
#145 = DIRECTION ( 'NONE',  ( 0.0000000000000000000, 1.000000000000000000, 0.0000000000000000000 ) ) ;
#146 = CALENDAR_DATE ( 2023, 12, 7 ) ;
#147 = DIRECTION ( 'NONE',  ( 0.0000000000000000000, 0.0000000000000000000, 1.000000000000000000 ) ) ;
#148 = ADVANCED_FACE ( 'NONE', ( #287 ), #270, .T. ) ;
#149 = DIRECTION ( 'NONE',  ( 1.000000000000000000, 1.193131631831312700E-016, -0.0000000000000000000 ) ) ;
#150 = EDGE_CURVE ( 'NONE', #283, #108, #20, .T. ) ;
#151 = CYLINDRICAL_SURFACE ( 'NONE', #81, 5.000000000000002700 ) ;
#152 = CLOSED_SHELL ( 'NONE', ( #124, #148, #227, #278 ) ) ;
#153 = ORIENTED_EDGE ( 'NONE', *, *, #136, .F. ) ;
#154 = EDGE_CURVE ( 'NONE', #55, #160, #78, .T. ) ;
#155 = DIRECTION ( 'NONE',  ( 0.0000000000000000000, 1.000000000000000000, 0.0000000000000000000 ) ) ;
#156 = PERSON_AND_ORGANIZATION ( #242, #223 ) ;
#157 = CARTESIAN_POINT ( 'NONE',  ( 23.00000000000000000, 6.123233995736773200E-016, -5.000000000000005300 ) ) ;
#158 = CARTESIAN_POINT ( 'NONE',  ( 0.0000000000000000000, 0.0000000000000000000, 5.000000000000002700 ) ) ;
#159 = APPROVAL ( #93, 'UNSPECIFIED' ) ;
#160 = VERTEX_POINT ( 'NONE', #207 ) ;
#161 = AXIS2_PLACEMENT_3D ( 'NONE', #183, #41, #211 ) ;
#162 = CIRCLE ( 'NONE', #39, 5.000000000000000000 ) ;
#163 = VERTEX_POINT ( 'NONE', #231 ) ;
#164 = EDGE_CURVE ( 'NONE', #19, #92, #71, .T. ) ;
#165 = PERSON_AND_ORGANIZATION_ROLE ( 'design_owner' ) ;
#166 = EDGE_CURVE ( 'NONE', #137, #160, #140, .T. ) ;
#167 = DATE_TIME_ROLE ( 'classification_date' ) ;
#168 = CIRCLE ( 'NONE', #303, 5.000000000000000000 ) ;
#169 = CARTESIAN_POINT ( 'NONE',  ( -48.70000000000000300, -5.929864210201623900E-015, 0.0000000000000000000 ) ) ;
#170 = CC_DESIGN_APPROVAL ( #159, ( #139 ) ) ;
#171 = ADVANCED_FACE ( 'NONE', ( #135 ), #2, .T. ) ;
#172 = CARTESIAN_POINT ( 'NONE',  ( -49.00000000000000000, -5.965658159156563700E-015, 0.0000000000000000000 ) ) ;
#173 = MANIFOLD_SOLID_BREP ( 'È¸Àü3', #152 ) ;
#174 = COORDINATED_UNIVERSAL_TIME_OFFSET ( 9, 0, .AHEAD. ) ;
#175 = ORIENTED_EDGE ( 'NONE', *, *, #85, .T. ) ;
#176 = DIRECTION ( 'NONE',  ( 0.7071067811865496800, -0.7071067811865453500, 8.659560562354908200E-017 ) ) ;
#177 = DIRECTION ( 'NONE',  ( -1.000000000000000000, -0.0000000000000000000, -0.0000000000000000000 ) ) ;
#178 = FACE_OUTER_BOUND ( 'NONE', #118, .T. ) ;
#179 = FACE_OUTER_BOUND ( 'NONE', #42, .T. ) ;
#180 = DIRECTION ( 'NONE',  ( -1.000000000000000000, -0.0000000000000000000, -0.0000000000000000000 ) ) ;
#181 = AXIS2_PLACEMENT_3D ( 'NONE', #18, #105, #286 ) ;
#182 = DIRECTION ( 'NONE',  ( -1.301042606982605300E-016, 1.000000000000000000, 0.0000000000000000000 ) ) ;
#183 = CARTESIAN_POINT ( 'NONE',  ( -49.00000000000000000, -5.965658159156563700E-015, 0.0000000000000000000 ) ) ;
#184 = LOCAL_TIME ( 16, 36, 50.00000000000000000, #255 ) ;
#185 = EDGE_LOOP ( 'NONE', ( #24, #293 ) ) ;
#186 = EDGE_CURVE ( 'NONE', #260, #55, #126, .T. ) ;
#187 = EDGE_CURVE ( 'NONE', #163, #137, #25, .T. ) ;
#188 = LINE ( 'NONE', #158, #117 ) ;
#189 = ORIENTED_EDGE ( 'NONE', *, *, #85, .F. ) ;
#190 = APPROVAL_DATE_TIME ( #263, #159 ) ;
#191 = CC_DESIGN_PERSON_AND_ORGANIZATION_ASSIGNMENT ( #122, #116, ( #139 ) ) ;
#192 = APPLICATION_PROTOCOL_DEFINITION ( 'international standard', 'config_control_design', 1994, #26 ) ;
#193 = VECTOR ( 'NONE', #176, 1000.000000000000000 ) ;
#194 = EDGE_LOOP ( 'NONE', ( #79, #311, #299, #153 ) ) ;
#195 = APPROVAL_ROLE ( '' ) ;
#196 = VERTEX_POINT ( 'NONE', #202 ) ;
#197 = DIRECTION ( 'NONE',  ( 1.000000000000000000, 1.193131631831312700E-016, -0.0000000000000000000 ) ) ;
#198 = APPROVAL_PERSON_ORGANIZATION ( #269, #159, #271 ) ;
#199 = CARTESIAN_POINT ( 'NONE',  ( -48.70000000000000300, -5.000000000000006200, 6.123233995736770200E-016 ) ) ;
#200 = EDGE_LOOP ( 'NONE', ( #4, #175, #288, #13 ) ) ;
#201 = DIRECTION ( 'NONE',  ( 0.0000000000000000000, 1.000000000000000000, 0.0000000000000000000 ) ) ;
#202 = CARTESIAN_POINT ( 'NONE',  ( -49.00000000000000000, 4.699999999999994000, 0.0000000000000000000 ) ) ;
#203 = EDGE_CURVE ( 'NONE', #196, #260, #63, .T. ) ;
#204 = VECTOR ( 'NONE', #205, 1000.000000000000000 ) ;
#205 = DIRECTION ( 'NONE',  ( 1.000000000000000000, 1.193131631831312700E-016, -0.0000000000000000000 ) ) ;
#206 = ORIENTED_EDGE ( 'NONE', *, *, #136, .T. ) ;
#207 = CARTESIAN_POINT ( 'NONE',  ( 1.000000000000000000, -5.000000000000000000, 6.123233995736766300E-016 ) ) ;
#208 = CARTESIAN_POINT ( 'NONE',  ( 0.0000000000000000000, 0.0000000000000000000, 0.0000000000000000000 ) ) ;
#209 = DIRECTION ( 'NONE',  ( -1.301042606982605300E-016, 1.000000000000000000, 0.0000000000000000000 ) ) ;
#210 = COORDINATED_UNIVERSAL_TIME_OFFSET ( 9, 0, .AHEAD. ) ;
#211 = DIRECTION ( 'NONE',  ( 0.0000000000000000000, 1.000000000000000000, 0.0000000000000000000 ) ) ;
#212 = CC_DESIGN_PERSON_AND_ORGANIZATION_ASSIGNMENT ( #61, #295, ( #139 ) ) ;
#213 = VECTOR ( 'NONE', #82, 1000.000000000000100 ) ;
#214 = EDGE_LOOP ( 'NONE', ( #58, #142, #46, #219 ) ) ;
#215 =( GEOMETRIC_REPRESENTATION_CONTEXT ( 3 ) GLOBAL_UNCERTAINTY_ASSIGNED_CONTEXT ( ( #237 ) ) GLOBAL_UNIT_ASSIGNED_CONTEXT ( ( #119, #217, #70 ) ) REPRESENTATION_CONTEXT ( 'NONE', 'WORKASPACE' ) );
#216 = LOCAL_TIME ( 16, 36, 50.00000000000000000, #284 ) ;
#217 =( NAMED_UNIT ( * ) PLANE_ANGLE_UNIT ( ) SI_UNIT ( $, .RADIAN. ) );
#218 = EDGE_CURVE ( 'NONE', #163, #55, #259, .T. ) ;
#219 = ORIENTED_EDGE ( 'NONE', *, *, #240, .F. ) ;
#220 = APPROVAL_ROLE ( '' ) ;
#221 = AXIS2_PLACEMENT_3D ( 'NONE', #172, #34, #201 ) ;
#222 = DIRECTION ( 'NONE',  ( -1.000000000000000000, 0.0000000000000000000, -0.0000000000000000000 ) ) ;
#223 = ORGANIZATION ( 'UNSPECIFIED', 'UNSPECIFIED', '' ) ;
#224 = PLANE ( 'NONE',  #241 ) ;
#225 = PLANE ( 'NONE',  #289 ) ;
#226 = SECURITY_CLASSIFICATION ( '', '', #143 ) ;
#227 = ADVANCED_FACE ( 'NONE', ( #265 ), #229, .F. ) ;
#228 = ORIENTED_EDGE ( 'NONE', *, *, #56, .T. ) ;
#229 = PLANE ( 'NONE',  #235 ) ;
#230 = CARTESIAN_POINT ( 'NONE',  ( 0.9999999999999997800, 0.0000000000000000000, 0.0000000000000000000 ) ) ;
#231 = CARTESIAN_POINT ( 'NONE',  ( -48.70000000000000300, 4.999999999999993800, 0.0000000000000000000 ) ) ;
#232 = DIRECTION ( 'NONE',  ( -1.000000000000000000, -0.0000000000000000000, -0.0000000000000000000 ) ) ;
#233 = ORIENTED_EDGE ( 'NONE', *, *, #150, .F. ) ;
#234 = APPROVAL_DATE_TIME ( #298, #279 ) ;
#235 = AXIS2_PLACEMENT_3D ( 'NONE', #301, #131, #274 ) ;
#236 = CARTESIAN_POINT ( 'NONE',  ( 0.9999999999999993300, -8.405335433129956000E-032, 0.0000000000000000000 ) ) ;
#237 = UNCERTAINTY_MEASURE_WITH_UNIT (LENGTH_MEASURE( 1.000000000000000100E-005 ), #119, 'distance_accuracy_value', 'NONE');
#238 = LINE ( 'NONE', #251, #257 ) ;
#239 = ORIENTED_EDGE ( 'NONE', *, *, #166, .T. ) ;
#240 = EDGE_CURVE ( 'NONE', #108, #92, #188, .T. ) ;
#241 = AXIS2_PLACEMENT_3D ( 'NONE', #29, #197, #31 ) ;
#242 = PERSON ( 'UNSPECIFIED', 'UNSPECIFIED', 'UNSPECIFIED', ('UNSPECIFIED'), ('UNSPECIFIED'), ('UNSPECIFIED') ) ;
#243 = FACE_OUTER_BOUND ( 'NONE', #68, .T. ) ;
#244 = CC_DESIGN_PERSON_AND_ORGANIZATION_ASSIGNMENT ( #312, #3, ( #226 ) ) ;
#245 = APPROVAL_PERSON_ORGANIZATION ( #306, #279, #195 ) ;
#246 = CONICAL_SURFACE ( 'NONE', #22, 5.000000000000000000, 0.7853981633974453900 ) ;
#247 = EDGE_LOOP ( 'NONE', ( #133, #228, #206, #189 ) ) ;
#248 = DATE_TIME_ROLE ( 'creation_date' ) ;
#249 = DIRECTION ( 'NONE',  ( -1.000000000000000000, -0.0000000000000000000, -0.0000000000000000000 ) ) ;
#250 = ORIENTED_EDGE ( 'NONE', *, *, #56, .F. ) ;
#251 = CARTESIAN_POINT ( 'NONE',  ( 0.0000000000000000000, 6.123233995736770200E-016, -5.000000000000002700 ) ) ;
#252 = PRODUCT_DEFINITION_SHAPE ( 'NONE', 'NONE',  #60 ) ;
#253 = DIRECTION ( 'NONE',  ( -1.000000000000000000, -1.193131631831312700E-016, 0.0000000000000000000 ) ) ;
#254 = CARTESIAN_POINT ( 'NONE',  ( 0.9999999999999997800, 0.0000000000000000000, 0.0000000000000000000 ) ) ;
#255 = COORDINATED_UNIVERSAL_TIME_OFFSET ( 9, 0, .AHEAD. ) ;
#256 = ADVANCED_FACE ( 'NONE', ( #309 ), #48, .T. ) ;
#257 = VECTOR ( 'NONE', #297, 1000.000000000000000 ) ;
#258 = DIRECTION ( 'NONE',  ( 0.0000000000000000000, 0.0000000000000000000, 1.000000000000000000 ) ) ;
#259 = CIRCLE ( 'NONE', #181, 5.000000000000000000 ) ;
#260 = VERTEX_POINT ( 'NONE', #305 ) ;
#261 = CARTESIAN_POINT ( 'NONE',  ( -48.70000000000000300, 4.999999999999993800, 0.0000000000000000000 ) ) ;
#262 = DIRECTION ( 'NONE',  ( -1.301042606982605300E-016, 1.000000000000000000, 0.0000000000000000000 ) ) ;
#263 = DATE_AND_TIME ( #6, #67 ) ;
#264 = CC_DESIGN_DATE_AND_TIME_ASSIGNMENT ( #53, #167, ( #226 ) ) ;
#265 = FACE_OUTER_BOUND ( 'NONE', #185, .T. ) ;
#266 = EDGE_LOOP ( 'NONE', ( #128, #113, #37, #73 ) ) ;
#267 = PRODUCT ( '03-3178', '03-3178', '', ( #1 ) ) ;
#268 = AXIS2_PLACEMENT_3D ( 'NONE', #9, #77, #182 ) ;
#269 = PERSON_AND_ORGANIZATION ( #242, #223 ) ;
#270 = CYLINDRICAL_SURFACE ( 'NONE', #110, 5.000000000000002700 ) ;
#271 = APPROVAL_ROLE ( '' ) ;
#272 = ORIENTED_EDGE ( 'NONE', *, *, #134, .F. ) ;
#273 = AXIS2_PLACEMENT_3D ( 'NONE', #98, #74, #209 ) ;
#274 = DIRECTION ( 'NONE',  ( 0.0000000000000000000, 0.0000000000000000000, -1.000000000000000000 ) ) ;
#275 = PERSON_AND_ORGANIZATION ( #242, #223 ) ;
#276 = DIRECTION ( 'NONE',  ( 0.0000000000000000000, 1.000000000000000000, 0.0000000000000000000 ) ) ;
#277 = DIRECTION ( 'NONE',  ( 0.0000000000000000000, 0.0000000000000000000, 1.000000000000000000 ) ) ;
#278 = ADVANCED_FACE ( 'NONE', ( #178 ), #36, .F. ) ;
#279 = APPROVAL ( #28, 'UNSPECIFIED' ) ;
#280 = DIRECTION ( 'NONE',  ( -0.0000000000000000000, 0.0000000000000000000, 1.000000000000000000 ) ) ;
#281 = LINE ( 'NONE', #261, #213 ) ;
#282 = CARTESIAN_POINT ( 'NONE',  ( -48.70000000000000300, -5.000000000000006200, 6.123233995736766300E-016 ) ) ;
#283 = VERTEX_POINT ( 'NONE', #157 ) ;
#284 = COORDINATED_UNIVERSAL_TIME_OFFSET ( 9, 0, .AHEAD. ) ;
#285 = AXIS2_PLACEMENT_3D ( 'NONE', #16, #222, #280 ) ;
#286 = DIRECTION ( 'NONE',  ( 0.0000000000000000000, 1.000000000000000000, 0.0000000000000000000 ) ) ;
#287 = FACE_OUTER_BOUND ( 'NONE', #266, .T. ) ;
#288 = ORIENTED_EDGE ( 'NONE', *, *, #187, .T. ) ;
#289 = AXIS2_PLACEMENT_3D ( 'NONE', #33, #253, #100 ) ;
#290 = SHAPE_DEFINITION_REPRESENTATION ( #252, #112 ) ;
#291 = MANIFOLD_SOLID_BREP ( 'È¸Àü4', #310 ) ;
#292 = CC_DESIGN_APPROVAL ( #279, ( #226 ) ) ;
#293 = ORIENTED_EDGE ( 'NONE', *, *, #164, .T. ) ;
#294 = DIRECTION ( 'NONE',  ( 0.0000000000000000000, 0.0000000000000000000, 1.000000000000000000 ) ) ;
#295 = PERSON_AND_ORGANIZATION_ROLE ( 'design_supplier' ) ;
#296 = CARTESIAN_POINT ( 'NONE',  ( 23.00000000000000000, 0.0000000000000000000, 5.000000000000004400 ) ) ;
#297 = DIRECTION ( 'NONE',  ( -1.000000000000000000, -0.0000000000000000000, -0.0000000000000000000 ) ) ;
#298 = DATE_AND_TIME ( #45, #107 ) ;
#299 = ORIENTED_EDGE ( 'NONE', *, *, #218, .F. ) ;
#300 = CARTESIAN_POINT ( 'NONE',  ( 0.9999999999999997800, 0.0000000000000000000, 5.000000000000000000 ) ) ;
#301 = CARTESIAN_POINT ( 'NONE',  ( 1.000000000000000400, 2.168404344971010800E-016, 0.0000000000000000000 ) ) ;
#302 = DIRECTION ( 'NONE',  ( 1.000000000000000000, 1.193131631831312700E-016, -0.0000000000000000000 ) ) ;
#303 = AXIS2_PLACEMENT_3D ( 'NONE', #236, #84, #262 ) ;
#304 = CIRCLE ( 'NONE', #221, 4.700000000000000200 ) ;
#305 = CARTESIAN_POINT ( 'NONE',  ( -49.00000000000000000, -4.700000000000006400, 5.939536975864664000E-016 ) ) ;
#306 = PERSON_AND_ORGANIZATION ( #242, #223 ) ;
#307 = CC_DESIGN_SECURITY_CLASSIFICATION ( #226, ( #139 ) ) ;
#308 = ORIENTED_EDGE ( 'NONE', *, *, #154, .T. ) ;
#309 = FACE_OUTER_BOUND ( 'NONE', #200, .T. ) ;
#310 = CLOSED_SHELL ( 'NONE', ( #171, #35, #52, #8, #256, #99 ) ) ;
#311 = ORIENTED_EDGE ( 'NONE', *, *, #186, .T. ) ;
#312 = PERSON_AND_ORGANIZATION ( #242, #223 ) ;
#313 = CARTESIAN_POINT ( 'NONE',  ( 0.0000000000000000000, 0.0000000000000000000, 0.0000000000000000000 ) ) ;
ENDSEC;
END-ISO-10303-21;
