ISO-10303-21;
HEADER;
FILE_DESCRIPTION (( 'STEP AP203' ),
    '1' );
FILE_NAME ('03-3179.STEP',
    '2023-07-12T07:37:06',
    ( 'USER' ),
    ( 'Hewlett-Packard Company' ),
    'SwSTEP 2.0',
    'SolidWorks 2014',
    '' );
FILE_SCHEMA (( 'CONFIG_CONTROL_DESIGN' ));
ENDSEC;

DATA;
#1 = LOCAL_TIME ( 16, 37, 6.000000000000000000, #67 ) ;
#2 = CARTESIAN_POINT ( 'NONE',  ( 1.000000000000000700, -6.000000000000000000, 7.347880794884119700E-016 ) ) ;
#3 = ORIENTED_EDGE ( 'NONE', *, *, #238, .F. ) ;
#4 = CARTESIAN_POINT ( 'NONE',  ( 0.9999999999999988900, -1.223371926165146900E-031, 0.0000000000000000000 ) ) ;
#5 = DIRECTION ( 'NONE',  ( 1.000000000000000000, 1.220182124490173100E-016, -0.0000000000000000000 ) ) ;
#6 = CARTESIAN_POINT ( 'NONE',  ( -54.69999999999998900, -6.796414433410263400E-015, 0.0000000000000000000 ) ) ;
#7 = AXIS2_PLACEMENT_3D ( 'NONE', #167, #76, #236 ) ;
#8 = CIRCLE ( 'NONE', #39, 5.999999999999999100 ) ;
#9 = CARTESIAN_POINT ( 'NONE',  ( -54.69999999999998900, -6.796414433410263400E-015, 0.0000000000000000000 ) ) ;
#10 = ORIENTED_EDGE ( 'NONE', *, *, #136, .T. ) ;
#11 = CARTESIAN_POINT ( 'NONE',  ( 1.000000000000000400, 1.807003620809175600E-016, 0.0000000000000000000 ) ) ;
#12 = CARTESIAN_POINT ( 'NONE',  ( 0.9999999999999995600, -6.000000000000000000, 7.347880794884119700E-016 ) ) ;
#13 = APPROVAL_DATE_TIME ( #73, #141 ) ;
#14 = ORIENTED_EDGE ( 'NONE', *, *, #77, .F. ) ;
#15 = EDGE_CURVE ( 'NONE', #292, #287, #216, .T. ) ;
#16 = CIRCLE ( 'NONE', #25, 5.700000000000000200 ) ;
#17 = DIRECTION ( 'NONE',  ( 1.000000000000000000, 0.0000000000000000000, 0.0000000000000000000 ) ) ;
#18 = AXIS2_PLACEMENT_3D ( 'NONE', #177, #156, #17 ) ;
#19 = SECURITY_CLASSIFICATION_LEVEL ( 'unclassified' ) ;
#20 = APPROVAL_PERSON_ORGANIZATION ( #81, #141, #132 ) ;
#21 = MANIFOLD_SOLID_BREP ( 'È¸Àü3', #300 ) ;
#22 = EDGE_LOOP ( 'NONE', ( #183, #155, #3, #105 ) ) ;
#23 = ADVANCED_FACE ( 'NONE', ( #283 ), #209, .T. ) ;
#24 = LINE ( 'NONE', #213, #31 ) ;
#25 = AXIS2_PLACEMENT_3D ( 'NONE', #120, #293, #145 ) ;
#26 = COORDINATED_UNIVERSAL_TIME_OFFSET ( 9, 0, .AHEAD. ) ;
#27 = CARTESIAN_POINT ( 'NONE',  ( -54.69999999999998900, -6.000000000000006200, 7.347880794884118800E-016 ) ) ;
#28 = DIRECTION ( 'NONE',  ( 0.7071067811865506800, -0.7071067811865443500, 8.659560562354895900E-017 ) ) ;
#29 = DIRECTION ( 'NONE',  ( -1.084202172485504400E-016, 1.000000000000000000, 0.0000000000000000000 ) ) ;
#30 = EDGE_CURVE ( 'NONE', #109, #292, #277, .T. ) ;
#31 = VECTOR ( 'NONE', #286, 1000.000000000000000 ) ;
#32 = DIRECTION ( 'NONE',  ( 0.0000000000000000000, 1.000000000000000000, 0.0000000000000000000 ) ) ;
#33 = DIRECTION ( 'NONE',  ( -1.000000000000000000, -0.0000000000000000000, -0.0000000000000000000 ) ) ;
#34 = LOCAL_TIME ( 16, 37, 6.000000000000000000, #94 ) ;
#35 = DIRECTION ( 'NONE',  ( 1.000000000000000000, 0.0000000000000000000, 0.0000000000000000000 ) ) ;
#36 = CC_DESIGN_PERSON_AND_ORGANIZATION_ASSIGNMENT ( #285, #42, ( #282 ) ) ;
#37 = CARTESIAN_POINT ( 'NONE',  ( 33.00000000000000000, 0.0000000000000000000, 6.000000000000006200 ) ) ;
#38 = CIRCLE ( 'NONE', #188, 5.999999999999999100 ) ;
#39 = AXIS2_PLACEMENT_3D ( 'NONE', #6, #172, #32 ) ;
#40 = CARTESIAN_POINT ( 'NONE',  ( 0.9999999999999997800, 0.0000000000000000000, 0.0000000000000000000 ) ) ;
#41 = ORGANIZATION ( 'UNSPECIFIED', 'UNSPECIFIED', '' ) ;
#42 = PERSON_AND_ORGANIZATION_ROLE ( 'design_owner' ) ;
#43 = DATE_TIME_ROLE ( 'classification_date' ) ;
#44 = EDGE_LOOP ( 'NONE', ( #174, #10 ) ) ;
#45 = ORIENTED_EDGE ( 'NONE', *, *, #61, .F. ) ;
#46 = EDGE_CURVE ( 'NONE', #163, #287, #38, .T. ) ;
#47 = ADVANCED_FACE ( 'NONE', ( #92 ), #265, .T. ) ;
#48 = CONICAL_SURFACE ( 'NONE', #86, 5.999999999999999100, 0.7853981633974439500 ) ;
#49 = PRODUCT_DEFINITION ( 'UNKNOWN', '', #127, #93 ) ;
#50 = APPROVAL_DATE_TIME ( #111, #253 ) ;
#51 = CARTESIAN_POINT ( 'NONE',  ( -54.69999999999998900, -6.796414433410263400E-015, 0.0000000000000000000 ) ) ;
#52 = EDGE_LOOP ( 'NONE', ( #250, #208 ) ) ;
#53 = DIRECTION ( 'NONE',  ( 1.000000000000000000, 1.220182124490173100E-016, -0.0000000000000000000 ) ) ;
#54 = CARTESIAN_POINT ( 'NONE',  ( -54.69999999999998900, 5.999999999999992000, 0.0000000000000000000 ) ) ;
#55 = AXIS2_PLACEMENT_3D ( 'NONE', #240, #101, #264 ) ;
#56 = CARTESIAN_POINT ( 'NONE',  ( 0.0000000000000000000, 7.347880794884123700E-016, -6.000000000000003600 ) ) ;
#57 = FACE_OUTER_BOUND ( 'NONE', #68, .T. ) ;
#58 = DIRECTION ( 'NONE',  ( 0.0000000000000000000, 1.000000000000000000, 0.0000000000000000000 ) ) ;
#59 = APPROVAL_PERSON_ORGANIZATION ( #117, #253, #66 ) ;
#60 = ORIENTED_EDGE ( 'NONE', *, *, #15, .F. ) ;
#61 = EDGE_CURVE ( 'NONE', #109, #163, #24, .T. ) ;
#62 = DIRECTION ( 'NONE',  ( 0.0000000000000000000, 0.0000000000000000000, 1.000000000000000000 ) ) ;
#63 = CIRCLE ( 'NONE', #181, 6.000000000000006200 ) ;
#64 = APPLICATION_PROTOCOL_DEFINITION ( 'international standard', 'config_control_design', 1994, #204 ) ;
#65 = APPROVAL ( #229, 'UNSPECIFIED' ) ;
#66 = APPROVAL_ROLE ( '' ) ;
#67 = COORDINATED_UNIVERSAL_TIME_OFFSET ( 9, 0, .AHEAD. ) ;
#68 = EDGE_LOOP ( 'NONE', ( #60, #218, #97, #186 ) ) ;
#69 = ADVANCED_FACE ( 'NONE', ( #85 ), #261, .T. ) ;
#70 = VECTOR ( 'NONE', #53, 1000.000000000000000 ) ;
#71 = AXIS2_PLACEMENT_3D ( 'NONE', #263, #5, #239 ) ;
#72 = DIRECTION ( 'NONE',  ( 0.0000000000000000000, 1.000000000000000000, 0.0000000000000000000 ) ) ;
#73 = DATE_AND_TIME ( #133, #198 ) ;
#74 = ORIENTED_EDGE ( 'NONE', *, *, #30, .F. ) ;
#75 = DIRECTION ( 'NONE',  ( 0.0000000000000000000, 1.000000000000000000, 0.0000000000000000000 ) ) ;
#76 = DIRECTION ( 'NONE',  ( 1.000000000000000000, 1.220182124490173100E-016, -0.0000000000000000000 ) ) ;
#77 = EDGE_CURVE ( 'NONE', #287, #309, #137, .T. ) ;
#78 = DIRECTION ( 'NONE',  ( -1.000000000000000000, -0.0000000000000000000, -0.0000000000000000000 ) ) ;
#79 = FACE_OUTER_BOUND ( 'NONE', #44, .T. ) ;
#80 = ORIENTED_EDGE ( 'NONE', *, *, #46, .T. ) ;
#81 = PERSON_AND_ORGANIZATION ( #161, #41 ) ;
#82 = CC_DESIGN_APPROVAL ( #65, ( #49 ) ) ;
#83 =( LENGTH_UNIT ( ) NAMED_UNIT ( * ) SI_UNIT ( .MILLI., .METRE. ) );
#84 = ORIENTED_EDGE ( 'NONE', *, *, #136, .F. ) ;
#85 = FACE_OUTER_BOUND ( 'NONE', #230, .T. ) ;
#86 = AXIS2_PLACEMENT_3D ( 'NONE', #9, #269, #195 ) ;
#87 =( NAMED_UNIT ( * ) PLANE_ANGLE_UNIT ( ) SI_UNIT ( $, .RADIAN. ) );
#88 = APPROVAL_ROLE ( '' ) ;
#89 = PERSON_AND_ORGANIZATION ( #161, #41 ) ;
#90 = ADVANCED_FACE ( 'NONE', ( #79 ), #214, .T. ) ;
#91 = EDGE_CURVE ( 'NONE', #142, #309, #257, .T. ) ;
#92 = FACE_OUTER_BOUND ( 'NONE', #119, .T. ) ;
#93 = DESIGN_CONTEXT ( 'detailed design', #204, 'design' ) ;
#94 = COORDINATED_UNIVERSAL_TIME_OFFSET ( 9, 0, .AHEAD. ) ;
#95 = CARTESIAN_POINT ( 'NONE',  ( -54.99999999999999300, -6.833019897144968800E-015, 0.0000000000000000000 ) ) ;
#96 = CC_DESIGN_PERSON_AND_ORGANIZATION_ASSIGNMENT ( #89, #251, ( #49 ) ) ;
#97 = ORIENTED_EDGE ( 'NONE', *, *, #61, .T. ) ;
#98 = DIRECTION ( 'NONE',  ( 1.000000000000000000, 1.220182124490173100E-016, -0.0000000000000000000 ) ) ;
#99 = CARTESIAN_POINT ( 'NONE',  ( 0.9999999999999997800, 0.0000000000000000000, 6.000000000000000000 ) ) ;
#100 = VERTEX_POINT ( 'NONE', #99 ) ;
#101 = DIRECTION ( 'NONE',  ( 1.000000000000000000, 1.220182124490173100E-016, -0.0000000000000000000 ) ) ;
#102 = DIRECTION ( 'NONE',  ( -1.000000000000000000, -0.0000000000000000000, -0.0000000000000000000 ) ) ;
#103 = SHAPE_DEFINITION_REPRESENTATION ( #267, #160 ) ;
#104 = DIRECTION ( 'NONE',  ( -1.000000000000000000, -0.0000000000000000000, -0.0000000000000000000 ) ) ;
#105 = ORIENTED_EDGE ( 'NONE', *, *, #171, .F. ) ;
#106 = EDGE_CURVE ( 'NONE', #163, #142, #130, .T. ) ;
#107 = CIRCLE ( 'NONE', #149, 6.000000000000000000 ) ;
#108 = DATE_TIME_ROLE ( 'creation_date' ) ;
#109 = VERTEX_POINT ( 'NONE', #144 ) ;
#110 = CC_DESIGN_DATE_AND_TIME_ASSIGNMENT ( #139, #108, ( #49 ) ) ;
#111 = DATE_AND_TIME ( #178, #235 ) ;
#112 = ORIENTED_EDGE ( 'NONE', *, *, #154, .T. ) ;
#113 = CONICAL_SURFACE ( 'NONE', #210, 5.999999999999999100, 0.7853981633974439500 ) ;
#114 = AXIS2_PLACEMENT_3D ( 'NONE', #147, #78, #122 ) ;
#115 = FACE_OUTER_BOUND ( 'NONE', #52, .T. ) ;
#116 = DIRECTION ( 'NONE',  ( -1.084202172485504400E-016, 1.000000000000000000, 0.0000000000000000000 ) ) ;
#117 = PERSON_AND_ORGANIZATION ( #161, #41 ) ;
#118 = CARTESIAN_POINT ( 'NONE',  ( -54.99999999999999300, -6.833019897144967200E-015, 0.0000000000000000000 ) ) ;
#119 = EDGE_LOOP ( 'NONE', ( #14, #112, #138, #84 ) ) ;
#120 = CARTESIAN_POINT ( 'NONE',  ( -54.99999999999999300, -6.833019897144968800E-015, 0.0000000000000000000 ) ) ;
#121 = EDGE_CURVE ( 'NONE', #292, #109, #16, .T. ) ;
#122 = DIRECTION ( 'NONE',  ( 0.0000000000000000000, 0.0000000000000000000, 1.000000000000000000 ) ) ;
#123 = CARTESIAN_POINT ( 'NONE',  ( 33.00000000000000000, 0.0000000000000000000, 0.0000000000000000000 ) ) ;
#124 = CYLINDRICAL_SURFACE ( 'NONE', #71, 6.000000000000000000 ) ;
#125 = DIRECTION ( 'NONE',  ( -1.000000000000000000, -0.0000000000000000000, -0.0000000000000000000 ) ) ;
#126 = CARTESIAN_POINT ( 'NONE',  ( 33.00000000000000000, 0.0000000000000000000, 0.0000000000000000000 ) ) ;
#127 = PRODUCT_DEFINITION_FORMATION_WITH_SPECIFIED_SOURCE ( 'ANY', '', #282, .NOT_KNOWN. ) ;
#128 = PERSON_AND_ORGANIZATION ( #161, #41 ) ;
#129 = VERTEX_POINT ( 'NONE', #262 ) ;
#130 = LINE ( 'NONE', #290, #70 ) ;
#131 = AXIS2_PLACEMENT_3D ( 'NONE', #123, #295, #148 ) ;
#132 = APPROVAL_ROLE ( '' ) ;
#133 = CALENDAR_DATE ( 2023, 12, 7 ) ;
#134 = ORIENTED_EDGE ( 'NONE', *, *, #238, .T. ) ;
#135 = ADVANCED_FACE ( 'NONE', ( #146 ), #124, .T. ) ;
#136 = EDGE_CURVE ( 'NONE', #309, #142, #189, .T. ) ;
#137 = LINE ( 'NONE', #2, #201 ) ;
#138 = ORIENTED_EDGE ( 'NONE', *, *, #106, .T. ) ;
#139 = DATE_AND_TIME ( #205, #271 ) ;
#140 = DIRECTION ( 'NONE',  ( 0.0000000000000000000, 0.0000000000000000000, 1.000000000000000000 ) ) ;
#141 = APPROVAL ( #280, 'UNSPECIFIED' ) ;
#142 = VERTEX_POINT ( 'NONE', #217 ) ;
#143 = DIRECTION ( 'NONE',  ( 1.220182124490173100E-016, -1.000000000000000000, 0.0000000000000000000 ) ) ;
#144 = CARTESIAN_POINT ( 'NONE',  ( -54.99999999999999300, 5.699999999999993100, 0.0000000000000000000 ) ) ;
#145 = DIRECTION ( 'NONE',  ( 0.0000000000000000000, 1.000000000000000000, 0.0000000000000000000 ) ) ;
#146 = FACE_OUTER_BOUND ( 'NONE', #273, .T. ) ;
#147 = CARTESIAN_POINT ( 'NONE',  ( 0.0000000000000000000, 0.0000000000000000000, 0.0000000000000000000 ) ) ;
#148 = DIRECTION ( 'NONE',  ( -0.0000000000000000000, 0.0000000000000000000, 1.000000000000000000 ) ) ;
#149 = AXIS2_PLACEMENT_3D ( 'NONE', #270, #125, #296 ) ;
#150 = PLANE ( 'NONE',  #196 ) ;
#151 = APPROVAL_DATE_TIME ( #211, #65 ) ;
#152 = DIRECTION ( 'NONE',  ( 0.0000000000000000000, 0.0000000000000000000, 1.000000000000000000 ) ) ;
#153 = VECTOR ( 'NONE', #28, 1000.000000000000000 ) ;
#154 = EDGE_CURVE ( 'NONE', #287, #163, #8, .T. ) ;
#155 = ORIENTED_EDGE ( 'NONE', *, *, #255, .T. ) ;
#156 = DIRECTION ( 'NONE',  ( 0.0000000000000000000, 0.0000000000000000000, 1.000000000000000000 ) ) ;
#157 = APPROVAL_PERSON_ORGANIZATION ( #222, #65, #88 ) ;
#158 = PERSON_AND_ORGANIZATION_ROLE ( 'design_supplier' ) ;
#159 = CC_DESIGN_APPROVAL ( #141, ( #127 ) ) ;
#160 = ADVANCED_BREP_SHAPE_REPRESENTATION ( '03-3179', ( #21, #212, #18 ), #258 ) ;
#161 = PERSON ( 'UNSPECIFIED', 'UNSPECIFIED', 'UNSPECIFIED', ('UNSPECIFIED'), ('UNSPECIFIED'), ('UNSPECIFIED') ) ;
#162 = ADVANCED_FACE ( 'NONE', ( #248 ), #180, .T. ) ;
#163 = VERTEX_POINT ( 'NONE', #54 ) ;
#164 = ORIENTED_EDGE ( 'NONE', *, *, #30, .T. ) ;
#165 = CIRCLE ( 'NONE', #243, 6.000000000000000000 ) ;
#166 = CARTESIAN_POINT ( 'NONE',  ( 0.0000000000000000000, 0.0000000000000000000, 0.0000000000000000000 ) ) ;
#167 = CARTESIAN_POINT ( 'NONE',  ( 0.9999999999999986700, 6.000000000000000000, 0.0000000000000000000 ) ) ;
#168 = DIRECTION ( 'NONE',  ( 1.000000000000000000, 1.220182124490173100E-016, -0.0000000000000000000 ) ) ;
#169 = DIRECTION ( 'NONE',  ( 1.000000000000000000, 1.220182124490173100E-016, -0.0000000000000000000 ) ) ;
#170 = ORIENTED_EDGE ( 'NONE', *, *, #91, .F. ) ;
#171 = EDGE_CURVE ( 'NONE', #308, #100, #242, .T. ) ;
#172 = DIRECTION ( 'NONE',  ( 1.000000000000000000, 1.220182124490173100E-016, -0.0000000000000000000 ) ) ;
#173 = LINE ( 'NONE', #56, #194 ) ;
#174 = ORIENTED_EDGE ( 'NONE', *, *, #91, .T. ) ;
#175 = CARTESIAN_POINT ( 'NONE',  ( -54.69999999999998900, -6.000000000000006200, 7.347880794884122700E-016 ) ) ;
#176 = CC_DESIGN_PERSON_AND_ORGANIZATION_ASSIGNMENT ( #252, #304, ( #127 ) ) ;
#177 = CARTESIAN_POINT ( 'NONE',  ( 0.0000000000000000000, 0.0000000000000000000, 0.0000000000000000000 ) ) ;
#178 = CALENDAR_DATE ( 2023, 12, 7 ) ;
#179 = ORIENTED_EDGE ( 'NONE', *, *, #121, .F. ) ;
#180 = CYLINDRICAL_SURFACE ( 'NONE', #114, 6.000000000000003600 ) ;
#181 = AXIS2_PLACEMENT_3D ( 'NONE', #126, #298, #152 ) ;
#182 = MECHANICAL_CONTEXT ( 'NONE', #302, 'mechanical' ) ;
#183 = ORIENTED_EDGE ( 'NONE', *, *, #276, .T. ) ;
#184 = PERSON_AND_ORGANIZATION_ROLE ( 'classification_officer' ) ;
#185 = DATE_AND_TIME ( #246, #1 ) ;
#186 = ORIENTED_EDGE ( 'NONE', *, *, #154, .F. ) ;
#187 = ADVANCED_FACE ( 'NONE', ( #115 ), #241, .F. ) ;
#188 = AXIS2_PLACEMENT_3D ( 'NONE', #51, #193, #75 ) ;
#189 = CIRCLE ( 'NONE', #55, 6.000000000000000000 ) ;
#190 = PERSON_AND_ORGANIZATION ( #161, #41 ) ;
#191 = CC_DESIGN_PERSON_AND_ORGANIZATION_ASSIGNMENT ( #190, #158, ( #127 ) ) ;
#192 = ORIENTED_EDGE ( 'NONE', *, *, #77, .T. ) ;
#193 = DIRECTION ( 'NONE',  ( 1.000000000000000000, 1.220182124490173100E-016, -0.0000000000000000000 ) ) ;
#194 = VECTOR ( 'NONE', #33, 1000.000000000000000 ) ;
#195 = DIRECTION ( 'NONE',  ( 0.0000000000000000000, 1.000000000000000000, 0.0000000000000000000 ) ) ;
#196 = AXIS2_PLACEMENT_3D ( 'NONE', #11, #35, #197 ) ;
#197 = DIRECTION ( 'NONE',  ( 0.0000000000000000000, 0.0000000000000000000, -1.000000000000000000 ) ) ;
#198 = LOCAL_TIME ( 16, 37, 6.000000000000000000, #259 ) ;
#199 = EDGE_LOOP ( 'NONE', ( #164, #224, #247, #45 ) ) ;
#200 = AXIS2_PLACEMENT_3D ( 'NONE', #95, #233, #72 ) ;
#201 = VECTOR ( 'NONE', #98, 1000.000000000000000 ) ;
#202 = DIRECTION ( 'NONE',  ( -1.000000000000000000, -0.0000000000000000000, -0.0000000000000000000 ) ) ;
#203 = ORIENTED_EDGE ( 'NONE', *, *, #255, .F. ) ;
#204 = APPLICATION_CONTEXT ( 'configuration controlled 3d designs of mechanical parts and assemblies' ) ;
#205 = CALENDAR_DATE ( 2023, 12, 7 ) ;
#206 = APPROVAL_STATUS ( 'not_yet_approved' ) ;
#207 = SECURITY_CLASSIFICATION ( '', '', #19 ) ;
#208 = ORIENTED_EDGE ( 'NONE', *, *, #291, .F. ) ;
#209 = CYLINDRICAL_SURFACE ( 'NONE', #219, 6.000000000000003600 ) ;
#210 = AXIS2_PLACEMENT_3D ( 'NONE', #223, #244, #58 ) ;
#211 = DATE_AND_TIME ( #279, #34 ) ;
#212 = MANIFOLD_SOLID_BREP ( 'È¸Àü4', #227 ) ;
#213 = CARTESIAN_POINT ( 'NONE',  ( -54.69999999999998900, 5.999999999999992000, 0.0000000000000000000 ) ) ;
#214 = PLANE ( 'NONE',  #7 ) ;
#215 = CARTESIAN_POINT ( 'NONE',  ( 1.000000000000000000, 0.0000000000000000000, 0.0000000000000000000 ) ) ;
#216 = LINE ( 'NONE', #27, #153 ) ;
#217 = CARTESIAN_POINT ( 'NONE',  ( 0.9999999999999983300, 6.000000000000000000, 0.0000000000000000000 ) ) ;
#218 = ORIENTED_EDGE ( 'NONE', *, *, #121, .T. ) ;
#219 = AXIS2_PLACEMENT_3D ( 'NONE', #166, #313, #140 ) ;
#220 = CARTESIAN_POINT ( 'NONE',  ( 0.0000000000000000000, 0.0000000000000000000, 6.000000000000003600 ) ) ;
#221 = CARTESIAN_POINT ( 'NONE',  ( 33.00000000000000000, 7.347880794884125700E-016, -6.000000000000006200 ) ) ;
#222 = PERSON_AND_ORGANIZATION ( #161, #41 ) ;
#223 = CARTESIAN_POINT ( 'NONE',  ( -54.69999999999998900, -6.796414433410263400E-015, 0.0000000000000000000 ) ) ;
#224 = ORIENTED_EDGE ( 'NONE', *, *, #15, .T. ) ;
#225 = CARTESIAN_POINT ( 'NONE',  ( -54.99999999999999300, -5.700000000000007300, 7.164183775012017400E-016 ) ) ;
#226 = CC_DESIGN_PERSON_AND_ORGANIZATION_ASSIGNMENT ( #128, #184, ( #207 ) ) ;
#227 = CLOSED_SHELL ( 'NONE', ( #231, #135, #69, #90, #47, #281 ) ) ;
#228 = AXIS2_PLACEMENT_3D ( 'NONE', #245, #104, #274 ) ;
#229 = APPROVAL_STATUS ( 'not_yet_approved' ) ;
#230 = EDGE_LOOP ( 'NONE', ( #74, #179 ) ) ;
#231 = ADVANCED_FACE ( 'NONE', ( #303 ), #48, .T. ) ;
#232 = FACE_OUTER_BOUND ( 'NONE', #305, .T. ) ;
#233 = DIRECTION ( 'NONE',  ( 1.000000000000000000, 1.220182124490173100E-016, -0.0000000000000000000 ) ) ;
#234 = CC_DESIGN_DATE_AND_TIME_ASSIGNMENT ( #185, #43, ( #207 ) ) ;
#235 = LOCAL_TIME ( 16, 37, 6.000000000000000000, #306 ) ;
#236 = DIRECTION ( 'NONE',  ( -1.220182124490173100E-016, 1.000000000000000000, 0.0000000000000000000 ) ) ;
#237 = ORIENTED_EDGE ( 'NONE', *, *, #311, .T. ) ;
#238 = EDGE_CURVE ( 'NONE', #100, #129, #107, .T. ) ;
#239 = DIRECTION ( 'NONE',  ( -1.084202172485504400E-016, 1.000000000000000000, 0.0000000000000000000 ) ) ;
#240 = CARTESIAN_POINT ( 'NONE',  ( 0.9999999999999988900, -1.223371926165146900E-031, 0.0000000000000000000 ) ) ;
#241 = PLANE ( 'NONE',  #131 ) ;
#242 = LINE ( 'NONE', #220, #312 ) ;
#243 = AXIS2_PLACEMENT_3D ( 'NONE', #40, #202, #62 ) ;
#244 = DIRECTION ( 'NONE',  ( 1.000000000000000000, 1.220182124490173100E-016, -0.0000000000000000000 ) ) ;
#245 = CARTESIAN_POINT ( 'NONE',  ( 33.00000000000000000, 0.0000000000000000000, 0.0000000000000000000 ) ) ;
#246 = CALENDAR_DATE ( 2023, 12, 7 ) ;
#247 = ORIENTED_EDGE ( 'NONE', *, *, #46, .F. ) ;
#248 = FACE_OUTER_BOUND ( 'NONE', #22, .T. ) ;
#249 =( NAMED_UNIT ( * ) SI_UNIT ( $, .STERADIAN. ) SOLID_ANGLE_UNIT ( ) );
#250 = ORIENTED_EDGE ( 'NONE', *, *, #276, .F. ) ;
#251 = PERSON_AND_ORGANIZATION_ROLE ( 'creator' ) ;
#252 = PERSON_AND_ORGANIZATION ( #161, #41 ) ;
#253 = APPROVAL ( #206, 'UNSPECIFIED' ) ;
#254 = ORIENTED_EDGE ( 'NONE', *, *, #291, .T. ) ;
#255 = EDGE_CURVE ( 'NONE', #268, #129, #173, .T. ) ;
#256 = ADVANCED_FACE ( 'NONE', ( #232 ), #150, .F. ) ;
#257 = CIRCLE ( 'NONE', #301, 6.000000000000000000 ) ;
#258 =( GEOMETRIC_REPRESENTATION_CONTEXT ( 3 ) GLOBAL_UNCERTAINTY_ASSIGNED_CONTEXT ( ( #272 ) ) GLOBAL_UNIT_ASSIGNED_CONTEXT ( ( #83, #87, #249 ) ) REPRESENTATION_CONTEXT ( 'NONE', 'WORKASPACE' ) );
#259 = COORDINATED_UNIVERSAL_TIME_OFFSET ( 9, 0, .AHEAD. ) ;
#260 = EDGE_LOOP ( 'NONE', ( #203, #254, #299, #294 ) ) ;
#261 = PLANE ( 'NONE',  #284 ) ;
#262 = CARTESIAN_POINT ( 'NONE',  ( 0.9999999999999997800, 7.347880794884120700E-016, -6.000000000000000000 ) ) ;
#263 = CARTESIAN_POINT ( 'NONE',  ( 1.000000000000000000, 0.0000000000000000000, 0.0000000000000000000 ) ) ;
#264 = DIRECTION ( 'NONE',  ( -1.084202172485504400E-016, 1.000000000000000000, 0.0000000000000000000 ) ) ;
#265 = CYLINDRICAL_SURFACE ( 'NONE', #266, 6.000000000000000000 ) ;
#266 = AXIS2_PLACEMENT_3D ( 'NONE', #215, #168, #116 ) ;
#267 = PRODUCT_DEFINITION_SHAPE ( 'NONE', 'NONE',  #49 ) ;
#268 = VERTEX_POINT ( 'NONE', #221 ) ;
#269 = DIRECTION ( 'NONE',  ( 1.000000000000000000, 1.220182124490173100E-016, -0.0000000000000000000 ) ) ;
#270 = CARTESIAN_POINT ( 'NONE',  ( 0.9999999999999997800, 0.0000000000000000000, 0.0000000000000000000 ) ) ;
#271 = LOCAL_TIME ( 16, 37, 6.000000000000000000, #26 ) ;
#272 = UNCERTAINTY_MEASURE_WITH_UNIT (LENGTH_MEASURE( 1.000000000000000100E-005 ), #83, 'distance_accuracy_value', 'NONE');
#273 = EDGE_LOOP ( 'NONE', ( #80, #192, #170, #310 ) ) ;
#274 = DIRECTION ( 'NONE',  ( 0.0000000000000000000, 0.0000000000000000000, 1.000000000000000000 ) ) ;
#275 = CC_DESIGN_APPROVAL ( #253, ( #207 ) ) ;
#276 = EDGE_CURVE ( 'NONE', #308, #268, #63, .T. ) ;
#277 = CIRCLE ( 'NONE', #200, 5.700000000000000200 ) ;
#278 = APPLICATION_PROTOCOL_DEFINITION ( 'international standard', 'config_control_design', 1994, #302 ) ;
#279 = CALENDAR_DATE ( 2023, 12, 7 ) ;
#280 = APPROVAL_STATUS ( 'not_yet_approved' ) ;
#281 = ADVANCED_FACE ( 'NONE', ( #57 ), #113, .T. ) ;
#282 = PRODUCT ( '03-3179', '03-3179', '', ( #182 ) ) ;
#283 = FACE_OUTER_BOUND ( 'NONE', #260, .T. ) ;
#284 = AXIS2_PLACEMENT_3D ( 'NONE', #118, #289, #143 ) ;
#285 = PERSON_AND_ORGANIZATION ( #161, #41 ) ;
#286 = DIRECTION ( 'NONE',  ( 0.7071067811865504600, 0.7071067811865445800, 0.0000000000000000000 ) ) ;
#287 = VERTEX_POINT ( 'NONE', #175 ) ;
#288 = CC_DESIGN_SECURITY_CLASSIFICATION ( #207, ( #127 ) ) ;
#289 = DIRECTION ( 'NONE',  ( -1.000000000000000000, -1.220182124490173100E-016, 0.0000000000000000000 ) ) ;
#290 = CARTESIAN_POINT ( 'NONE',  ( 0.9999999999999993300, 6.000000000000000000, 0.0000000000000000000 ) ) ;
#291 = EDGE_CURVE ( 'NONE', #268, #308, #297, .T. ) ;
#292 = VERTEX_POINT ( 'NONE', #225 ) ;
#293 = DIRECTION ( 'NONE',  ( 1.000000000000000000, 1.220182124490173100E-016, -0.0000000000000000000 ) ) ;
#294 = ORIENTED_EDGE ( 'NONE', *, *, #311, .F. ) ;
#295 = DIRECTION ( 'NONE',  ( -1.000000000000000000, 0.0000000000000000000, -0.0000000000000000000 ) ) ;
#296 = DIRECTION ( 'NONE',  ( 0.0000000000000000000, 0.0000000000000000000, 1.000000000000000000 ) ) ;
#297 = CIRCLE ( 'NONE', #228, 6.000000000000006200 ) ;
#298 = DIRECTION ( 'NONE',  ( -1.000000000000000000, -0.0000000000000000000, -0.0000000000000000000 ) ) ;
#299 = ORIENTED_EDGE ( 'NONE', *, *, #171, .T. ) ;
#300 = CLOSED_SHELL ( 'NONE', ( #162, #23, #256, #187 ) ) ;
#301 = AXIS2_PLACEMENT_3D ( 'NONE', #4, #169, #29 ) ;
#302 = APPLICATION_CONTEXT ( 'configuration controlled 3d designs of mechanical parts and assemblies' ) ;
#303 = FACE_OUTER_BOUND ( 'NONE', #199, .T. ) ;
#304 = PERSON_AND_ORGANIZATION_ROLE ( 'creator' ) ;
#305 = EDGE_LOOP ( 'NONE', ( #134, #237 ) ) ;
#306 = COORDINATED_UNIVERSAL_TIME_OFFSET ( 9, 0, .AHEAD. ) ;
#307 = PRODUCT_RELATED_PRODUCT_CATEGORY ( 'detail', '', ( #282 ) ) ;
#308 = VERTEX_POINT ( 'NONE', #37 ) ;
#309 = VERTEX_POINT ( 'NONE', #12 ) ;
#310 = ORIENTED_EDGE ( 'NONE', *, *, #106, .F. ) ;
#311 = EDGE_CURVE ( 'NONE', #129, #100, #165, .T. ) ;
#312 = VECTOR ( 'NONE', #102, 1000.000000000000000 ) ;
#313 = DIRECTION ( 'NONE',  ( -1.000000000000000000, -0.0000000000000000000, -0.0000000000000000000 ) ) ;
ENDSEC;
END-ISO-10303-21;
