ISO-10303-21;
HEADER;
FILE_DESCRIPTION (( 'STEP AP203' ),
    '1' );
FILE_NAME ('03-3180.STEP',
    '2023-07-12T07:37:21',
    ( 'USER' ),
    ( 'Hewlett-Packard Company' ),
    'SwSTEP 2.0',
    'SolidWorks 2014',
    '' );
FILE_SCHEMA (( 'CONFIG_CONTROL_DESIGN' ));
ENDSEC;

DATA;
#1 = ORIENTED_EDGE ( 'NONE', *, *, #50, .T. ) ;
#2 = LINE ( 'NONE', #90, #51 ) ;
#3 = AXIS2_PLACEMENT_3D ( 'NONE', #153, #5, #180 ) ;
#4 = COORDINATED_UNIVERSAL_TIME_OFFSET ( 9, 0, .AHEAD. ) ;
#5 = DIRECTION ( 'NONE',  ( -1.000000000000000000, -0.0000000000000000000, -0.0000000000000000000 ) ) ;
#6 = DIRECTION ( 'NONE',  ( 1.000000000000000000, 1.211116794356528300E-016, -0.0000000000000000000 ) ) ;
#7 = ORIENTED_EDGE ( 'NONE', *, *, #105, .F. ) ;
#8 = DIRECTION ( 'NONE',  ( 1.000000000000000000, 1.211116794356528300E-016, -0.0000000000000000000 ) ) ;
#9 = AXIS2_PLACEMENT_3D ( 'NONE', #155, #6, #182 ) ;
#10 = CIRCLE ( 'NONE', #3, 8.000000000000007100 ) ;
#11 = CARTESIAN_POINT ( 'NONE',  ( -58.70000000000001000, -7.230367262308474900E-015, 0.0000000000000000000 ) ) ;
#12 = AXIS2_PLACEMENT_3D ( 'NONE', #58, #228, #86 ) ;
#13 = PLANE ( 'NONE',  #207 ) ;
#14 = EDGE_LOOP ( 'NONE', ( #283, #107 ) ) ;
#15 = PERSON_AND_ORGANIZATION_ROLE ( 'design_owner' ) ;
#16 = AXIS2_PLACEMENT_3D ( 'NONE', #192, #310, #288 ) ;
#17 = DATE_TIME_ROLE ( 'classification_date' ) ;
#18 = ORIENTED_EDGE ( 'NONE', *, *, #50, .F. ) ;
#19 = CIRCLE ( 'NONE', #28, 8.000000000000007100 ) ;
#20 = ORIENTED_EDGE ( 'NONE', *, *, #103, .F. ) ;
#21 = VERTEX_POINT ( 'NONE', #214 ) ;
#22 = AXIS2_PLACEMENT_3D ( 'NONE', #84, #247, #111 ) ;
#23 = ORIENTED_EDGE ( 'NONE', *, *, #47, .T. ) ;
#24 = DATE_AND_TIME ( #100, #157 ) ;
#25 = LINE ( 'NONE', #217, #274 ) ;
#26 = AXIS2_PLACEMENT_3D ( 'NONE', #297, #34, #270 ) ;
#27 = CLOSED_SHELL ( 'NONE', ( #246, #149, #178, #198, #52, #82 ) ) ;
#28 = AXIS2_PLACEMENT_3D ( 'NONE', #31, #201, #56 ) ;
#29 = ADVANCED_FACE ( 'NONE', ( #101 ), #148, .T. ) ;
#30 = CONICAL_SURFACE ( 'NONE', #222, 8.000000000000000000, 0.7853981633974453900 ) ;
#31 = CARTESIAN_POINT ( 'NONE',  ( 41.00000000000000000, 0.0000000000000000000, 0.0000000000000000000 ) ) ;
#32 = CARTESIAN_POINT ( 'NONE',  ( -58.70000000000001000, -8.000000000000007100, 9.797174393178825700E-016 ) ) ;
#33 = EDGE_CURVE ( 'NONE', #202, #304, #25, .T. ) ;
#34 = DIRECTION ( 'NONE',  ( 1.000000000000000000, 1.211116794356528300E-016, -0.0000000000000000000 ) ) ;
#35 = PERSON_AND_ORGANIZATION ( #262, #104 ) ;
#36 = ORIENTED_EDGE ( 'NONE', *, *, #120, .F. ) ;
#37 = DIRECTION ( 'NONE',  ( 0.0000000000000000000, 1.000000000000000000, 0.0000000000000000000 ) ) ;
#38 = DIRECTION ( 'NONE',  ( -1.000000000000000000, -0.0000000000000000000, -0.0000000000000000000 ) ) ;
#39 = FACE_OUTER_BOUND ( 'NONE', #14, .T. ) ;
#40 = EDGE_CURVE ( 'NONE', #304, #147, #159, .T. ) ;
#41 = APPLICATION_PROTOCOL_DEFINITION ( 'international standard', 'config_control_design', 1994, #190 ) ;
#42 = PERSON_AND_ORGANIZATION ( #262, #104 ) ;
#43 = APPROVAL_ROLE ( '' ) ;
#44 = ORIENTED_EDGE ( 'NONE', *, *, #83, .F. ) ;
#45 = PRODUCT ( '03-3180', '03-3180', '', ( #166 ) ) ;
#46 = AXIS2_PLACEMENT_3D ( 'NONE', #272, #134, #299 ) ;
#47 = EDGE_CURVE ( 'NONE', #21, #147, #91, .T. ) ;
#48 = CALENDAR_DATE ( 2023, 12, 7 ) ;
#49 = ORIENTED_EDGE ( 'NONE', *, *, #88, .T. ) ;
#50 = EDGE_CURVE ( 'NONE', #202, #21, #19, .T. ) ;
#51 = VECTOR ( 'NONE', #158, 1000.000000000000000 ) ;
#52 = ADVANCED_FACE ( 'NONE', ( #205 ), #263, .T. ) ;
#53 = AXIS2_PLACEMENT_3D ( 'NONE', #282, #143, #307 ) ;
#54 = CARTESIAN_POINT ( 'NONE',  ( 0.0000000000000000000, 9.797174393178831600E-016, -8.000000000000003600 ) ) ;
#55 = EDGE_CURVE ( 'NONE', #21, #202, #10, .T. ) ;
#56 = DIRECTION ( 'NONE',  ( 0.0000000000000000000, 0.0000000000000000000, 1.000000000000000000 ) ) ;
#57 = DATE_AND_TIME ( #131, #189 ) ;
#58 = CARTESIAN_POINT ( 'NONE',  ( 0.9999999999999997800, 0.0000000000000000000, 0.0000000000000000000 ) ) ;
#59 = AXIS2_PLACEMENT_3D ( 'NONE', #252, #115, #275 ) ;
#60 = DIRECTION ( 'NONE',  ( 1.000000000000000000, 1.211116794356528300E-016, -0.0000000000000000000 ) ) ;
#61 = CIRCLE ( 'NONE', #46, 8.000000000000000000 ) ;
#62 = PLANE ( 'NONE',  #177 ) ;
#63 = EDGE_CURVE ( 'NONE', #147, #304, #216, .T. ) ;
#64 = DIRECTION ( 'NONE',  ( 0.0000000000000000000, 0.0000000000000000000, 1.000000000000000000 ) ) ;
#65 = DIRECTION ( 'NONE',  ( 1.000000000000000000, 0.0000000000000000000, 0.0000000000000000000 ) ) ;
#66 = ORIENTED_EDGE ( 'NONE', *, *, #130, .F. ) ;
#67 =( NAMED_UNIT ( * ) SI_UNIT ( $, .STERADIAN. ) SOLID_ANGLE_UNIT ( ) );
#68 = APPROVAL_DATE_TIME ( #133, #109 ) ;
#69 = ORIENTED_EDGE ( 'NONE', *, *, #55, .F. ) ;
#70 = DESIGN_CONTEXT ( 'detailed design', #190, 'design' ) ;
#71 = APPROVAL_ROLE ( '' ) ;
#72 = EDGE_CURVE ( 'NONE', #312, #248, #146, .T. ) ;
#73 = ORIENTED_EDGE ( 'NONE', *, *, #120, .T. ) ;
#74 = LINE ( 'NONE', #89, #194 ) ;
#75 = CC_DESIGN_PERSON_AND_ORGANIZATION_ASSIGNMENT ( #200, #15, ( #45 ) ) ;
#76 = EDGE_CURVE ( 'NONE', #79, #312, #197, .T. ) ;
#77 = APPROVAL_PERSON_ORGANIZATION ( #142, #109, #71 ) ;
#78 = ORIENTED_EDGE ( 'NONE', *, *, #126, .T. ) ;
#79 = VERTEX_POINT ( 'NONE', #227 ) ;
#80 = FACE_OUTER_BOUND ( 'NONE', #287, .T. ) ;
#81 = AXIS2_PLACEMENT_3D ( 'NONE', #206, #60, #231 ) ;
#82 = ADVANCED_FACE ( 'NONE', ( #80 ), #311, .T. ) ;
#83 = EDGE_CURVE ( 'NONE', #242, #248, #61, .T. ) ;
#84 = CARTESIAN_POINT ( 'NONE',  ( 0.9999999999999997800, 0.0000000000000000000, 0.0000000000000000000 ) ) ;
#85 = ORIENTED_EDGE ( 'NONE', *, *, #95, .T. ) ;
#86 = DIRECTION ( 'NONE',  ( 0.0000000000000000000, 0.0000000000000000000, 1.000000000000000000 ) ) ;
#87 = EDGE_LOOP ( 'NONE', ( #291, #36 ) ) ;
#88 = EDGE_CURVE ( 'NONE', #79, #242, #74, .T. ) ;
#89 = CARTESIAN_POINT ( 'NONE',  ( -58.70000000000001000, 7.999999999999992900, 0.0000000000000000000 ) ) ;
#90 = CARTESIAN_POINT ( 'NONE',  ( 0.9999999999999991100, 8.000000000000000000, 0.0000000000000000000 ) ) ;
#91 = LINE ( 'NONE', #54, #266 ) ;
#92 = DIRECTION ( 'NONE',  ( -1.000000000000000000, -1.211116794356528300E-016, 0.0000000000000000000 ) ) ;
#93 = CARTESIAN_POINT ( 'NONE',  ( -59.00000000000001400, -7.266700766139170600E-015, 0.0000000000000000000 ) ) ;
#94 = PRODUCT_DEFINITION ( 'UNKNOWN', '', #172, #70 ) ;
#95 = EDGE_CURVE ( 'NONE', #248, #113, #132, .T. ) ;
#96 = APPLICATION_PROTOCOL_DEFINITION ( 'international standard', 'config_control_design', 1994, #123 ) ;
#97 = DATE_TIME_ROLE ( 'creation_date' ) ;
#98 = EDGE_LOOP ( 'NONE', ( #1, #23, #176, #179 ) ) ;
#99 = CC_DESIGN_PERSON_AND_ORGANIZATION_ASSIGNMENT ( #112, #144, ( #172 ) ) ;
#100 = CALENDAR_DATE ( 2023, 12, 7 ) ;
#101 = FACE_OUTER_BOUND ( 'NONE', #238, .T. ) ;
#102 = AXIS2_PLACEMENT_3D ( 'NONE', #117, #276, #137 ) ;
#103 = EDGE_CURVE ( 'NONE', #264, #113, #254, .T. ) ;
#104 = ORGANIZATION ( 'UNSPECIFIED', 'UNSPECIFIED', '' ) ;
#105 = EDGE_CURVE ( 'NONE', #242, #264, #2, .T. ) ;
#106 = DATE_AND_TIME ( #168, #229 ) ;
#107 = ORIENTED_EDGE ( 'NONE', *, *, #63, .T. ) ;
#108 = FACE_OUTER_BOUND ( 'NONE', #98, .T. ) ;
#109 = APPROVAL ( #213, 'UNSPECIFIED' ) ;
#110 = CC_DESIGN_PERSON_AND_ORGANIZATION_ASSIGNMENT ( #42, #167, ( #156 ) ) ;
#111 = DIRECTION ( 'NONE',  ( 0.0000000000000000000, 0.0000000000000000000, 1.000000000000000000 ) ) ;
#112 = PERSON_AND_ORGANIZATION ( #262, #104 ) ;
#113 = VERTEX_POINT ( 'NONE', #160 ) ;
#114 = DIRECTION ( 'NONE',  ( 0.7071067811865493500, 0.7071067811865455700, 0.0000000000000000000 ) ) ;
#115 = DIRECTION ( 'NONE',  ( 1.000000000000000000, 1.211116794356528300E-016, -0.0000000000000000000 ) ) ;
#116 = AXIS2_PLACEMENT_3D ( 'NONE', #11, #183, #37 ) ;
#117 = CARTESIAN_POINT ( 'NONE',  ( 0.9999999999999986700, -1.452747807492109100E-031, 0.0000000000000000000 ) ) ;
#118 = ADVANCED_BREP_SHAPE_REPRESENTATION ( '03-3180', ( #277, #170, #53 ), #289 ) ;
#119 = FACE_OUTER_BOUND ( 'NONE', #298, .T. ) ;
#120 = EDGE_CURVE ( 'NONE', #312, #79, #127, .T. ) ;
#121 = DIRECTION ( 'NONE',  ( 1.000000000000000000, 1.211116794356528300E-016, -0.0000000000000000000 ) ) ;
#122 = CARTESIAN_POINT ( 'NONE',  ( 41.00000000000000000, 0.0000000000000000000, 0.0000000000000000000 ) ) ;
#123 = APPLICATION_CONTEXT ( 'configuration controlled 3d designs of mechanical parts and assemblies' ) ;
#124 = LOCAL_TIME ( 16, 37, 21.00000000000000000, #181 ) ;
#125 = APPROVAL_ROLE ( '' ) ;
#126 = EDGE_CURVE ( 'NONE', #113, #264, #184, .T. ) ;
#127 = CIRCLE ( 'NONE', #81, 7.700000000000000200 ) ;
#128 = CC_DESIGN_APPROVAL ( #109, ( #94 ) ) ;
#129 = CC_DESIGN_DATE_AND_TIME_ASSIGNMENT ( #106, #17, ( #156 ) ) ;
#130 = EDGE_CURVE ( 'NONE', #248, #242, #241, .T. ) ;
#131 = CALENDAR_DATE ( 2023, 12, 7 ) ;
#132 = LINE ( 'NONE', #250, #245 ) ;
#133 = DATE_AND_TIME ( #195, #258 ) ;
#134 = DIRECTION ( 'NONE',  ( 1.000000000000000000, 1.211116794356528300E-016, -0.0000000000000000000 ) ) ;
#135 = ORIENTED_EDGE ( 'NONE', *, *, #83, .T. ) ;
#136 = VECTOR ( 'NONE', #203, 1000.000000000000000 ) ;
#137 = DIRECTION ( 'NONE',  ( -1.084202172485504400E-016, 1.000000000000000000, 0.0000000000000000000 ) ) ;
#138 = CC_DESIGN_PERSON_AND_ORGANIZATION_ASSIGNMENT ( #313, #236, ( #94 ) ) ;
#139 = DIRECTION ( 'NONE',  ( 0.0000000000000000000, 1.000000000000000000, 0.0000000000000000000 ) ) ;
#140 = APPROVAL ( #191, 'UNSPECIFIED' ) ;
#141 = DIRECTION ( 'NONE',  ( -0.0000000000000000000, 0.0000000000000000000, 1.000000000000000000 ) ) ;
#142 = PERSON_AND_ORGANIZATION ( #262, #104 ) ;
#143 = DIRECTION ( 'NONE',  ( 0.0000000000000000000, 0.0000000000000000000, 1.000000000000000000 ) ) ;
#144 = PERSON_AND_ORGANIZATION_ROLE ( 'design_supplier' ) ;
#145 = ORIENTED_EDGE ( 'NONE', *, *, #63, .F. ) ;
#146 = LINE ( 'NONE', #32, #136 ) ;
#147 = VERTEX_POINT ( 'NONE', #253 ) ;
#148 = CYLINDRICAL_SURFACE ( 'NONE', #16, 8.000000000000003600 ) ;
#149 = ADVANCED_FACE ( 'NONE', ( #119 ), #233, .T. ) ;
#150 = CC_DESIGN_DATE_AND_TIME_ASSIGNMENT ( #57, #97, ( #94 ) ) ;
#151 = CC_DESIGN_APPROVAL ( #140, ( #156 ) ) ;
#152 = DIRECTION ( 'NONE',  ( 1.000000000000000000, 1.211116794356528300E-016, -0.0000000000000000000 ) ) ;
#153 = CARTESIAN_POINT ( 'NONE',  ( 41.00000000000000000, 0.0000000000000000000, 0.0000000000000000000 ) ) ;
#154 = EDGE_LOOP ( 'NONE', ( #169, #215, #193, #293 ) ) ;
#155 = CARTESIAN_POINT ( 'NONE',  ( -59.00000000000001400, -7.266700766139172100E-015, 0.0000000000000000000 ) ) ;
#156 = SECURITY_CLASSIFICATION ( '', '', #309 ) ;
#157 = LOCAL_TIME ( 16, 37, 21.00000000000000000, #220 ) ;
#158 = DIRECTION ( 'NONE',  ( 1.000000000000000000, 1.211116794356528300E-016, -0.0000000000000000000 ) ) ;
#159 = CIRCLE ( 'NONE', #22, 8.000000000000000000 ) ;
#160 = CARTESIAN_POINT ( 'NONE',  ( 0.9999999999999995600, -8.000000000000000000, 9.797174393178825700E-016 ) ) ;
#161 = AXIS2_PLACEMENT_3D ( 'NONE', #300, #208, #162 ) ;
#162 = DIRECTION ( 'NONE',  ( -1.084202172485504400E-016, 1.000000000000000000, 0.0000000000000000000 ) ) ;
#163 = FACE_OUTER_BOUND ( 'NONE', #204, .T. ) ;
#164 = CARTESIAN_POINT ( 'NONE',  ( -58.70000000000001000, -8.000000000000007100, 9.797174393178829600E-016 ) ) ;
#165 = CARTESIAN_POINT ( 'NONE',  ( -59.00000000000001400, -7.700000000000007300, 9.613477373306723300E-016 ) ) ;
#166 = MECHANICAL_CONTEXT ( 'NONE', #123, 'mechanical' ) ;
#167 = PERSON_AND_ORGANIZATION_ROLE ( 'classification_officer' ) ;
#168 = CALENDAR_DATE ( 2023, 12, 7 ) ;
#169 = ORIENTED_EDGE ( 'NONE', *, *, #95, .F. ) ;
#170 = MANIFOLD_SOLID_BREP ( 'È¸Àü4', #27 ) ;
#171 = FACE_OUTER_BOUND ( 'NONE', #259, .T. ) ;
#172 = PRODUCT_DEFINITION_FORMATION_WITH_SPECIFIED_SOURCE ( 'ANY', '', #45, .NOT_KNOWN. ) ;
#173 = CC_DESIGN_SECURITY_CLASSIFICATION ( #156, ( #172 ) ) ;
#174 = ORIENTED_EDGE ( 'NONE', *, *, #88, .F. ) ;
#175 = PERSON_AND_ORGANIZATION ( #262, #104 ) ;
#176 = ORIENTED_EDGE ( 'NONE', *, *, #40, .F. ) ;
#177 = AXIS2_PLACEMENT_3D ( 'NONE', #93, #92, #278 ) ;
#178 = ADVANCED_FACE ( 'NONE', ( #301 ), #62, .T. ) ;
#179 = ORIENTED_EDGE ( 'NONE', *, *, #33, .F. ) ;
#180 = DIRECTION ( 'NONE',  ( 0.0000000000000000000, 0.0000000000000000000, 1.000000000000000000 ) ) ;
#181 = COORDINATED_UNIVERSAL_TIME_OFFSET ( 9, 0, .AHEAD. ) ;
#182 = DIRECTION ( 'NONE',  ( 0.0000000000000000000, 1.000000000000000000, 0.0000000000000000000 ) ) ;
#183 = DIRECTION ( 'NONE',  ( 1.000000000000000000, 1.211116794356528300E-016, -0.0000000000000000000 ) ) ;
#184 = CIRCLE ( 'NONE', #102, 8.000000000000000000 ) ;
#185 = DIRECTION ( 'NONE',  ( -1.211116794356528300E-016, 1.000000000000000000, 0.0000000000000000000 ) ) ;
#186 = APPROVAL ( #260, 'UNSPECIFIED' ) ;
#187 = CARTESIAN_POINT ( 'NONE',  ( 0.9999999999999978900, 8.000000000000000000, 0.0000000000000000000 ) ) ;
#188 = PRODUCT_RELATED_PRODUCT_CATEGORY ( 'detail', '', ( #45 ) ) ;
#189 = LOCAL_TIME ( 16, 37, 21.00000000000000000, #249 ) ;
#190 = APPLICATION_CONTEXT ( 'configuration controlled 3d designs of mechanical parts and assemblies' ) ;
#191 = APPROVAL_STATUS ( 'not_yet_approved' ) ;
#192 = CARTESIAN_POINT ( 'NONE',  ( 0.0000000000000000000, 0.0000000000000000000, 0.0000000000000000000 ) ) ;
#193 = ORIENTED_EDGE ( 'NONE', *, *, #105, .T. ) ;
#194 = VECTOR ( 'NONE', #114, 1000.000000000000100 ) ;
#195 = CALENDAR_DATE ( 2023, 12, 7 ) ;
#196 = ORIENTED_EDGE ( 'NONE', *, *, #47, .F. ) ;
#197 = CIRCLE ( 'NONE', #9, 7.700000000000000200 ) ;
#198 = ADVANCED_FACE ( 'NONE', ( #171 ), #13, .T. ) ;
#199 = CC_DESIGN_APPROVAL ( #186, ( #172 ) ) ;
#200 = PERSON_AND_ORGANIZATION ( #262, #104 ) ;
#201 = DIRECTION ( 'NONE',  ( -1.000000000000000000, -0.0000000000000000000, -0.0000000000000000000 ) ) ;
#202 = VERTEX_POINT ( 'NONE', #255 ) ;
#203 = DIRECTION ( 'NONE',  ( 0.7071067811865496800, -0.7071067811865453500, 8.659560562354908200E-017 ) ) ;
#204 = EDGE_LOOP ( 'NONE', ( #18, #69 ) ) ;
#205 = FACE_OUTER_BOUND ( 'NONE', #154, .T. ) ;
#206 = CARTESIAN_POINT ( 'NONE',  ( -59.00000000000001400, -7.266700766139172100E-015, 0.0000000000000000000 ) ) ;
#207 = AXIS2_PLACEMENT_3D ( 'NONE', #303, #232, #185 ) ;
#208 = DIRECTION ( 'NONE',  ( 1.000000000000000000, 1.211116794356528300E-016, -0.0000000000000000000 ) ) ;
#209 = CARTESIAN_POINT ( 'NONE',  ( -58.70000000000001000, -7.230367262308474900E-015, 0.0000000000000000000 ) ) ;
#210 = PLANE ( 'NONE',  #268 ) ;
#211 = ORIENTED_EDGE ( 'NONE', *, *, #55, .T. ) ;
#212 =( NAMED_UNIT ( * ) PLANE_ANGLE_UNIT ( ) SI_UNIT ( $, .RADIAN. ) );
#213 = APPROVAL_STATUS ( 'not_yet_approved' ) ;
#214 = CARTESIAN_POINT ( 'NONE',  ( 41.00000000000000000, 9.797174393178835500E-016, -8.000000000000007100 ) ) ;
#215 = ORIENTED_EDGE ( 'NONE', *, *, #130, .T. ) ;
#216 = CIRCLE ( 'NONE', #12, 8.000000000000000000 ) ;
#217 = CARTESIAN_POINT ( 'NONE',  ( 0.0000000000000000000, 0.0000000000000000000, 8.000000000000003600 ) ) ;
#218 = CC_DESIGN_PERSON_AND_ORGANIZATION_ASSIGNMENT ( #175, #285, ( #172 ) ) ;
#219 = ORIENTED_EDGE ( 'NONE', *, *, #72, .F. ) ;
#220 = COORDINATED_UNIVERSAL_TIME_OFFSET ( 9, 0, .AHEAD. ) ;
#221 = ORIENTED_EDGE ( 'NONE', *, *, #33, .T. ) ;
#222 = AXIS2_PLACEMENT_3D ( 'NONE', #209, #121, #139 ) ;
#223 = UNCERTAINTY_MEASURE_WITH_UNIT (LENGTH_MEASURE( 1.000000000000000100E-005 ), #306, 'distance_accuracy_value', 'NONE');
#224 = DIRECTION ( 'NONE',  ( -1.000000000000000000, -0.0000000000000000000, -0.0000000000000000000 ) ) ;
#225 = FACE_OUTER_BOUND ( 'NONE', #261, .T. ) ;
#226 = DIRECTION ( 'NONE',  ( -1.000000000000000000, -0.0000000000000000000, -0.0000000000000000000 ) ) ;
#227 = CARTESIAN_POINT ( 'NONE',  ( -59.00000000000001400, 7.699999999999993100, 0.0000000000000000000 ) ) ;
#228 = DIRECTION ( 'NONE',  ( -1.000000000000000000, -0.0000000000000000000, -0.0000000000000000000 ) ) ;
#229 = LOCAL_TIME ( 16, 37, 21.00000000000000000, #292 ) ;
#230 = CLOSED_SHELL ( 'NONE', ( #239, #29, #267, #294 ) ) ;
#231 = DIRECTION ( 'NONE',  ( 0.0000000000000000000, 1.000000000000000000, 0.0000000000000000000 ) ) ;
#232 = DIRECTION ( 'NONE',  ( 1.000000000000000000, 1.211116794356528300E-016, -0.0000000000000000000 ) ) ;
#233 = CYLINDRICAL_SURFACE ( 'NONE', #161, 8.000000000000000000 ) ;
#234 = CARTESIAN_POINT ( 'NONE',  ( 0.0000000000000000000, 0.0000000000000000000, 0.0000000000000000000 ) ) ;
#235 = DIRECTION ( 'NONE',  ( 0.0000000000000000000, 0.0000000000000000000, -1.000000000000000000 ) ) ;
#236 = PERSON_AND_ORGANIZATION_ROLE ( 'creator' ) ;
#237 = APPROVAL_DATE_TIME ( #296, #186 ) ;
#238 = EDGE_LOOP ( 'NONE', ( #196, #211, #221, #145 ) ) ;
#239 = ADVANCED_FACE ( 'NONE', ( #108 ), #290, .T. ) ;
#240 = AXIS2_PLACEMENT_3D ( 'NONE', #234, #38, #64 ) ;
#241 = CIRCLE ( 'NONE', #116, 8.000000000000000000 ) ;
#242 = VERTEX_POINT ( 'NONE', #256 ) ;
#243 = PRODUCT_DEFINITION_SHAPE ( 'NONE', 'NONE',  #94 ) ;
#244 = APPROVAL_PERSON_ORGANIZATION ( #308, #186, #125 ) ;
#245 = VECTOR ( 'NONE', #8, 1000.000000000000000 ) ;
#246 = ADVANCED_FACE ( 'NONE', ( #225 ), #30, .T. ) ;
#247 = DIRECTION ( 'NONE',  ( -1.000000000000000000, -0.0000000000000000000, -0.0000000000000000000 ) ) ;
#248 = VERTEX_POINT ( 'NONE', #164 ) ;
#249 = COORDINATED_UNIVERSAL_TIME_OFFSET ( 9, 0, .AHEAD. ) ;
#250 = CARTESIAN_POINT ( 'NONE',  ( 1.000000000000000900, -8.000000000000000000, 9.797174393178825700E-016 ) ) ;
#251 = ORIENTED_EDGE ( 'NONE', *, *, #72, .T. ) ;
#252 = CARTESIAN_POINT ( 'NONE',  ( 0.9999999999999986700, -1.452747807492109100E-031, 0.0000000000000000000 ) ) ;
#253 = CARTESIAN_POINT ( 'NONE',  ( 0.9999999999999997800, 9.797174393178829600E-016, -8.000000000000000000 ) ) ;
#254 = CIRCLE ( 'NONE', #59, 8.000000000000000000 ) ;
#255 = CARTESIAN_POINT ( 'NONE',  ( 41.00000000000000000, 0.0000000000000000000, 8.000000000000007100 ) ) ;
#256 = CARTESIAN_POINT ( 'NONE',  ( -58.70000000000001000, 7.999999999999992900, 0.0000000000000000000 ) ) ;
#257 = PLANE ( 'NONE',  #302 ) ;
#258 = LOCAL_TIME ( 16, 37, 21.00000000000000000, #4 ) ;
#259 = EDGE_LOOP ( 'NONE', ( #265, #78 ) ) ;
#260 = APPROVAL_STATUS ( 'not_yet_approved' ) ;
#261 = EDGE_LOOP ( 'NONE', ( #271, #251, #44, #174 ) ) ;
#262 = PERSON ( 'UNSPECIFIED', 'UNSPECIFIED', 'UNSPECIFIED', ('UNSPECIFIED'), ('UNSPECIFIED'), ('UNSPECIFIED') ) ;
#263 = CYLINDRICAL_SURFACE ( 'NONE', #284, 8.000000000000000000 ) ;
#264 = VERTEX_POINT ( 'NONE', #187 ) ;
#265 = ORIENTED_EDGE ( 'NONE', *, *, #103, .T. ) ;
#266 = VECTOR ( 'NONE', #226, 1000.000000000000000 ) ;
#267 = ADVANCED_FACE ( 'NONE', ( #39 ), #210, .F. ) ;
#268 = AXIS2_PLACEMENT_3D ( 'NONE', #279, #65, #235 ) ;
#269 = DIRECTION ( 'NONE',  ( -1.084202172485504400E-016, 1.000000000000000000, 0.0000000000000000000 ) ) ;
#270 = DIRECTION ( 'NONE',  ( 0.0000000000000000000, 1.000000000000000000, 0.0000000000000000000 ) ) ;
#271 = ORIENTED_EDGE ( 'NONE', *, *, #76, .T. ) ;
#272 = CARTESIAN_POINT ( 'NONE',  ( -58.70000000000001000, -7.230367262308474900E-015, 0.0000000000000000000 ) ) ;
#273 = APPROVAL_DATE_TIME ( #24, #140 ) ;
#274 = VECTOR ( 'NONE', #224, 1000.000000000000000 ) ;
#275 = DIRECTION ( 'NONE',  ( -1.084202172485504400E-016, 1.000000000000000000, 0.0000000000000000000 ) ) ;
#276 = DIRECTION ( 'NONE',  ( 1.000000000000000000, 1.211116794356528300E-016, -0.0000000000000000000 ) ) ;
#277 = MANIFOLD_SOLID_BREP ( 'È¸Àü3', #230 ) ;
#278 = DIRECTION ( 'NONE',  ( 1.211116794356528300E-016, -1.000000000000000000, 0.0000000000000000000 ) ) ;
#279 = CARTESIAN_POINT ( 'NONE',  ( 1.000000000000000400, 1.355252715606881800E-016, 0.0000000000000000000 ) ) ;
#280 = SHAPE_DEFINITION_REPRESENTATION ( #243, #118 ) ;
#281 = CARTESIAN_POINT ( 'NONE',  ( 0.9999999999999997800, 0.0000000000000000000, 8.000000000000000000 ) ) ;
#282 = CARTESIAN_POINT ( 'NONE',  ( 0.0000000000000000000, 0.0000000000000000000, 0.0000000000000000000 ) ) ;
#283 = ORIENTED_EDGE ( 'NONE', *, *, #40, .T. ) ;
#284 = AXIS2_PLACEMENT_3D ( 'NONE', #295, #152, #269 ) ;
#285 = PERSON_AND_ORGANIZATION_ROLE ( 'creator' ) ;
#286 = APPROVAL_PERSON_ORGANIZATION ( #35, #140, #43 ) ;
#287 = EDGE_LOOP ( 'NONE', ( #219, #73, #49, #66 ) ) ;
#288 = DIRECTION ( 'NONE',  ( 0.0000000000000000000, 0.0000000000000000000, 1.000000000000000000 ) ) ;
#289 =( GEOMETRIC_REPRESENTATION_CONTEXT ( 3 ) GLOBAL_UNCERTAINTY_ASSIGNED_CONTEXT ( ( #223 ) ) GLOBAL_UNIT_ASSIGNED_CONTEXT ( ( #306, #212, #67 ) ) REPRESENTATION_CONTEXT ( 'NONE', 'WORKASPACE' ) );
#290 = CYLINDRICAL_SURFACE ( 'NONE', #240, 8.000000000000003600 ) ;
#291 = ORIENTED_EDGE ( 'NONE', *, *, #76, .F. ) ;
#292 = COORDINATED_UNIVERSAL_TIME_OFFSET ( 9, 0, .AHEAD. ) ;
#293 = ORIENTED_EDGE ( 'NONE', *, *, #126, .F. ) ;
#294 = ADVANCED_FACE ( 'NONE', ( #163 ), #257, .F. ) ;
#295 = CARTESIAN_POINT ( 'NONE',  ( 1.000000000000000000, 0.0000000000000000000, 0.0000000000000000000 ) ) ;
#296 = DATE_AND_TIME ( #48, #124 ) ;
#297 = CARTESIAN_POINT ( 'NONE',  ( -58.70000000000001000, -7.230367262308474900E-015, 0.0000000000000000000 ) ) ;
#298 = EDGE_LOOP ( 'NONE', ( #135, #85, #20, #7 ) ) ;
#299 = DIRECTION ( 'NONE',  ( 0.0000000000000000000, 1.000000000000000000, 0.0000000000000000000 ) ) ;
#300 = CARTESIAN_POINT ( 'NONE',  ( 1.000000000000000000, 0.0000000000000000000, 0.0000000000000000000 ) ) ;
#301 = FACE_OUTER_BOUND ( 'NONE', #87, .T. ) ;
#302 = AXIS2_PLACEMENT_3D ( 'NONE', #122, #305, #141 ) ;
#303 = CARTESIAN_POINT ( 'NONE',  ( 0.9999999999999985600, 8.000000000000000000, 0.0000000000000000000 ) ) ;
#304 = VERTEX_POINT ( 'NONE', #281 ) ;
#305 = DIRECTION ( 'NONE',  ( -1.000000000000000000, 0.0000000000000000000, -0.0000000000000000000 ) ) ;
#306 =( LENGTH_UNIT ( ) NAMED_UNIT ( * ) SI_UNIT ( .MILLI., .METRE. ) );
#307 = DIRECTION ( 'NONE',  ( 1.000000000000000000, 0.0000000000000000000, 0.0000000000000000000 ) ) ;
#308 = PERSON_AND_ORGANIZATION ( #262, #104 ) ;
#309 = SECURITY_CLASSIFICATION_LEVEL ( 'unclassified' ) ;
#310 = DIRECTION ( 'NONE',  ( -1.000000000000000000, -0.0000000000000000000, -0.0000000000000000000 ) ) ;
#311 = CONICAL_SURFACE ( 'NONE', #26, 8.000000000000000000, 0.7853981633974453900 ) ;
#312 = VERTEX_POINT ( 'NONE', #165 ) ;
#313 = PERSON_AND_ORGANIZATION ( #262, #104 ) ;
ENDSEC;
END-ISO-10303-21;
