ISO-10303-21;
HEADER;
FILE_DESCRIPTION (( 'STEP AP203' ),
    '1' );
FILE_NAME ('03-3181.STEP',
    '2023-07-12T07:37:36',
    ( 'USER' ),
    ( 'Hewlett-Packard Company' ),
    'SwSTEP 2.0',
    'SolidWorks 2014',
    '' );
FILE_SCHEMA (( 'CONFIG_CONTROL_DESIGN' ));
ENDSEC;

DATA;
#1 = ORIENTED_EDGE ( 'NONE', *, *, #29, .T. ) ;
#2 = ADVANCED_FACE ( 'NONE', ( #282 ), #183, .F. ) ;
#3 = EDGE_CURVE ( 'NONE', #76, #157, #275, .T. ) ;
#4 = AXIS2_PLACEMENT_3D ( 'NONE', #99, #167, #211 ) ;
#5 = DIRECTION ( 'NONE',  ( -1.000000000000000000, 0.0000000000000000000, -0.0000000000000000000 ) ) ;
#6 = EDGE_CURVE ( 'NONE', #131, #157, #132, .T. ) ;
#7 = APPLICATION_PROTOCOL_DEFINITION ( 'international standard', 'config_control_design', 1994, #36 ) ;
#8 = APPROVAL_STATUS ( 'not_yet_approved' ) ;
#9 = EDGE_CURVE ( 'NONE', #202, #131, #173, .T. ) ;
#10 = ORIENTED_EDGE ( 'NONE', *, *, #37, .F. ) ;
#11 = EDGE_CURVE ( 'NONE', #131, #202, #200, .T. ) ;
#12 = SHAPE_DEFINITION_REPRESENTATION ( #266, #75 ) ;
#13 = APPROVAL ( #8, 'UNSPECIFIED' ) ;
#14 = EDGE_CURVE ( 'NONE', #157, #76, #61, .T. ) ;
#15 = DATE_AND_TIME ( #82, #144 ) ;
#16 = VERTEX_POINT ( 'NONE', #17 ) ;
#17 = CARTESIAN_POINT ( 'NONE',  ( 0.9999999999999997800, -10.00000000000000000, 1.224646799147353300E-015 ) ) ;
#18 = CARTESIAN_POINT ( 'NONE',  ( 1.000000000000001300, -10.00000000000000200, 1.224646799147353500E-015 ) ) ;
#19 = FACE_OUTER_BOUND ( 'NONE', #46, .T. ) ;
#20 = AXIS2_PLACEMENT_3D ( 'NONE', #312, #313, #168 ) ;
#21 = ORIENTED_EDGE ( 'NONE', *, *, #37, .T. ) ;
#22 = ORIENTED_EDGE ( 'NONE', *, *, #67, .F. ) ;
#23 = EDGE_CURVE ( 'NONE', #293, #272, #184, .T. ) ;
#24 = DIRECTION ( 'NONE',  ( 1.000000000000000000, 1.232433712746601800E-016, -0.0000000000000000000 ) ) ;
#25 = CARTESIAN_POINT ( 'NONE',  ( -64.70000000000000300, -8.097089492745174500E-015, 0.0000000000000000000 ) ) ;
#26 = PERSON_AND_ORGANIZATION ( #260, #181 ) ;
#27 = PLANE ( 'NONE',  #59 ) ;
#28 = EDGE_LOOP ( 'NONE', ( #124, #40 ) ) ;
#29 = EDGE_CURVE ( 'NONE', #185, #293, #306, .T. ) ;
#30 = ADVANCED_FACE ( 'NONE', ( #256 ), #229, .T. ) ;
#31 = EDGE_CURVE ( 'NONE', #208, #272, #301, .T. ) ;
#32 = ORIENTED_EDGE ( 'NONE', *, *, #3, .T. ) ;
#33 = CARTESIAN_POINT ( 'NONE',  ( 1.000000000000000000, 0.0000000000000000000, 0.0000000000000000000 ) ) ;
#34 = CC_DESIGN_APPROVAL ( #13, ( #311 ) ) ;
#35 = LOCAL_TIME ( 16, 37, 36.00000000000000000, #98 ) ;
#36 = APPLICATION_CONTEXT ( 'configuration controlled 3d designs of mechanical parts and assemblies' ) ;
#37 = EDGE_CURVE ( 'NONE', #185, #208, #179, .T. ) ;
#38 = PERSON_AND_ORGANIZATION_ROLE ( 'creator' ) ;
#39 = CIRCLE ( 'NONE', #254, 10.00000000000000000 ) ;
#40 = ORIENTED_EDGE ( 'NONE', *, *, #11, .F. ) ;
#41 = EDGE_CURVE ( 'NONE', #272, #16, #56, .T. ) ;
#42 = CALENDAR_DATE ( 2023, 12, 7 ) ;
#43 = EDGE_CURVE ( 'NONE', #307, #16, #66, .T. ) ;
#44 = CIRCLE ( 'NONE', #232, 10.00000000000000200 ) ;
#45 = DIRECTION ( 'NONE',  ( -1.000000000000000000, -0.0000000000000000000, -0.0000000000000000000 ) ) ;
#46 = EDGE_LOOP ( 'NONE', ( #223, #71, #252, #22 ) ) ;
#47 = EDGE_CURVE ( 'NONE', #208, #307, #244, .T. ) ;
#48 = DATE_AND_TIME ( #111, #174 ) ;
#49 = CC_DESIGN_PERSON_AND_ORGANIZATION_ASSIGNMENT ( #88, #38, ( #311 ) ) ;
#50 = CALENDAR_DATE ( 2023, 12, 7 ) ;
#51 = DIRECTION ( 'NONE',  ( 0.0000000000000000000, 1.000000000000000000, 0.0000000000000000000 ) ) ;
#52 = ORIENTED_EDGE ( 'NONE', *, *, #41, .F. ) ;
#53 = EDGE_CURVE ( 'NONE', #293, #185, #108, .T. ) ;
#54 = CARTESIAN_POINT ( 'NONE',  ( 40.99999999999999300, 1.224646799147354200E-015, -10.00000000000000900 ) ) ;
#55 = ADVANCED_FACE ( 'NONE', ( #222 ), #286, .T. ) ;
#56 = LINE ( 'NONE', #18, #169 ) ;
#57 = EDGE_LOOP ( 'NONE', ( #52, #253, #102, #194 ) ) ;
#58 = EDGE_CURVE ( 'NONE', #16, #307, #39, .T. ) ;
#59 = AXIS2_PLACEMENT_3D ( 'NONE', #265, #77, #246 ) ;
#60 = CARTESIAN_POINT ( 'NONE',  ( 40.99999999999999300, 0.0000000000000000000, 10.00000000000000700 ) ) ;
#61 = CIRCLE ( 'NONE', #138, 10.00000000000000000 ) ;
#62 = EDGE_CURVE ( 'NONE', #272, #208, #44, .T. ) ;
#63 = PERSON_AND_ORGANIZATION ( #260, #181 ) ;
#64 = DIRECTION ( 'NONE',  ( 1.000000000000000000, 0.0000000000000000000, 0.0000000000000000000 ) ) ;
#65 = SECURITY_CLASSIFICATION_LEVEL ( 'unclassified' ) ;
#66 = CIRCLE ( 'NONE', #199, 10.00000000000000000 ) ;
#67 = EDGE_CURVE ( 'NONE', #202, #76, #101, .T. ) ;
#68 = ORIENTED_EDGE ( 'NONE', *, *, #43, .T. ) ;
#69 = CC_DESIGN_PERSON_AND_ORGANIZATION_ASSIGNMENT ( #26, #197, ( #311 ) ) ;
#70 = DIRECTION ( 'NONE',  ( 0.0000000000000000000, 0.0000000000000000000, -1.000000000000000000 ) ) ;
#71 = ORIENTED_EDGE ( 'NONE', *, *, #6, .T. ) ;
#72 = CARTESIAN_POINT ( 'NONE',  ( 40.99999999999999300, 0.0000000000000000000, 0.0000000000000000000 ) ) ;
#73 = DIRECTION ( 'NONE',  ( 1.000000000000000000, 1.232433712746601800E-016, -0.0000000000000000000 ) ) ;
#74 = CARTESIAN_POINT ( 'NONE',  ( 0.9999999999999985600, -1.955246146576655100E-031, 0.0000000000000000000 ) ) ;
#75 = ADVANCED_BREP_SHAPE_REPRESENTATION ( '03-3181', ( #239, #127, #193 ), #133 ) ;
#76 = VERTEX_POINT ( 'NONE', #242 ) ;
#77 = DIRECTION ( 'NONE',  ( -1.000000000000000000, -1.232433712746601800E-016, 0.0000000000000000000 ) ) ;
#78 = DIRECTION ( 'NONE',  ( -1.000000000000000000, -0.0000000000000000000, -0.0000000000000000000 ) ) ;
#79 = CARTESIAN_POINT ( 'NONE',  ( -65.00000000000000000, -9.700000000000009900, 1.206277097160143000E-015 ) ) ;
#80 = SECURITY_CLASSIFICATION ( '', '', #65 ) ;
#81 = PERSON_AND_ORGANIZATION_ROLE ( 'design_owner' ) ;
#82 = CALENDAR_DATE ( 2023, 12, 7 ) ;
#83 = DATE_TIME_ROLE ( 'classification_date' ) ;
#84 = ORIENTED_EDGE ( 'NONE', *, *, #53, .F. ) ;
#85 = CYLINDRICAL_SURFACE ( 'NONE', #150, 10.00000000000000200 ) ;
#86 = ORIENTED_EDGE ( 'NONE', *, *, #41, .T. ) ;
#87 = AXIS2_PLACEMENT_3D ( 'NONE', #294, #5, #172 ) ;
#88 = PERSON_AND_ORGANIZATION ( #260, #181 ) ;
#89 = AXIS2_PLACEMENT_3D ( 'NONE', #284, #136, #305 ) ;
#90 = DESIGN_CONTEXT ( 'detailed design', #250, 'design' ) ;
#91 = DIRECTION ( 'NONE',  ( 0.0000000000000000000, 0.0000000000000000000, 1.000000000000000000 ) ) ;
#92 = AXIS2_PLACEMENT_3D ( 'NONE', #134, #227, #70 ) ;
#93 = FACE_OUTER_BOUND ( 'NONE', #57, .T. ) ;
#94 = EDGE_LOOP ( 'NONE', ( #32, #145 ) ) ;
#95 = CARTESIAN_POINT ( 'NONE',  ( -64.70000000000000300, -8.097089492745174500E-015, 0.0000000000000000000 ) ) ;
#96 = DIRECTION ( 'NONE',  ( -1.301042606982605300E-016, 1.000000000000000000, 0.0000000000000000000 ) ) ;
#97 = CC_DESIGN_PERSON_AND_ORGANIZATION_ASSIGNMENT ( #276, #221, ( #80 ) ) ;
#98 = COORDINATED_UNIVERSAL_TIME_OFFSET ( 9, 0, .AHEAD. ) ;
#99 = CARTESIAN_POINT ( 'NONE',  ( 1.000000000000000000, 0.0000000000000000000, 0.0000000000000000000 ) ) ;
#100 = ADVANCED_FACE ( 'NONE', ( #93 ), #206, .T. ) ;
#101 = LINE ( 'NONE', #238, #156 ) ;
#102 = ORIENTED_EDGE ( 'NONE', *, *, #47, .T. ) ;
#103 = AXIS2_PLACEMENT_3D ( 'NONE', #273, #295, #104 ) ;
#104 = DIRECTION ( 'NONE',  ( 0.0000000000000000000, 1.000000000000000000, 0.0000000000000000000 ) ) ;
#105 = LOCAL_TIME ( 16, 37, 36.00000000000000000, #166 ) ;
#106 = APPLICATION_PROTOCOL_DEFINITION ( 'international standard', 'config_control_design', 1994, #250 ) ;
#107 = APPROVAL_ROLE ( '' ) ;
#108 = CIRCLE ( 'NONE', #216, 9.700000000000002800 ) ;
#109 = AXIS2_PLACEMENT_3D ( 'NONE', #72, #228, #91 ) ;
#110 = EDGE_LOOP ( 'NONE', ( #1, #163, #155, #10 ) ) ;
#111 = CALENDAR_DATE ( 2023, 12, 7 ) ;
#112 = LOCAL_TIME ( 16, 37, 36.00000000000000000, #176 ) ;
#113 = CC_DESIGN_DATE_AND_TIME_ASSIGNMENT ( #15, #83, ( #80 ) ) ;
#114 = CARTESIAN_POINT ( 'NONE',  ( 0.0000000000000000000, 1.224646799147353700E-015, -10.00000000000000400 ) ) ;
#115 = VECTOR ( 'NONE', #233, 1000.000000000000100 ) ;
#116 = EDGE_LOOP ( 'NONE', ( #302, #148, #267, #245 ) ) ;
#117 = DIRECTION ( 'NONE',  ( 1.000000000000000000, 1.232433712746601800E-016, -0.0000000000000000000 ) ) ;
#118 = DIRECTION ( 'NONE',  ( 0.0000000000000000000, 1.000000000000000000, 0.0000000000000000000 ) ) ;
#119 = AXIS2_PLACEMENT_3D ( 'NONE', #190, #78, #149 ) ;
#120 = PERSON_AND_ORGANIZATION ( #260, #181 ) ;
#121 = CARTESIAN_POINT ( 'NONE',  ( 0.9999999999999985600, -1.955246146576655100E-031, 0.0000000000000000000 ) ) ;
#122 = VECTOR ( 'NONE', #231, 1000.000000000000000 ) ;
#123 = ADVANCED_FACE ( 'NONE', ( #215 ), #291, .T. ) ;
#124 = ORIENTED_EDGE ( 'NONE', *, *, #9, .F. ) ;
#125 = AXIS2_PLACEMENT_3D ( 'NONE', #285, #137, #308 ) ;
#126 = CARTESIAN_POINT ( 'NONE',  ( 0.9999999999999997800, 1.224646799147353500E-015, -10.00000000000000000 ) ) ;
#127 = MANIFOLD_SOLID_BREP ( 'È¸Àü4', #278 ) ;
#128 =( NAMED_UNIT ( * ) PLANE_ANGLE_UNIT ( ) SI_UNIT ( $, .RADIAN. ) );
#129 = APPROVAL ( #251, 'UNSPECIFIED' ) ;
#130 = APPROVAL_ROLE ( '' ) ;
#131 = VERTEX_POINT ( 'NONE', #54 ) ;
#132 = LINE ( 'NONE', #114, #236 ) ;
#133 =( GEOMETRIC_REPRESENTATION_CONTEXT ( 3 ) GLOBAL_UNCERTAINTY_ASSIGNED_CONTEXT ( ( #182 ) ) GLOBAL_UNIT_ASSIGNED_CONTEXT ( ( #274, #128, #299 ) ) REPRESENTATION_CONTEXT ( 'NONE', 'WORKASPACE' ) );
#134 = CARTESIAN_POINT ( 'NONE',  ( 1.000000000000000400, 1.084202172485505400E-016, 0.0000000000000000000 ) ) ;
#135 = ORIENTED_EDGE ( 'NONE', *, *, #62, .F. ) ;
#136 = DIRECTION ( 'NONE',  ( -1.000000000000000000, -0.0000000000000000000, -0.0000000000000000000 ) ) ;
#137 = DIRECTION ( 'NONE',  ( -1.000000000000000000, -0.0000000000000000000, -0.0000000000000000000 ) ) ;
#138 = AXIS2_PLACEMENT_3D ( 'NONE', #186, #45, #205 ) ;
#139 = CARTESIAN_POINT ( 'NONE',  ( -65.00000000000000000, -8.134062504127572500E-015, 0.0000000000000000000 ) ) ;
#140 = PERSON_AND_ORGANIZATION ( #260, #181 ) ;
#141 = DIRECTION ( 'NONE',  ( -1.000000000000000000, -0.0000000000000000000, -0.0000000000000000000 ) ) ;
#142 = DIRECTION ( 'NONE',  ( -1.301042606982605300E-016, 1.000000000000000000, 0.0000000000000000000 ) ) ;
#143 = CC_DESIGN_APPROVAL ( #129, ( #80 ) ) ;
#144 = LOCAL_TIME ( 16, 37, 36.00000000000000000, #203 ) ;
#145 = ORIENTED_EDGE ( 'NONE', *, *, #14, .T. ) ;
#146 = ADVANCED_FACE ( 'NONE', ( #147 ), #27, .T. ) ;
#147 = FACE_OUTER_BOUND ( 'NONE', #217, .T. ) ;
#148 = ORIENTED_EDGE ( 'NONE', *, *, #11, .T. ) ;
#149 = DIRECTION ( 'NONE',  ( 0.0000000000000000000, 0.0000000000000000000, 1.000000000000000000 ) ) ;
#150 = AXIS2_PLACEMENT_3D ( 'NONE', #33, #151, #175 ) ;
#151 = DIRECTION ( 'NONE',  ( 1.000000000000000000, 1.232433712746601800E-016, -0.0000000000000000000 ) ) ;
#152 = APPROVAL_DATE_TIME ( #212, #13 ) ;
#153 = DATE_TIME_ROLE ( 'creation_date' ) ;
#154 = AXIS2_PLACEMENT_3D ( 'NONE', #139, #309, #164 ) ;
#155 = ORIENTED_EDGE ( 'NONE', *, *, #31, .F. ) ;
#156 = VECTOR ( 'NONE', #264, 1000.000000000000000 ) ;
#157 = VERTEX_POINT ( 'NONE', #126 ) ;
#158 = APPROVAL_PERSON_ORGANIZATION ( #219, #13, #178 ) ;
#159 = CC_DESIGN_SECURITY_CLASSIFICATION ( #80, ( #311 ) ) ;
#160 = CARTESIAN_POINT ( 'NONE',  ( -64.70000000000000300, -8.097089492745174500E-015, 0.0000000000000000000 ) ) ;
#161 = CARTESIAN_POINT ( 'NONE',  ( -64.70000000000000300, -10.00000000000001100, 1.224646799147353500E-015 ) ) ;
#162 = FACE_OUTER_BOUND ( 'NONE', #28, .T. ) ;
#163 = ORIENTED_EDGE ( 'NONE', *, *, #23, .T. ) ;
#164 = DIRECTION ( 'NONE',  ( 0.0000000000000000000, 1.000000000000000000, 0.0000000000000000000 ) ) ;
#165 = CARTESIAN_POINT ( 'NONE',  ( -65.00000000000000000, -8.134062504127572500E-015, 0.0000000000000000000 ) ) ;
#166 = COORDINATED_UNIVERSAL_TIME_OFFSET ( 9, 0, .AHEAD. ) ;
#167 = DIRECTION ( 'NONE',  ( 1.000000000000000000, 1.232433712746601800E-016, -0.0000000000000000000 ) ) ;
#168 = DIRECTION ( 'NONE',  ( -1.232433712746601800E-016, 1.000000000000000000, 0.0000000000000000000 ) ) ;
#169 = VECTOR ( 'NONE', #73, 1000.000000000000000 ) ;
#170 = ORIENTED_EDGE ( 'NONE', *, *, #53, .T. ) ;
#171 = AXIS2_PLACEMENT_3D ( 'NONE', #160, #117, #258 ) ;
#172 = DIRECTION ( 'NONE',  ( -0.0000000000000000000, 0.0000000000000000000, 1.000000000000000000 ) ) ;
#173 = CIRCLE ( 'NONE', #109, 10.00000000000000700 ) ;
#174 = LOCAL_TIME ( 16, 37, 36.00000000000000000, #237 ) ;
#175 = DIRECTION ( 'NONE',  ( -1.301042606982605100E-016, 1.000000000000000000, 0.0000000000000000000 ) ) ;
#176 = COORDINATED_UNIVERSAL_TIME_OFFSET ( 9, 0, .AHEAD. ) ;
#177 = PRODUCT_RELATED_PRODUCT_CATEGORY ( 'detail', '', ( #234 ) ) ;
#178 = APPROVAL_ROLE ( '' ) ;
#179 = LINE ( 'NONE', #207, #115 ) ;
#180 = ORIENTED_EDGE ( 'NONE', *, *, #47, .F. ) ;
#181 = ORGANIZATION ( 'UNSPECIFIED', 'UNSPECIFIED', '' ) ;
#182 = UNCERTAINTY_MEASURE_WITH_UNIT (LENGTH_MEASURE( 1.000000000000000100E-005 ), #274, 'distance_accuracy_value', 'NONE');
#183 = PLANE ( 'NONE',  #92 ) ;
#184 = LINE ( 'NONE', #161, #122 ) ;
#185 = VERTEX_POINT ( 'NONE', #213 ) ;
#186 = CARTESIAN_POINT ( 'NONE',  ( 0.9999999999999997800, 0.0000000000000000000, 0.0000000000000000000 ) ) ;
#187 = AXIS2_PLACEMENT_3D ( 'NONE', #95, #259, #118 ) ;
#188 = DIRECTION ( 'NONE',  ( 0.0000000000000000000, 1.000000000000000000, 0.0000000000000000000 ) ) ;
#189 = DIRECTION ( 'NONE',  ( 1.000000000000000000, 1.232433712746601800E-016, -0.0000000000000000000 ) ) ;
#190 = CARTESIAN_POINT ( 'NONE',  ( 0.0000000000000000000, 0.0000000000000000000, 0.0000000000000000000 ) ) ;
#191 = EDGE_LOOP ( 'NONE', ( #230, #86, #198, #180 ) ) ;
#192 = ADVANCED_FACE ( 'NONE', ( #162 ), #271, .F. ) ;
#193 = AXIS2_PLACEMENT_3D ( 'NONE', #249, #196, #64 ) ;
#194 = ORIENTED_EDGE ( 'NONE', *, *, #58, .F. ) ;
#195 = CARTESIAN_POINT ( 'NONE',  ( -64.70000000000000300, -10.00000000000001100, 1.224646799147354000E-015 ) ) ;
#196 = DIRECTION ( 'NONE',  ( 0.0000000000000000000, 0.0000000000000000000, 1.000000000000000000 ) ) ;
#197 = PERSON_AND_ORGANIZATION_ROLE ( 'design_supplier' ) ;
#198 = ORIENTED_EDGE ( 'NONE', *, *, #43, .F. ) ;
#199 = AXIS2_PLACEMENT_3D ( 'NONE', #74, #235, #96 ) ;
#200 = CIRCLE ( 'NONE', #125, 10.00000000000000700 ) ;
#201 = CYLINDRICAL_SURFACE ( 'NONE', #119, 10.00000000000000400 ) ;
#202 = VERTEX_POINT ( 'NONE', #60 ) ;
#203 = COORDINATED_UNIVERSAL_TIME_OFFSET ( 9, 0, .AHEAD. ) ;
#204 = EDGE_LOOP ( 'NONE', ( #68, #287 ) ) ;
#205 = DIRECTION ( 'NONE',  ( 0.0000000000000000000, 0.0000000000000000000, 1.000000000000000000 ) ) ;
#206 = CYLINDRICAL_SURFACE ( 'NONE', #4, 10.00000000000000200 ) ;
#207 = CARTESIAN_POINT ( 'NONE',  ( -64.70000000000000300, 9.999999999999992900, 0.0000000000000000000 ) ) ;
#208 = VERTEX_POINT ( 'NONE', #218 ) ;
#209 = CARTESIAN_POINT ( 'NONE',  ( 0.9999999999999986700, 10.00000000000000200, 0.0000000000000000000 ) ) ;
#210 = CC_DESIGN_PERSON_AND_ORGANIZATION_ASSIGNMENT ( #120, #81, ( #234 ) ) ;
#211 = DIRECTION ( 'NONE',  ( -1.301042606982605100E-016, 1.000000000000000000, 0.0000000000000000000 ) ) ;
#212 = DATE_AND_TIME ( #283, #35 ) ;
#213 = CARTESIAN_POINT ( 'NONE',  ( -65.00000000000000000, 9.699999999999994000, 0.0000000000000000000 ) ) ;
#214 = ADVANCED_FACE ( 'NONE', ( #19 ), #201, .T. ) ;
#215 = FACE_OUTER_BOUND ( 'NONE', #204, .T. ) ;
#216 = AXIS2_PLACEMENT_3D ( 'NONE', #165, #24, #188 ) ;
#217 = EDGE_LOOP ( 'NONE', ( #280, #84 ) ) ;
#218 = CARTESIAN_POINT ( 'NONE',  ( -64.70000000000000300, 9.999999999999992900, 0.0000000000000000000 ) ) ;
#219 = PERSON_AND_ORGANIZATION ( #260, #181 ) ;
#220 = MECHANICAL_CONTEXT ( 'NONE', #36, 'mechanical' ) ;
#221 = PERSON_AND_ORGANIZATION_ROLE ( 'classification_officer' ) ;
#222 = FACE_OUTER_BOUND ( 'NONE', #116, .T. ) ;
#223 = ORIENTED_EDGE ( 'NONE', *, *, #9, .T. ) ;
#224 = PRODUCT_DEFINITION ( 'UNKNOWN', '', #311, #90 ) ;
#225 = PERSON_AND_ORGANIZATION ( #260, #181 ) ;
#226 = APPROVAL_DATE_TIME ( #298, #129 ) ;
#227 = DIRECTION ( 'NONE',  ( 1.000000000000000000, 0.0000000000000000000, 0.0000000000000000000 ) ) ;
#228 = DIRECTION ( 'NONE',  ( -1.000000000000000000, -0.0000000000000000000, -0.0000000000000000000 ) ) ;
#229 = CONICAL_SURFACE ( 'NONE', #171, 10.00000000000000200, 0.7853981633974569400 ) ;
#230 = ORIENTED_EDGE ( 'NONE', *, *, #31, .T. ) ;
#231 = DIRECTION ( 'NONE',  ( 0.7071067811865415800, -0.7071067811865535700, 8.659560562355008000E-017 ) ) ;
#232 = AXIS2_PLACEMENT_3D ( 'NONE', #25, #189, #51 ) ;
#233 = DIRECTION ( 'NONE',  ( 0.7071067811865413600, 0.7071067811865536800, 0.0000000000000000000 ) ) ;
#234 = PRODUCT ( '03-3181', '03-3181', '', ( #220 ) ) ;
#235 = DIRECTION ( 'NONE',  ( 1.000000000000000000, 1.232433712746601800E-016, -0.0000000000000000000 ) ) ;
#236 = VECTOR ( 'NONE', #304, 1000.000000000000000 ) ;
#237 = COORDINATED_UNIVERSAL_TIME_OFFSET ( 9, 0, .AHEAD. ) ;
#238 = CARTESIAN_POINT ( 'NONE',  ( 0.0000000000000000000, 0.0000000000000000000, 10.00000000000000400 ) ) ;
#239 = MANIFOLD_SOLID_BREP ( 'È¸Àü3', #241 ) ;
#240 = APPROVAL_PERSON_ORGANIZATION ( #140, #129, #107 ) ;
#241 = CLOSED_SHELL ( 'NONE', ( #214, #55, #2, #192 ) ) ;
#242 = CARTESIAN_POINT ( 'NONE',  ( 0.9999999999999997800, 0.0000000000000000000, 10.00000000000000000 ) ) ;
#243 = ADVANCED_FACE ( 'NONE', ( #279 ), #261, .T. ) ;
#244 = LINE ( 'NONE', #209, #292 ) ;
#245 = ORIENTED_EDGE ( 'NONE', *, *, #14, .F. ) ;
#246 = DIRECTION ( 'NONE',  ( 1.232433712746601800E-016, -1.000000000000000000, 0.0000000000000000000 ) ) ;
#247 = CARTESIAN_POINT ( 'NONE',  ( 0.9999999999999972200, 10.00000000000000000, 0.0000000000000000000 ) ) ;
#248 = APPROVAL ( #277, 'UNSPECIFIED' ) ;
#249 = CARTESIAN_POINT ( 'NONE',  ( 0.0000000000000000000, 0.0000000000000000000, 0.0000000000000000000 ) ) ;
#250 = APPLICATION_CONTEXT ( 'configuration controlled 3d designs of mechanical parts and assemblies' ) ;
#251 = APPROVAL_STATUS ( 'not_yet_approved' ) ;
#252 = ORIENTED_EDGE ( 'NONE', *, *, #3, .F. ) ;
#253 = ORIENTED_EDGE ( 'NONE', *, *, #62, .T. ) ;
#254 = AXIS2_PLACEMENT_3D ( 'NONE', #121, #289, #142 ) ;
#255 = EDGE_LOOP ( 'NONE', ( #257, #170, #21, #135 ) ) ;
#256 = FACE_OUTER_BOUND ( 'NONE', #255, .T. ) ;
#257 = ORIENTED_EDGE ( 'NONE', *, *, #23, .F. ) ;
#258 = DIRECTION ( 'NONE',  ( 0.0000000000000000000, 1.000000000000000000, 0.0000000000000000000 ) ) ;
#259 = DIRECTION ( 'NONE',  ( 1.000000000000000000, 1.232433712746601800E-016, -0.0000000000000000000 ) ) ;
#260 = PERSON ( 'UNSPECIFIED', 'UNSPECIFIED', 'UNSPECIFIED', ('UNSPECIFIED'), ('UNSPECIFIED'), ('UNSPECIFIED') ) ;
#261 = CONICAL_SURFACE ( 'NONE', #103, 10.00000000000000200, 0.7853981633974569400 ) ;
#262 = DIRECTION ( 'NONE',  ( 0.0000000000000000000, 0.0000000000000000000, 1.000000000000000000 ) ) ;
#263 = CC_DESIGN_APPROVAL ( #248, ( #224 ) ) ;
#264 = DIRECTION ( 'NONE',  ( -1.000000000000000000, -0.0000000000000000000, -0.0000000000000000000 ) ) ;
#265 = CARTESIAN_POINT ( 'NONE',  ( -65.00000000000000000, -8.134062504127572500E-015, 0.0000000000000000000 ) ) ;
#266 = PRODUCT_DEFINITION_SHAPE ( 'NONE', 'NONE',  #224 ) ;
#267 = ORIENTED_EDGE ( 'NONE', *, *, #67, .T. ) ;
#268 = ADVANCED_FACE ( 'NONE', ( #270 ), #85, .T. ) ;
#269 = AXIS2_PLACEMENT_3D ( 'NONE', #288, #141, #262 ) ;
#270 = FACE_OUTER_BOUND ( 'NONE', #191, .T. ) ;
#271 = PLANE ( 'NONE',  #87 ) ;
#272 = VERTEX_POINT ( 'NONE', #195 ) ;
#273 = CARTESIAN_POINT ( 'NONE',  ( -64.70000000000000300, -8.097089492745174500E-015, 0.0000000000000000000 ) ) ;
#274 =( LENGTH_UNIT ( ) NAMED_UNIT ( * ) SI_UNIT ( .MILLI., .METRE. ) );
#275 = CIRCLE ( 'NONE', #89, 10.00000000000000000 ) ;
#276 = PERSON_AND_ORGANIZATION ( #260, #181 ) ;
#277 = APPROVAL_STATUS ( 'not_yet_approved' ) ;
#278 = CLOSED_SHELL ( 'NONE', ( #243, #268, #146, #123, #100, #30 ) ) ;
#279 = FACE_OUTER_BOUND ( 'NONE', #110, .T. ) ;
#280 = ORIENTED_EDGE ( 'NONE', *, *, #29, .F. ) ;
#281 = CC_DESIGN_PERSON_AND_ORGANIZATION_ASSIGNMENT ( #225, #300, ( #224 ) ) ;
#282 = FACE_OUTER_BOUND ( 'NONE', #94, .T. ) ;
#283 = CALENDAR_DATE ( 2023, 12, 7 ) ;
#284 = CARTESIAN_POINT ( 'NONE',  ( 0.9999999999999997800, 0.0000000000000000000, 0.0000000000000000000 ) ) ;
#285 = CARTESIAN_POINT ( 'NONE',  ( 40.99999999999999300, 0.0000000000000000000, 0.0000000000000000000 ) ) ;
#286 = CYLINDRICAL_SURFACE ( 'NONE', #269, 10.00000000000000400 ) ;
#287 = ORIENTED_EDGE ( 'NONE', *, *, #58, .T. ) ;
#288 = CARTESIAN_POINT ( 'NONE',  ( 0.0000000000000000000, 0.0000000000000000000, 0.0000000000000000000 ) ) ;
#289 = DIRECTION ( 'NONE',  ( 1.000000000000000000, 1.232433712746601800E-016, -0.0000000000000000000 ) ) ;
#290 = DATE_AND_TIME ( #42, #105 ) ;
#291 = PLANE ( 'NONE',  #20 ) ;
#292 = VECTOR ( 'NONE', #310, 1000.000000000000000 ) ;
#293 = VERTEX_POINT ( 'NONE', #79 ) ;
#294 = CARTESIAN_POINT ( 'NONE',  ( 40.99999999999999300, 2.844946500601964300E-014, 0.0000000000000000000 ) ) ;
#295 = DIRECTION ( 'NONE',  ( 1.000000000000000000, 1.232433712746601800E-016, -0.0000000000000000000 ) ) ;
#296 = CC_DESIGN_DATE_AND_TIME_ASSIGNMENT ( #290, #153, ( #224 ) ) ;
#297 = APPROVAL_DATE_TIME ( #48, #248 ) ;
#298 = DATE_AND_TIME ( #50, #112 ) ;
#299 =( NAMED_UNIT ( * ) SI_UNIT ( $, .STERADIAN. ) SOLID_ANGLE_UNIT ( ) );
#300 = PERSON_AND_ORGANIZATION_ROLE ( 'creator' ) ;
#301 = CIRCLE ( 'NONE', #187, 10.00000000000000200 ) ;
#302 = ORIENTED_EDGE ( 'NONE', *, *, #6, .F. ) ;
#303 = APPROVAL_PERSON_ORGANIZATION ( #63, #248, #130 ) ;
#304 = DIRECTION ( 'NONE',  ( -1.000000000000000000, -0.0000000000000000000, -0.0000000000000000000 ) ) ;
#305 = DIRECTION ( 'NONE',  ( 0.0000000000000000000, 0.0000000000000000000, 1.000000000000000000 ) ) ;
#306 = CIRCLE ( 'NONE', #154, 9.700000000000002800 ) ;
#307 = VERTEX_POINT ( 'NONE', #247 ) ;
#308 = DIRECTION ( 'NONE',  ( 0.0000000000000000000, 0.0000000000000000000, 1.000000000000000000 ) ) ;
#309 = DIRECTION ( 'NONE',  ( 1.000000000000000000, 1.232433712746601800E-016, -0.0000000000000000000 ) ) ;
#310 = DIRECTION ( 'NONE',  ( 1.000000000000000000, 1.232433712746601800E-016, -0.0000000000000000000 ) ) ;
#311 = PRODUCT_DEFINITION_FORMATION_WITH_SPECIFIED_SOURCE ( 'ANY', '', #234, .NOT_KNOWN. ) ;
#312 = CARTESIAN_POINT ( 'NONE',  ( 0.9999999999999981100, 10.00000000000000000, 0.0000000000000000000 ) ) ;
#313 = DIRECTION ( 'NONE',  ( 1.000000000000000000, 1.232433712746601800E-016, -0.0000000000000000000 ) ) ;
ENDSEC;
END-ISO-10303-21;
