ISO-10303-21;
HEADER;
FILE_DESCRIPTION (( 'STEP AP203' ),
    '1' );
FILE_NAME ('03-3182.STEP',
    '2023-07-12T07:37:51',
    ( 'USER' ),
    ( 'Hewlett-Packard Company' ),
    'SwSTEP 2.0',
    'SolidWorks 2014',
    '' );
FILE_SCHEMA (( 'CONFIG_CONTROL_DESIGN' ));
ENDSEC;

DATA;
#1 = CARTESIAN_POINT ( 'NONE',  ( 0.9999999999999983300, -2.098882354651478100E-031, 0.0000000000000000000 ) ) ;
#2 = DIRECTION ( 'NONE',  ( 0.0000000000000000000, 1.000000000000000000, 0.0000000000000000000 ) ) ;
#3 = AXIS2_PLACEMENT_3D ( 'NONE', #274, #249, #106 ) ;
#4 = DIRECTION ( 'NONE',  ( 0.0000000000000000000, 0.0000000000000000000, 1.000000000000000000 ) ) ;
#5 = MANIFOLD_SOLID_BREP ( 'È¸Àü3', #255 ) ;
#6 = DIRECTION ( 'NONE',  ( 1.000000000000000000, 0.0000000000000000000, 0.0000000000000000000 ) ) ;
#7 = ORIENTED_EDGE ( 'NONE', *, *, #33, .F. ) ;
#8 = VERTEX_POINT ( 'NONE', #262 ) ;
#9 = DIRECTION ( 'NONE',  ( 0.0000000000000000000, 0.0000000000000000000, 1.000000000000000000 ) ) ;
#10 = APPROVAL_STATUS ( 'not_yet_approved' ) ;
#11 = AXIS2_PLACEMENT_3D ( 'NONE', #295, #143, #2 ) ;
#12 = FACE_OUTER_BOUND ( 'NONE', #289, .T. ) ;
#13 = APPROVAL_DATE_TIME ( #74, #243 ) ;
#14 = ORIENTED_EDGE ( 'NONE', *, *, #33, .T. ) ;
#15 = EDGE_CURVE ( 'NONE', #67, #117, #228, .T. ) ;
#16 = LINE ( 'NONE', #193, #205 ) ;
#17 = ADVANCED_FACE ( 'NONE', ( #302 ), #233, .F. ) ;
#18 = APPROVAL_PERSON_ORGANIZATION ( #83, #243, #156 ) ;
#19 = CC_DESIGN_PERSON_AND_ORGANIZATION_ASSIGNMENT ( #250, #129, ( #265 ) ) ;
#20 = VERTEX_POINT ( 'NONE', #115 ) ;
#21 = ORIENTED_EDGE ( 'NONE', *, *, #162, .T. ) ;
#22 = DIRECTION ( 'NONE',  ( -0.0000000000000000000, 0.0000000000000000000, 1.000000000000000000 ) ) ;
#23 = CARTESIAN_POINT ( 'NONE',  ( 1.000000000000001600, -12.50000000000000000, 1.530808498934191500E-015 ) ) ;
#24 = PLANE ( 'NONE',  #26 ) ;
#25 = CIRCLE ( 'NONE', #277, 12.20000000000000100 ) ;
#26 = AXIS2_PLACEMENT_3D ( 'NONE', #214, #191, #49 ) ;
#27 = DIRECTION ( 'NONE',  ( -1.214306433183765000E-016, 1.000000000000000000, 0.0000000000000000000 ) ) ;
#28 = COORDINATED_UNIVERSAL_TIME_OFFSET ( 9, 0, .AHEAD. ) ;
#29 = DIRECTION ( 'NONE',  ( -1.184397926594207200E-016, 1.000000000000000000, 0.0000000000000000000 ) ) ;
#30 = EDGE_LOOP ( 'NONE', ( #55, #149 ) ) ;
#31 = DIRECTION ( 'NONE',  ( 0.0000000000000000000, 0.0000000000000000000, 1.000000000000000000 ) ) ;
#32 = CIRCLE ( 'NONE', #185, 12.50000000000000900 ) ;
#33 = EDGE_CURVE ( 'NONE', #8, #67, #45, .T. ) ;
#34 =( NAMED_UNIT ( * ) SI_UNIT ( $, .STERADIAN. ) SOLID_ANGLE_UNIT ( ) );
#35 = VERTEX_POINT ( 'NONE', #235 ) ;
#36 = FACE_OUTER_BOUND ( 'NONE', #306, .T. ) ;
#37 = PERSON_AND_ORGANIZATION_ROLE ( 'creator' ) ;
#38 = DATE_AND_TIME ( #99, #163 ) ;
#39 = PRODUCT_DEFINITION ( 'UNKNOWN', '', #114, #204 ) ;
#40 = ORIENTED_EDGE ( 'NONE', *, *, #79, .F. ) ;
#41 = LINE ( 'NONE', #23, #167 ) ;
#42 = PERSON_AND_ORGANIZATION ( #292, #313 ) ;
#43 = ADVANCED_FACE ( 'NONE', ( #222 ), #97, .T. ) ;
#44 = DIRECTION ( 'NONE',  ( 0.0000000000000000000, 0.0000000000000000000, 1.000000000000000000 ) ) ;
#45 = LINE ( 'NONE', #189, #290 ) ;
#46 = EDGE_CURVE ( 'NONE', #117, #202, #41, .T. ) ;
#47 = DIRECTION ( 'NONE',  ( 1.000000000000000000, 1.184397926594207200E-016, -0.0000000000000000000 ) ) ;
#48 = PERSON_AND_ORGANIZATION ( #292, #313 ) ;
#49 = DIRECTION ( 'NONE',  ( 1.184397926594207200E-016, -1.000000000000000000, 0.0000000000000000000 ) ) ;
#50 = DIRECTION ( 'NONE',  ( 0.0000000000000000000, 1.000000000000000000, 0.0000000000000000000 ) ) ;
#51 = APPROVAL ( #10, 'UNSPECIFIED' ) ;
#52 = CARTESIAN_POINT ( 'NONE',  ( 0.9999999999999997800, -12.50000000000000000, 1.530808498934191500E-015 ) ) ;
#53 = CARTESIAN_POINT ( 'NONE',  ( 51.00000000000000000, 0.0000000000000000000, 12.50000000000000900 ) ) ;
#54 = CARTESIAN_POINT ( 'NONE',  ( 51.00000000000000000, 0.0000000000000000000, 0.0000000000000000000 ) ) ;
#55 = ORIENTED_EDGE ( 'NONE', *, *, #63, .T. ) ;
#56 = ORIENTED_EDGE ( 'NONE', *, *, #140, .T. ) ;
#57 = APPLICATION_PROTOCOL_DEFINITION ( 'international standard', 'config_control_design', 1994, #80 ) ;
#58 = COORDINATED_UNIVERSAL_TIME_OFFSET ( 9, 0, .AHEAD. ) ;
#59 = APPROVAL_STATUS ( 'not_yet_approved' ) ;
#60 = AXIS2_PLACEMENT_3D ( 'NONE', #296, #145, #4 ) ;
#61 = EDGE_LOOP ( 'NONE', ( #188, #309, #90, #133 ) ) ;
#62 = ORIENTED_EDGE ( 'NONE', *, *, #94, .F. ) ;
#63 = EDGE_CURVE ( 'NONE', #35, #202, #105, .T. ) ;
#64 = SHAPE_DEFINITION_REPRESENTATION ( #69, #148 ) ;
#65 = ADVANCED_FACE ( 'NONE', ( #36 ), #276, .T. ) ;
#66 = CC_DESIGN_APPROVAL ( #51, ( #39 ) ) ;
#67 = VERTEX_POINT ( 'NONE', #291 ) ;
#68 = CARTESIAN_POINT ( 'NONE',  ( -74.70000000000001700, -8.965892304318150300E-015, 0.0000000000000000000 ) ) ;
#69 = PRODUCT_DEFINITION_SHAPE ( 'NONE', 'NONE',  #39 ) ;
#70 = FACE_OUTER_BOUND ( 'NONE', #61, .T. ) ;
#71 = AXIS2_PLACEMENT_3D ( 'NONE', #100, #171, #29 ) ;
#72 = PLANE ( 'NONE',  #71 ) ;
#73 = DIRECTION ( 'NONE',  ( 1.000000000000000000, 1.184397926594207200E-016, -0.0000000000000000000 ) ) ;
#74 = DATE_AND_TIME ( #137, #200 ) ;
#75 = DIRECTION ( 'NONE',  ( 1.000000000000000000, 1.184397926594207200E-016, -0.0000000000000000000 ) ) ;
#76 = ORIENTED_EDGE ( 'NONE', *, *, #46, .T. ) ;
#77 = DIRECTION ( 'NONE',  ( 0.0000000000000000000, 0.0000000000000000000, 1.000000000000000000 ) ) ;
#78 = DIRECTION ( 'NONE',  ( 0.7071067811865435800, -0.7071067811865514600, 8.659560562354982200E-017 ) ) ;
#79 = EDGE_CURVE ( 'NONE', #67, #35, #87, .T. ) ;
#80 = APPLICATION_CONTEXT ( 'configuration controlled 3d designs of mechanical parts and assemblies' ) ;
#81 = PERSON_AND_ORGANIZATION_ROLE ( 'creator' ) ;
#82 = FACE_OUTER_BOUND ( 'NONE', #30, .T. ) ;
#83 = PERSON_AND_ORGANIZATION ( #292, #313 ) ;
#84 = CC_DESIGN_PERSON_AND_ORGANIZATION_ASSIGNMENT ( #48, #37, ( #39 ) ) ;
#85 = EDGE_LOOP ( 'NONE', ( #160, #76, #307, #40 ) ) ;
#86 = VECTOR ( 'NONE', #78, 1000.000000000000000 ) ;
#87 = LINE ( 'NONE', #119, #155 ) ;
#88 = AXIS2_PLACEMENT_3D ( 'NONE', #122, #73, #50 ) ;
#89 = PERSON_AND_ORGANIZATION ( #292, #313 ) ;
#90 = ORIENTED_EDGE ( 'NONE', *, *, #79, .T. ) ;
#91 = DIRECTION ( 'NONE',  ( 0.7071067811865434600, 0.7071067811865516800, 0.0000000000000000000 ) ) ;
#92 = LINE ( 'NONE', #220, #86 ) ;
#93 = DIRECTION ( 'NONE',  ( 0.0000000000000000000, 1.000000000000000000, 0.0000000000000000000 ) ) ;
#94 = EDGE_CURVE ( 'NONE', #247, #8, #25, .T. ) ;
#95 = ORIENTED_EDGE ( 'NONE', *, *, #94, .T. ) ;
#96 = DIRECTION ( 'NONE',  ( 1.000000000000000000, 1.184397926594207200E-016, -0.0000000000000000000 ) ) ;
#97 = CYLINDRICAL_SURFACE ( 'NONE', #256, 12.50000000000000400 ) ;
#98 = DIRECTION ( 'NONE',  ( 1.000000000000000000, 1.184397926594207200E-016, -0.0000000000000000000 ) ) ;
#99 = CALENDAR_DATE ( 2023, 12, 7 ) ;
#100 = CARTESIAN_POINT ( 'NONE',  ( 0.9999999999999976700, 12.50000000000000000, 0.0000000000000000000 ) ) ;
#101 = VERTEX_POINT ( 'NONE', #141 ) ;
#102 = CC_DESIGN_DATE_AND_TIME_ASSIGNMENT ( #108, #197, ( #39 ) ) ;
#103 = CARTESIAN_POINT ( 'NONE',  ( 51.00000000000000000, 0.0000000000000000000, 0.0000000000000000000 ) ) ;
#104 = DIRECTION ( 'NONE',  ( -1.000000000000000000, -0.0000000000000000000, -0.0000000000000000000 ) ) ;
#105 = CIRCLE ( 'NONE', #239, 12.50000000000000000 ) ;
#106 = DIRECTION ( 'NONE',  ( 1.000000000000000000, 0.0000000000000000000, 0.0000000000000000000 ) ) ;
#107 = SECURITY_CLASSIFICATION_LEVEL ( 'unclassified' ) ;
#108 = DATE_AND_TIME ( #168, #229 ) ;
#109 = AXIS2_PLACEMENT_3D ( 'NONE', #103, #271, #124 ) ;
#110 = EDGE_LOOP ( 'NONE', ( #116, #208 ) ) ;
#111 = EDGE_CURVE ( 'NONE', #202, #35, #213, .T. ) ;
#112 = APPROVAL_DATE_TIME ( #179, #51 ) ;
#113 = ADVANCED_FACE ( 'NONE', ( #161 ), #24, .T. ) ;
#114 = PRODUCT_DEFINITION_FORMATION_WITH_SPECIFIED_SOURCE ( 'ANY', '', #265, .NOT_KNOWN. ) ;
#115 = CARTESIAN_POINT ( 'NONE',  ( 0.9999999999999997800, 0.0000000000000000000, 12.50000000000000000 ) ) ;
#116 = ORIENTED_EDGE ( 'NONE', *, *, #248, .F. ) ;
#117 = VERTEX_POINT ( 'NONE', #121 ) ;
#118 = DIRECTION ( 'NONE',  ( -1.000000000000000000, -0.0000000000000000000, -0.0000000000000000000 ) ) ;
#119 = CARTESIAN_POINT ( 'NONE',  ( 0.9999999999999985600, 12.50000000000000000, 0.0000000000000000000 ) ) ;
#120 = APPROVAL_PERSON_ORGANIZATION ( #183, #51, #178 ) ;
#121 = CARTESIAN_POINT ( 'NONE',  ( -74.70000000000001700, -12.50000000000000700, 1.530808498934191900E-015 ) ) ;
#122 = CARTESIAN_POINT ( 'NONE',  ( -74.70000000000001700, -8.965892304318150300E-015, 0.0000000000000000000 ) ) ;
#123 = PLANE ( 'NONE',  #158 ) ;
#124 = DIRECTION ( 'NONE',  ( 0.0000000000000000000, 0.0000000000000000000, 1.000000000000000000 ) ) ;
#125 = EDGE_LOOP ( 'NONE', ( #272, #62 ) ) ;
#126 = ORIENTED_EDGE ( 'NONE', *, *, #283, .T. ) ;
#127 = CARTESIAN_POINT ( 'NONE',  ( -75.00000000000001400, -9.001424242115976100E-015, 0.0000000000000000000 ) ) ;
#128 = EDGE_CURVE ( 'NONE', #117, #67, #142, .T. ) ;
#129 = PERSON_AND_ORGANIZATION_ROLE ( 'design_owner' ) ;
#130 = DATE_TIME_ROLE ( 'classification_date' ) ;
#131 = CONICAL_SURFACE ( 'NONE', #88, 12.49999999999999800, 0.7853981633974540500 ) ;
#132 = APPROVAL ( #59, 'UNSPECIFIED' ) ;
#133 = ORIENTED_EDGE ( 'NONE', *, *, #111, .F. ) ;
#134 = CIRCLE ( 'NONE', #109, 12.50000000000000900 ) ;
#135 = AXIS2_PLACEMENT_3D ( 'NONE', #172, #194, #242 ) ;
#136 = ADVANCED_FACE ( 'NONE', ( #82 ), #72, .T. ) ;
#137 = CALENDAR_DATE ( 2023, 12, 7 ) ;
#138 = ORIENTED_EDGE ( 'NONE', *, *, #263, .T. ) ;
#139 = DIRECTION ( 'NONE',  ( 1.000000000000000000, 1.184397926594207200E-016, -0.0000000000000000000 ) ) ;
#140 = EDGE_CURVE ( 'NONE', #270, #20, #16, .T. ) ;
#141 = CARTESIAN_POINT ( 'NONE',  ( 0.9999999999999997800, 1.530808498934191700E-015, -12.50000000000000000 ) ) ;
#142 = CIRCLE ( 'NONE', #11, 12.49999999999999800 ) ;
#143 = DIRECTION ( 'NONE',  ( 1.000000000000000000, 1.184397926594207200E-016, -0.0000000000000000000 ) ) ;
#144 = DATE_AND_TIME ( #206, #279 ) ;
#145 = DIRECTION ( 'NONE',  ( -1.000000000000000000, -0.0000000000000000000, -0.0000000000000000000 ) ) ;
#146 = CC_DESIGN_APPROVAL ( #132, ( #114 ) ) ;
#147 = CARTESIAN_POINT ( 'NONE',  ( -75.00000000000001400, -12.20000000000001000, 1.512438796946981100E-015 ) ) ;
#148 = ADVANCED_BREP_SHAPE_REPRESENTATION ( '03-3182', ( #5, #201, #3 ), #216 ) ;
#149 = ORIENTED_EDGE ( 'NONE', *, *, #111, .T. ) ;
#150 = CARTESIAN_POINT ( 'NONE',  ( 51.00000000000000000, 1.530808498934192700E-015, -12.50000000000000900 ) ) ;
#151 = DIRECTION ( 'NONE',  ( -1.000000000000000000, -0.0000000000000000000, -0.0000000000000000000 ) ) ;
#152 = CIRCLE ( 'NONE', #231, 12.20000000000000100 ) ;
#153 = DIRECTION ( 'NONE',  ( 0.0000000000000000000, 1.000000000000000000, 0.0000000000000000000 ) ) ;
#154 = APPLICATION_PROTOCOL_DEFINITION ( 'international standard', 'config_control_design', 1994, #303 ) ;
#155 = VECTOR ( 'NONE', #47, 1000.000000000000000 ) ;
#156 = APPROVAL_ROLE ( '' ) ;
#157 = PERSON_AND_ORGANIZATION ( #292, #313 ) ;
#158 = AXIS2_PLACEMENT_3D ( 'NONE', #297, #6, #173 ) ;
#159 = ORIENTED_EDGE ( 'NONE', *, *, #300, .T. ) ;
#160 = ORIENTED_EDGE ( 'NONE', *, *, #15, .T. ) ;
#161 = FACE_OUTER_BOUND ( 'NONE', #125, .T. ) ;
#162 = EDGE_CURVE ( 'NONE', #20, #101, #285, .T. ) ;
#163 = LOCAL_TIME ( 16, 37, 51.00000000000000000, #225 ) ;
#164 = ADVANCED_FACE ( 'NONE', ( #198 ), #131, .T. ) ;
#165 = CC_DESIGN_PERSON_AND_ORGANIZATION_ASSIGNMENT ( #215, #81, ( #114 ) ) ;
#166 = DIRECTION ( 'NONE',  ( -1.000000000000000000, 0.0000000000000000000, -0.0000000000000000000 ) ) ;
#167 = VECTOR ( 'NONE', #190, 1000.000000000000000 ) ;
#168 = CALENDAR_DATE ( 2023, 12, 7 ) ;
#169 = DIRECTION ( 'NONE',  ( 1.000000000000000000, 1.184397926594207200E-016, -0.0000000000000000000 ) ) ;
#170 = AXIS2_PLACEMENT_3D ( 'NONE', #299, #151, #9 ) ;
#171 = DIRECTION ( 'NONE',  ( 1.000000000000000000, 1.184397926594207200E-016, -0.0000000000000000000 ) ) ;
#172 = CARTESIAN_POINT ( 'NONE',  ( 1.000000000000000000, 0.0000000000000000000, 0.0000000000000000000 ) ) ;
#173 = DIRECTION ( 'NONE',  ( 0.0000000000000000000, 0.0000000000000000000, -1.000000000000000000 ) ) ;
#174 =( LENGTH_UNIT ( ) NAMED_UNIT ( * ) SI_UNIT ( .MILLI., .METRE. ) );
#175 = EDGE_LOOP ( 'NONE', ( #212, #311, #261, #254 ) ) ;
#176 =( NAMED_UNIT ( * ) PLANE_ANGLE_UNIT ( ) SI_UNIT ( $, .RADIAN. ) );
#177 = AXIS2_PLACEMENT_3D ( 'NONE', #209, #232, #310 ) ;
#178 = APPROVAL_ROLE ( '' ) ;
#179 = DATE_AND_TIME ( #238, #308 ) ;
#180 = CC_DESIGN_PERSON_AND_ORGANIZATION_ASSIGNMENT ( #157, #252, ( #114 ) ) ;
#181 = ORIENTED_EDGE ( 'NONE', *, *, #312, .T. ) ;
#182 = EDGE_LOOP ( 'NONE', ( #221, #138, #56, #234 ) ) ;
#183 = PERSON_AND_ORGANIZATION ( #292, #313 ) ;
#184 = ADVANCED_FACE ( 'NONE', ( #70 ), #267, .T. ) ;
#185 = AXIS2_PLACEMENT_3D ( 'NONE', #54, #219, #77 ) ;
#186 = CLOSED_SHELL ( 'NONE', ( #164, #258, #113, #136, #184, #65 ) ) ;
#187 = CIRCLE ( 'NONE', #170, 12.50000000000000000 ) ;
#188 = ORIENTED_EDGE ( 'NONE', *, *, #46, .F. ) ;
#189 = CARTESIAN_POINT ( 'NONE',  ( -74.70000000000001700, 12.49999999999999100, 0.0000000000000000000 ) ) ;
#190 = DIRECTION ( 'NONE',  ( 1.000000000000000000, 1.184397926594207200E-016, -0.0000000000000000000 ) ) ;
#191 = DIRECTION ( 'NONE',  ( -1.000000000000000000, -1.184397926594207200E-016, 0.0000000000000000000 ) ) ;
#192 = VECTOR ( 'NONE', #269, 1000.000000000000000 ) ;
#193 = CARTESIAN_POINT ( 'NONE',  ( 0.0000000000000000000, 0.0000000000000000000, 12.50000000000000400 ) ) ;
#194 = DIRECTION ( 'NONE',  ( 1.000000000000000000, 1.184397926594207200E-016, -0.0000000000000000000 ) ) ;
#195 = SECURITY_CLASSIFICATION ( '', '', #107 ) ;
#196 = ORIENTED_EDGE ( 'NONE', *, *, #15, .F. ) ;
#197 = DATE_TIME_ROLE ( 'creation_date' ) ;
#198 = FACE_OUTER_BOUND ( 'NONE', #284, .T. ) ;
#199 = AXIS2_PLACEMENT_3D ( 'NONE', #244, #75, #218 ) ;
#200 = LOCAL_TIME ( 16, 37, 51.00000000000000000, #268 ) ;
#201 = MANIFOLD_SOLID_BREP ( 'È¸Àü4', #186 ) ;
#202 = VERTEX_POINT ( 'NONE', #52 ) ;
#203 = AXIS2_PLACEMENT_3D ( 'NONE', #68, #139, #93 ) ;
#204 = DESIGN_CONTEXT ( 'detailed design', #303, 'design' ) ;
#205 = VECTOR ( 'NONE', #241, 1000.000000000000000 ) ;
#206 = CALENDAR_DATE ( 2023, 12, 7 ) ;
#207 = CC_DESIGN_PERSON_AND_ORGANIZATION_ASSIGNMENT ( #89, #278, ( #195 ) ) ;
#208 = ORIENTED_EDGE ( 'NONE', *, *, #263, .F. ) ;
#209 = CARTESIAN_POINT ( 'NONE',  ( -74.70000000000001700, -8.965892304318150300E-015, 0.0000000000000000000 ) ) ;
#210 = FACE_OUTER_BOUND ( 'NONE', #175, .T. ) ;
#211 = CARTESIAN_POINT ( 'NONE',  ( 0.0000000000000000000, 0.0000000000000000000, 0.0000000000000000000 ) ) ;
#212 = ORIENTED_EDGE ( 'NONE', *, *, #248, .T. ) ;
#213 = CIRCLE ( 'NONE', #293, 12.50000000000000000 ) ;
#214 = CARTESIAN_POINT ( 'NONE',  ( -75.00000000000001400, -9.001424242115976100E-015, 0.0000000000000000000 ) ) ;
#215 = PERSON_AND_ORGANIZATION ( #292, #313 ) ;
#216 =( GEOMETRIC_REPRESENTATION_CONTEXT ( 3 ) GLOBAL_UNCERTAINTY_ASSIGNED_CONTEXT ( ( #259 ) ) GLOBAL_UNIT_ASSIGNED_CONTEXT ( ( #174, #176, #34 ) ) REPRESENTATION_CONTEXT ( 'NONE', 'WORKASPACE' ) );
#217 = CARTESIAN_POINT ( 'NONE',  ( 0.0000000000000000000, 1.530808498934191900E-015, -12.50000000000000400 ) ) ;
#218 = DIRECTION ( 'NONE',  ( -1.214306433183765000E-016, 1.000000000000000000, 0.0000000000000000000 ) ) ;
#219 = DIRECTION ( 'NONE',  ( -1.000000000000000000, -0.0000000000000000000, -0.0000000000000000000 ) ) ;
#220 = CARTESIAN_POINT ( 'NONE',  ( -74.70000000000001700, -12.50000000000000700, 1.530808498934191300E-015 ) ) ;
#221 = ORIENTED_EDGE ( 'NONE', *, *, #227, .F. ) ;
#222 = FACE_OUTER_BOUND ( 'NONE', #182, .T. ) ;
#223 = AXIS2_PLACEMENT_3D ( 'NONE', #288, #166, #22 ) ;
#224 = APPROVAL_ROLE ( '' ) ;
#225 = COORDINATED_UNIVERSAL_TIME_OFFSET ( 9, 0, .AHEAD. ) ;
#226 = CC_DESIGN_DATE_AND_TIME_ASSIGNMENT ( #144, #130, ( #195 ) ) ;
#227 = EDGE_CURVE ( 'NONE', #280, #101, #257, .T. ) ;
#228 = CIRCLE ( 'NONE', #177, 12.49999999999999800 ) ;
#229 = LOCAL_TIME ( 16, 37, 51.00000000000000000, #304 ) ;
#230 = ADVANCED_FACE ( 'NONE', ( #12 ), #123, .F. ) ;
#231 = AXIS2_PLACEMENT_3D ( 'NONE', #127, #301, #153 ) ;
#232 = DIRECTION ( 'NONE',  ( 1.000000000000000000, 1.184397926594207200E-016, -0.0000000000000000000 ) ) ;
#233 = PLANE ( 'NONE',  #223 ) ;
#234 = ORIENTED_EDGE ( 'NONE', *, *, #283, .F. ) ;
#235 = CARTESIAN_POINT ( 'NONE',  ( 0.9999999999999967800, 12.50000000000000000, 0.0000000000000000000 ) ) ;
#236 = ORIENTED_EDGE ( 'NONE', *, *, #128, .F. ) ;
#237 = CARTESIAN_POINT ( 'NONE',  ( 0.9999999999999983300, -2.098882354651478100E-031, 0.0000000000000000000 ) ) ;
#238 = CALENDAR_DATE ( 2023, 12, 7 ) ;
#239 = AXIS2_PLACEMENT_3D ( 'NONE', #237, #96, #264 ) ;
#240 = CARTESIAN_POINT ( 'NONE',  ( -75.00000000000001400, -9.001424242115976100E-015, 0.0000000000000000000 ) ) ;
#241 = DIRECTION ( 'NONE',  ( -1.000000000000000000, -0.0000000000000000000, -0.0000000000000000000 ) ) ;
#242 = DIRECTION ( 'NONE',  ( -1.214306433183765000E-016, 1.000000000000000000, 0.0000000000000000000 ) ) ;
#243 = APPROVAL ( #305, 'UNSPECIFIED' ) ;
#244 = CARTESIAN_POINT ( 'NONE',  ( 1.000000000000000000, 0.0000000000000000000, 0.0000000000000000000 ) ) ;
#245 = CARTESIAN_POINT ( 'NONE',  ( 0.0000000000000000000, 0.0000000000000000000, 0.0000000000000000000 ) ) ;
#246 = ORIENTED_EDGE ( 'NONE', *, *, #300, .F. ) ;
#247 = VERTEX_POINT ( 'NONE', #147 ) ;
#248 = EDGE_CURVE ( 'NONE', #270, #280, #134, .T. ) ;
#249 = DIRECTION ( 'NONE',  ( 0.0000000000000000000, 0.0000000000000000000, 1.000000000000000000 ) ) ;
#250 = PERSON_AND_ORGANIZATION ( #292, #313 ) ;
#251 = FACE_OUTER_BOUND ( 'NONE', #85, .T. ) ;
#252 = PERSON_AND_ORGANIZATION_ROLE ( 'design_supplier' ) ;
#253 = AXIS2_PLACEMENT_3D ( 'NONE', #245, #104, #31 ) ;
#254 = ORIENTED_EDGE ( 'NONE', *, *, #140, .F. ) ;
#255 = CLOSED_SHELL ( 'NONE', ( #286, #43, #230, #17 ) ) ;
#256 = AXIS2_PLACEMENT_3D ( 'NONE', #211, #118, #44 ) ;
#257 = LINE ( 'NONE', #217, #192 ) ;
#258 = ADVANCED_FACE ( 'NONE', ( #251 ), #282, .T. ) ;
#259 = UNCERTAINTY_MEASURE_WITH_UNIT (LENGTH_MEASURE( 1.000000000000000100E-005 ), #174, 'distance_accuracy_value', 'NONE');
#260 = CC_DESIGN_APPROVAL ( #243, ( #195 ) ) ;
#261 = ORIENTED_EDGE ( 'NONE', *, *, #162, .F. ) ;
#262 = CARTESIAN_POINT ( 'NONE',  ( -75.00000000000001400, 12.19999999999999200, 0.0000000000000000000 ) ) ;
#263 = EDGE_CURVE ( 'NONE', #280, #270, #32, .T. ) ;
#264 = DIRECTION ( 'NONE',  ( -1.214306433183765000E-016, 1.000000000000000000, 0.0000000000000000000 ) ) ;
#265 = PRODUCT ( '03-3182', '03-3182', '', ( #275 ) ) ;
#266 = DIRECTION ( 'NONE',  ( 0.0000000000000000000, 1.000000000000000000, 0.0000000000000000000 ) ) ;
#267 = CYLINDRICAL_SURFACE ( 'NONE', #135, 12.50000000000000000 ) ;
#268 = COORDINATED_UNIVERSAL_TIME_OFFSET ( 9, 0, .AHEAD. ) ;
#269 = DIRECTION ( 'NONE',  ( -1.000000000000000000, -0.0000000000000000000, -0.0000000000000000000 ) ) ;
#270 = VERTEX_POINT ( 'NONE', #53 ) ;
#271 = DIRECTION ( 'NONE',  ( -1.000000000000000000, -0.0000000000000000000, -0.0000000000000000000 ) ) ;
#272 = ORIENTED_EDGE ( 'NONE', *, *, #312, .F. ) ;
#273 = CYLINDRICAL_SURFACE ( 'NONE', #253, 12.50000000000000400 ) ;
#274 = CARTESIAN_POINT ( 'NONE',  ( 0.0000000000000000000, 0.0000000000000000000, 0.0000000000000000000 ) ) ;
#275 = MECHANICAL_CONTEXT ( 'NONE', #80, 'mechanical' ) ;
#276 = CONICAL_SURFACE ( 'NONE', #203, 12.49999999999999800, 0.7853981633974540500 ) ;
#277 = AXIS2_PLACEMENT_3D ( 'NONE', #240, #98, #266 ) ;
#278 = PERSON_AND_ORGANIZATION_ROLE ( 'classification_officer' ) ;
#279 = LOCAL_TIME ( 16, 37, 51.00000000000000000, #28 ) ;
#280 = VERTEX_POINT ( 'NONE', #150 ) ;
#281 = CC_DESIGN_SECURITY_CLASSIFICATION ( #195, ( #114 ) ) ;
#282 = CYLINDRICAL_SURFACE ( 'NONE', #199, 12.50000000000000000 ) ;
#283 = EDGE_CURVE ( 'NONE', #101, #20, #187, .T. ) ;
#284 = EDGE_LOOP ( 'NONE', ( #181, #159, #196, #7 ) ) ;
#285 = CIRCLE ( 'NONE', #60, 12.50000000000000000 ) ;
#286 = ADVANCED_FACE ( 'NONE', ( #210 ), #273, .T. ) ;
#287 = APPROVAL_DATE_TIME ( #38, #132 ) ;
#288 = CARTESIAN_POINT ( 'NONE',  ( 51.00000000000000700, 2.831068712794149200E-014, 0.0000000000000000000 ) ) ;
#289 = EDGE_LOOP ( 'NONE', ( #21, #126 ) ) ;
#290 = VECTOR ( 'NONE', #91, 999.9999999999998900 ) ;
#291 = CARTESIAN_POINT ( 'NONE',  ( -74.70000000000001700, 12.49999999999999100, 0.0000000000000000000 ) ) ;
#292 = PERSON ( 'UNSPECIFIED', 'UNSPECIFIED', 'UNSPECIFIED', ('UNSPECIFIED'), ('UNSPECIFIED'), ('UNSPECIFIED') ) ;
#293 = AXIS2_PLACEMENT_3D ( 'NONE', #1, #169, #27 ) ;
#294 = APPROVAL_PERSON_ORGANIZATION ( #42, #132, #224 ) ;
#295 = CARTESIAN_POINT ( 'NONE',  ( -74.70000000000001700, -8.965892304318150300E-015, 0.0000000000000000000 ) ) ;
#296 = CARTESIAN_POINT ( 'NONE',  ( 0.9999999999999997800, 0.0000000000000000000, 0.0000000000000000000 ) ) ;
#297 = CARTESIAN_POINT ( 'NONE',  ( 1.000000000000000400, 8.673617379884042900E-017, 0.0000000000000000000 ) ) ;
#298 = PRODUCT_RELATED_PRODUCT_CATEGORY ( 'detail', '', ( #265 ) ) ;
#299 = CARTESIAN_POINT ( 'NONE',  ( 0.9999999999999997800, 0.0000000000000000000, 0.0000000000000000000 ) ) ;
#300 = EDGE_CURVE ( 'NONE', #247, #117, #92, .T. ) ;
#301 = DIRECTION ( 'NONE',  ( 1.000000000000000000, 1.184397926594207200E-016, -0.0000000000000000000 ) ) ;
#302 = FACE_OUTER_BOUND ( 'NONE', #110, .T. ) ;
#303 = APPLICATION_CONTEXT ( 'configuration controlled 3d designs of mechanical parts and assemblies' ) ;
#304 = COORDINATED_UNIVERSAL_TIME_OFFSET ( 9, 0, .AHEAD. ) ;
#305 = APPROVAL_STATUS ( 'not_yet_approved' ) ;
#306 = EDGE_LOOP ( 'NONE', ( #246, #95, #14, #236 ) ) ;
#307 = ORIENTED_EDGE ( 'NONE', *, *, #63, .F. ) ;
#308 = LOCAL_TIME ( 16, 37, 51.00000000000000000, #58 ) ;
#309 = ORIENTED_EDGE ( 'NONE', *, *, #128, .T. ) ;
#310 = DIRECTION ( 'NONE',  ( 0.0000000000000000000, 1.000000000000000000, 0.0000000000000000000 ) ) ;
#311 = ORIENTED_EDGE ( 'NONE', *, *, #227, .T. ) ;
#312 = EDGE_CURVE ( 'NONE', #8, #247, #152, .T. ) ;
#313 = ORGANIZATION ( 'UNSPECIFIED', 'UNSPECIFIED', '' ) ;
ENDSEC;
END-ISO-10303-21;
