ISO-10303-21;
HEADER;
FILE_DESCRIPTION (( 'STEP AP203' ),
    '1' );
FILE_NAME ('03-3183.STEP',
    '2023-07-12T07:38:06',
    ( 'USER' ),
    ( 'Hewlett-Packard Company' ),
    'SwSTEP 2.0',
    'SolidWorks 2014',
    '' );
FILE_SCHEMA (( 'CONFIG_CONTROL_DESIGN' ));
ENDSEC;

DATA;
#1 = CC_DESIGN_DATE_AND_TIME_ASSIGNMENT ( #156, #78, ( #287 ) ) ;
#2 = APPROVAL_DATE_TIME ( #82, #26 ) ;
#3 = EDGE_LOOP ( 'NONE', ( #48, #93 ) ) ;
#4 = DIRECTION ( 'NONE',  ( -1.000000000000000000, -0.0000000000000000000, -0.0000000000000000000 ) ) ;
#5 = AXIS2_PLACEMENT_3D ( 'NONE', #35, #202, #63 ) ;
#6 = DIRECTION ( 'NONE',  ( 0.0000000000000000000, 0.0000000000000000000, 1.000000000000000000 ) ) ;
#7 = CARTESIAN_POINT ( 'NONE',  ( 1.000000000000000400, -3.000000000000000400, 3.673940397442060400E-016 ) ) ;
#8 = CIRCLE ( 'NONE', #176, 3.000000000000001300 ) ;
#9 = DIRECTION ( 'NONE',  ( 0.7071067811865515700, 0.7071067811865435800, 0.0000000000000000000 ) ) ;
#10 = AXIS2_PLACEMENT_3D ( 'NONE', #236, #280, #152 ) ;
#11 = DIRECTION ( 'NONE',  ( 1.000000000000000000, 1.257267565945991400E-016, -0.0000000000000000000 ) ) ;
#12 = CARTESIAN_POINT ( 'NONE',  ( 1.000000000000002700, 2.999999999999999100, 0.0000000000000000000 ) ) ;
#13 = APPROVAL_PERSON_ORGANIZATION ( #87, #26, #105 ) ;
#14 = AXIS2_PLACEMENT_3D ( 'NONE', #245, #115, #266 ) ;
#15 = EDGE_LOOP ( 'NONE', ( #222, #200, #24, #110 ) ) ;
#16 = DIRECTION ( 'NONE',  ( 1.257267565945991400E-016, -1.000000000000000000, 0.0000000000000000000 ) ) ;
#17 = CARTESIAN_POINT ( 'NONE',  ( 0.0000000000000000000, 0.0000000000000000000, 0.0000000000000000000 ) ) ;
#18 = APPLICATION_CONTEXT ( 'configuration controlled 3d designs of mechanical parts and assemblies' ) ;
#19 = PERSON_AND_ORGANIZATION_ROLE ( 'creator' ) ;
#20 = FACE_OUTER_BOUND ( 'NONE', #305, .T. ) ;
#21 = AXIS2_PLACEMENT_3D ( 'NONE', #162, #4, #140 ) ;
#22 = EDGE_CURVE ( 'NONE', #83, #76, #292, .T. ) ;
#23 = COORDINATED_UNIVERSAL_TIME_OFFSET ( 9, 0, .AHEAD. ) ;
#24 = ORIENTED_EDGE ( 'NONE', *, *, #22, .T. ) ;
#25 = ORIENTED_EDGE ( 'NONE', *, *, #114, .T. ) ;
#26 = APPROVAL ( #240, 'UNSPECIFIED' ) ;
#27 = EDGE_CURVE ( 'NONE', #76, #116, #127, .T. ) ;
#28 = ORIENTED_EDGE ( 'NONE', *, *, #40, .T. ) ;
#29 = FACE_OUTER_BOUND ( 'NONE', #62, .T. ) ;
#30 =( GEOMETRIC_REPRESENTATION_CONTEXT ( 3 ) GLOBAL_UNCERTAINTY_ASSIGNED_CONTEXT ( ( #233 ) ) GLOBAL_UNIT_ASSIGNED_CONTEXT ( ( #304, #128, #281 ) ) REPRESENTATION_CONTEXT ( 'NONE', 'WORKASPACE' ) );
#31 = DATE_AND_TIME ( #108, #168 ) ;
#32 = PRODUCT ( '03-3183', '03-3183', '', ( #216 ) ) ;
#33 = EDGE_CURVE ( 'NONE', #157, #116, #179, .T. ) ;
#34 = CARTESIAN_POINT ( 'NONE',  ( 0.0000000000000000000, 3.673940397442061800E-016, -3.000000000000001800 ) ) ;
#35 = CARTESIAN_POINT ( 'NONE',  ( 25.00000000000000000, 0.0000000000000000000, 0.0000000000000000000 ) ) ;
#36 = ORIENTED_EDGE ( 'NONE', *, *, #101, .F. ) ;
#37 = CYLINDRICAL_SURFACE ( 'NONE', #21, 3.000000000000001800 ) ;
#38 = CARTESIAN_POINT ( 'NONE',  ( 25.00000000000000000, 0.0000000000000000000, 3.000000000000004400 ) ) ;
#39 = CARTESIAN_POINT ( 'NONE',  ( 0.9999999999999995600, 3.000000000000000400, 0.0000000000000000000 ) ) ;
#40 = EDGE_CURVE ( 'NONE', #83, #157, #117, .T. ) ;
#41 = PERSON_AND_ORGANIZATION ( #57, #312 ) ;
#42 = CARTESIAN_POINT ( 'NONE',  ( -42.69999999999999600, 2.999999999999995600, 0.0000000000000000000 ) ) ;
#43 = DIRECTION ( 'NONE',  ( 1.000000000000000000, 1.257267565945991400E-016, -0.0000000000000000000 ) ) ;
#44 = ADVANCED_FACE ( 'NONE', ( #289 ), #37, .T. ) ;
#45 = DIRECTION ( 'NONE',  ( 1.000000000000000000, 1.257267565945991400E-016, -0.0000000000000000000 ) ) ;
#46 = CARTESIAN_POINT ( 'NONE',  ( 0.0000000000000000000, 0.0000000000000000000, 0.0000000000000000000 ) ) ;
#47 = EDGE_CURVE ( 'NONE', #157, #83, #111, .T. ) ;
#48 = ORIENTED_EDGE ( 'NONE', *, *, #40, .F. ) ;
#49 = VECTOR ( 'NONE', #60, 1000.000000000000000 ) ;
#50 = DIRECTION ( 'NONE',  ( 1.000000000000000000, 0.0000000000000000000, 0.0000000000000000000 ) ) ;
#51 = SECURITY_CLASSIFICATION_LEVEL ( 'unclassified' ) ;
#52 = PERSON_AND_ORGANIZATION ( #57, #312 ) ;
#53 = AXIS2_PLACEMENT_3D ( 'NONE', #17, #150, #172 ) ;
#54 = ORIENTED_EDGE ( 'NONE', *, *, #33, .T. ) ;
#55 = LINE ( 'NONE', #226, #223 ) ;
#56 = AXIS2_PLACEMENT_3D ( 'NONE', #204, #66, #230 ) ;
#57 = PERSON ( 'UNSPECIFIED', 'UNSPECIFIED', 'UNSPECIFIED', ('UNSPECIFIED'), ('UNSPECIFIED'), ('UNSPECIFIED') ) ;
#58 = COORDINATED_UNIVERSAL_TIME_OFFSET ( 9, 0, .AHEAD. ) ;
#59 = EDGE_CURVE ( 'NONE', #116, #76, #228, .T. ) ;
#60 = DIRECTION ( 'NONE',  ( -1.000000000000000000, -0.0000000000000000000, -0.0000000000000000000 ) ) ;
#61 = CARTESIAN_POINT ( 'NONE',  ( 0.0000000000000000000, 0.0000000000000000000, 3.000000000000001800 ) ) ;
#62 = EDGE_LOOP ( 'NONE', ( #291, #270, #197, #74 ) ) ;
#63 = DIRECTION ( 'NONE',  ( 0.0000000000000000000, 0.0000000000000000000, 1.000000000000000000 ) ) ;
#64 = EDGE_CURVE ( 'NONE', #282, #126, #55, .T. ) ;
#65 = DIRECTION ( 'NONE',  ( -1.000000000000000000, -0.0000000000000000000, -0.0000000000000000000 ) ) ;
#66 = DIRECTION ( 'NONE',  ( 1.000000000000000000, 1.257267565945991400E-016, -0.0000000000000000000 ) ) ;
#67 = DIRECTION ( 'NONE',  ( 1.000000000000000000, 1.257267565945991400E-016, -0.0000000000000000000 ) ) ;
#68 = FACE_OUTER_BOUND ( 'NONE', #246, .T. ) ;
#69 = CARTESIAN_POINT ( 'NONE',  ( 1.000000000000003300, 3.673940397442060400E-016, -2.999999999999999100 ) ) ;
#70 = DIRECTION ( 'NONE',  ( -1.445602896647338900E-016, 1.000000000000000000, 0.0000000000000000000 ) ) ;
#71 = ADVANCED_FACE ( 'NONE', ( #174 ), #92, .F. ) ;
#72 = CARTESIAN_POINT ( 'NONE',  ( 1.000000000000001100, 2.999999999999999100, 0.0000000000000000000 ) ) ;
#73 = EDGE_CURVE ( 'NONE', #261, #282, #104, .T. ) ;
#74 = ORIENTED_EDGE ( 'NONE', *, *, #85, .F. ) ;
#75 = CARTESIAN_POINT ( 'NONE',  ( 1.000000000000000000, 0.0000000000000000000, 0.0000000000000000000 ) ) ;
#76 = VERTEX_POINT ( 'NONE', #185 ) ;
#77 = PERSON_AND_ORGANIZATION_ROLE ( 'design_owner' ) ;
#78 = DATE_TIME_ROLE ( 'classification_date' ) ;
#79 = AXIS2_PLACEMENT_3D ( 'NONE', #247, #269, #141 ) ;
#80 = CYLINDRICAL_SURFACE ( 'NONE', #231, 3.000000000000000400 ) ;
#81 = EDGE_CURVE ( 'NONE', #134, #126, #165, .T. ) ;
#82 = DATE_AND_TIME ( #148, #198 ) ;
#83 = VERTEX_POINT ( 'NONE', #38 ) ;
#84 = ORIENTED_EDGE ( 'NONE', *, *, #85, .T. ) ;
#85 = EDGE_CURVE ( 'NONE', #261, #134, #218, .T. ) ;
#86 = VECTOR ( 'NONE', #207, 1000.000000000000000 ) ;
#87 = PERSON_AND_ORGANIZATION ( #57, #312 ) ;
#88 = ORIENTED_EDGE ( 'NONE', *, *, #96, .F. ) ;
#89 = EDGE_LOOP ( 'NONE', ( #265, #243 ) ) ;
#90 = EDGE_CURVE ( 'NONE', #126, #310, #271, .T. ) ;
#91 = PRODUCT_DEFINITION_SHAPE ( 'NONE', 'NONE',  #137 ) ;
#92 = PLANE ( 'NONE',  #79 ) ;
#93 = ORIENTED_EDGE ( 'NONE', *, *, #47, .F. ) ;
#94 = CIRCLE ( 'NONE', #112, 2.999999999999999100 ) ;
#95 = AXIS2_PLACEMENT_3D ( 'NONE', #272, #142, #295 ) ;
#96 = EDGE_CURVE ( 'NONE', #158, #310, #94, .T. ) ;
#97 = DIRECTION ( 'NONE',  ( 1.000000000000000000, 1.257267565945991400E-016, -0.0000000000000000000 ) ) ;
#98 = PERSON_AND_ORGANIZATION ( #57, #312 ) ;
#99 = ADVANCED_FACE ( 'NONE', ( #29 ), #259, .T. ) ;
#100 = CARTESIAN_POINT ( 'NONE',  ( -43.00000000000000000, 2.699999999999997500, 0.0000000000000000000 ) ) ;
#101 = EDGE_CURVE ( 'NONE', #134, #158, #262, .T. ) ;
#102 = ORIENTED_EDGE ( 'NONE', *, *, #109, .T. ) ;
#103 = APPLICATION_PROTOCOL_DEFINITION ( 'international standard', 'config_control_design', 1994, #239 ) ;
#104 = CIRCLE ( 'NONE', #56, 2.700000000000003300 ) ;
#105 = APPROVAL_ROLE ( '' ) ;
#106 = CC_DESIGN_APPROVAL ( #26, ( #287 ) ) ;
#107 = AXIS2_PLACEMENT_3D ( 'NONE', #46, #192, #50 ) ;
#108 = CALENDAR_DATE ( 2023, 12, 7 ) ;
#109 = EDGE_CURVE ( 'NONE', #282, #261, #205, .T. ) ;
#110 = ORIENTED_EDGE ( 'NONE', *, *, #59, .F. ) ;
#111 = CIRCLE ( 'NONE', #311, 3.000000000000004400 ) ;
#112 = AXIS2_PLACEMENT_3D ( 'NONE', #119, #273, #145 ) ;
#113 = DATE_AND_TIME ( #177, #232 ) ;
#114 = EDGE_CURVE ( 'NONE', #310, #158, #154, .T. ) ;
#115 = DIRECTION ( 'NONE',  ( -1.000000000000000000, -0.0000000000000000000, -0.0000000000000000000 ) ) ;
#116 = VERTEX_POINT ( 'NONE', #69 ) ;
#117 = CIRCLE ( 'NONE', #5, 3.000000000000004400 ) ;
#118 = EDGE_CURVE ( 'NONE', #126, #134, #8, .T. ) ;
#119 = CARTESIAN_POINT ( 'NONE',  ( 1.000000000000003100, 3.745733863060021900E-031, 0.0000000000000000000 ) ) ;
#120 = CC_DESIGN_SECURITY_CLASSIFICATION ( #287, ( #209 ) ) ;
#121 = APPROVAL_DATE_TIME ( #180, #155 ) ;
#122 = DIRECTION ( 'NONE',  ( 1.000000000000000000, 1.257267565945991400E-016, -0.0000000000000000000 ) ) ;
#123 = CC_DESIGN_PERSON_AND_ORGANIZATION_ASSIGNMENT ( #252, #77, ( #32 ) ) ;
#124 = CARTESIAN_POINT ( 'NONE',  ( -42.69999999999999600, -5.494259263183981800E-015, 0.0000000000000000000 ) ) ;
#125 = DIRECTION ( 'NONE',  ( -1.257267565945991400E-016, 1.000000000000000000, 0.0000000000000000000 ) ) ;
#126 = VERTEX_POINT ( 'NONE', #296 ) ;
#127 = CIRCLE ( 'NONE', #14, 2.999999999999999100 ) ;
#128 =( NAMED_UNIT ( * ) PLANE_ANGLE_UNIT ( ) SI_UNIT ( $, .RADIAN. ) );
#129 = APPROVAL_ROLE ( '' ) ;
#130 = AXIS2_PLACEMENT_3D ( 'NONE', #249, #67, #206 ) ;
#131 = APPROVAL_PERSON_ORGANIZATION ( #187, #155, #129 ) ;
#132 = FACE_OUTER_BOUND ( 'NONE', #227, .T. ) ;
#133 = ADVANCED_BREP_SHAPE_REPRESENTATION ( '03-3183', ( #181, #285, #107 ), #30 ) ;
#134 = VERTEX_POINT ( 'NONE', #42 ) ;
#135 = CONICAL_SURFACE ( 'NONE', #186, 3.000000000000001300, 0.7853981633974425100 ) ;
#136 = PRODUCT_RELATED_PRODUCT_CATEGORY ( 'detail', '', ( #32 ) ) ;
#137 = PRODUCT_DEFINITION ( 'UNKNOWN', '', #209, #221 ) ;
#138 = ORIENTED_EDGE ( 'NONE', *, *, #22, .F. ) ;
#139 = ORIENTED_EDGE ( 'NONE', *, *, #114, .F. ) ;
#140 = DIRECTION ( 'NONE',  ( 0.0000000000000000000, 0.0000000000000000000, 1.000000000000000000 ) ) ;
#141 = DIRECTION ( 'NONE',  ( -0.0000000000000000000, 0.0000000000000000000, 1.000000000000000000 ) ) ;
#142 = DIRECTION ( 'NONE',  ( 1.000000000000000000, 1.257267565945991400E-016, -0.0000000000000000000 ) ) ;
#143 = FACE_OUTER_BOUND ( 'NONE', #211, .T. ) ;
#144 = AXIS2_PLACEMENT_3D ( 'NONE', #250, #122, #275 ) ;
#145 = DIRECTION ( 'NONE',  ( -1.445602896647339700E-016, 1.000000000000000000, 0.0000000000000000000 ) ) ;
#146 = DIRECTION ( 'NONE',  ( 1.000000000000000000, 1.257267565945991400E-016, -0.0000000000000000000 ) ) ;
#147 = DIRECTION ( 'NONE',  ( 1.000000000000000000, 1.257267565945991400E-016, -0.0000000000000000000 ) ) ;
#148 = CALENDAR_DATE ( 2023, 12, 7 ) ;
#149 = ADVANCED_FACE ( 'NONE', ( #143 ), #135, .T. ) ;
#150 = DIRECTION ( 'NONE',  ( -1.000000000000000000, -0.0000000000000000000, -0.0000000000000000000 ) ) ;
#151 = ORIENTED_EDGE ( 'NONE', *, *, #90, .T. ) ;
#152 = DIRECTION ( 'NONE',  ( 0.0000000000000000000, 0.0000000000000000000, -1.000000000000000000 ) ) ;
#153 = DATE_TIME_ROLE ( 'creation_date' ) ;
#154 = CIRCLE ( 'NONE', #160, 2.999999999999999100 ) ;
#155 = APPROVAL ( #258, 'UNSPECIFIED' ) ;
#156 = DATE_AND_TIME ( #210, #263 ) ;
#157 = VERTEX_POINT ( 'NONE', #170 ) ;
#158 = VERTEX_POINT ( 'NONE', #12 ) ;
#159 = VECTOR ( 'NONE', #9, 1000.000000000000000 ) ;
#160 = AXIS2_PLACEMENT_3D ( 'NONE', #167, #11, #189 ) ;
#161 = PERSON_AND_ORGANIZATION ( #57, #312 ) ;
#162 = CARTESIAN_POINT ( 'NONE',  ( 0.0000000000000000000, 0.0000000000000000000, 0.0000000000000000000 ) ) ;
#163 = DIRECTION ( 'NONE',  ( -1.000000000000000000, -0.0000000000000000000, -0.0000000000000000000 ) ) ;
#164 = ORIENTED_EDGE ( 'NONE', *, *, #81, .T. ) ;
#165 = CIRCLE ( 'NONE', #95, 3.000000000000001300 ) ;
#166 = DIRECTION ( 'NONE',  ( 1.000000000000000000, 1.257267565945991400E-016, -0.0000000000000000000 ) ) ;
#167 = CARTESIAN_POINT ( 'NONE',  ( 1.000000000000003100, 3.745733863060021900E-031, 0.0000000000000000000 ) ) ;
#168 = LOCAL_TIME ( 16, 38, 6.000000000000000000, #224 ) ;
#169 = CC_DESIGN_APPROVAL ( #155, ( #137 ) ) ;
#170 = CARTESIAN_POINT ( 'NONE',  ( 25.00000000000000000, 3.673940397442064800E-016, -3.000000000000004400 ) ) ;
#171 = ADVANCED_FACE ( 'NONE', ( #20 ), #80, .T. ) ;
#172 = DIRECTION ( 'NONE',  ( 0.0000000000000000000, 0.0000000000000000000, 1.000000000000000000 ) ) ;
#173 = EDGE_LOOP ( 'NONE', ( #164, #151, #88, #36 ) ) ;
#174 = FACE_OUTER_BOUND ( 'NONE', #3, .T. ) ;
#175 = APPROVAL_ROLE ( '' ) ;
#176 = AXIS2_PLACEMENT_3D ( 'NONE', #234, #97, #251 ) ;
#177 = CALENDAR_DATE ( 2023, 12, 7 ) ;
#178 = EDGE_LOOP ( 'NONE', ( #288, #25 ) ) ;
#179 = LINE ( 'NONE', #34, #49 ) ;
#180 = DATE_AND_TIME ( #241, #297 ) ;
#181 = MANIFOLD_SOLID_BREP ( 'È¸Àü3', #196 ) ;
#182 = CC_DESIGN_PERSON_AND_ORGANIZATION_ASSIGNMENT ( #52, #284, ( #137 ) ) ;
#183 = ORIENTED_EDGE ( 'NONE', *, *, #64, .F. ) ;
#184 = ORIENTED_EDGE ( 'NONE', *, *, #109, .F. ) ;
#185 = CARTESIAN_POINT ( 'NONE',  ( 1.000000000000003300, 0.0000000000000000000, 2.999999999999999100 ) ) ;
#186 = AXIS2_PLACEMENT_3D ( 'NONE', #124, #146, #277 ) ;
#187 = PERSON_AND_ORGANIZATION ( #57, #312 ) ;
#188 = CYLINDRICAL_SURFACE ( 'NONE', #309, 3.000000000000000400 ) ;
#189 = DIRECTION ( 'NONE',  ( -1.445602896647339700E-016, 1.000000000000000000, 0.0000000000000000000 ) ) ;
#190 = ADVANCED_FACE ( 'NONE', ( #194 ), #255, .T. ) ;
#191 = ORIENTED_EDGE ( 'NONE', *, *, #90, .F. ) ;
#192 = DIRECTION ( 'NONE',  ( 0.0000000000000000000, 0.0000000000000000000, 1.000000000000000000 ) ) ;
#193 = PERSON_AND_ORGANIZATION_ROLE ( 'design_supplier' ) ;
#194 = FACE_OUTER_BOUND ( 'NONE', #178, .T. ) ;
#195 = CC_DESIGN_DATE_AND_TIME_ASSIGNMENT ( #113, #153, ( #137 ) ) ;
#196 = CLOSED_SHELL ( 'NONE', ( #300, #44, #278, #71 ) ) ;
#197 = ORIENTED_EDGE ( 'NONE', *, *, #81, .F. ) ;
#198 = LOCAL_TIME ( 16, 38, 6.000000000000000000, #260 ) ;
#199 = ORIENTED_EDGE ( 'NONE', *, *, #118, .F. ) ;
#200 = ORIENTED_EDGE ( 'NONE', *, *, #47, .T. ) ;
#201 = DIRECTION ( 'NONE',  ( -1.000000000000000000, -0.0000000000000000000, -0.0000000000000000000 ) ) ;
#202 = DIRECTION ( 'NONE',  ( -1.000000000000000000, -0.0000000000000000000, -0.0000000000000000000 ) ) ;
#203 = CARTESIAN_POINT ( 'NONE',  ( 1.000000000000003300, 0.0000000000000000000, 0.0000000000000000000 ) ) ;
#204 = CARTESIAN_POINT ( 'NONE',  ( -43.00000000000000000, -5.531977290162361900E-015, 0.0000000000000000000 ) ) ;
#205 = CIRCLE ( 'NONE', #144, 2.700000000000003300 ) ;
#206 = DIRECTION ( 'NONE',  ( 0.0000000000000000000, 1.000000000000000000, 0.0000000000000000000 ) ) ;
#207 = DIRECTION ( 'NONE',  ( 1.000000000000000000, 1.257267565945991400E-016, -0.0000000000000000000 ) ) ;
#208 = ADVANCED_FACE ( 'NONE', ( #68 ), #279, .T. ) ;
#209 = PRODUCT_DEFINITION_FORMATION_WITH_SPECIFIED_SOURCE ( 'ANY', '', #32, .NOT_KNOWN. ) ;
#210 = CALENDAR_DATE ( 2023, 12, 7 ) ;
#211 = EDGE_LOOP ( 'NONE', ( #183, #102, #84, #199 ) ) ;
#212 = DIRECTION ( 'NONE',  ( -1.000000000000000000, -1.257267565945991400E-016, 0.0000000000000000000 ) ) ;
#213 = ORIENTED_EDGE ( 'NONE', *, *, #73, .F. ) ;
#214 = DIRECTION ( 'NONE',  ( -1.445602896647338900E-016, 1.000000000000000000, 0.0000000000000000000 ) ) ;
#215 = CARTESIAN_POINT ( 'NONE',  ( 1.000000000000003600, -2.999999999999999100, 3.673940397442058900E-016 ) ) ;
#216 = MECHANICAL_CONTEXT ( 'NONE', #18, 'mechanical' ) ;
#217 = ORIENTED_EDGE ( 'NONE', *, *, #101, .T. ) ;
#218 = LINE ( 'NONE', #294, #159 ) ;
#219 = PERSON_AND_ORGANIZATION_ROLE ( 'classification_officer' ) ;
#220 = PERSON_AND_ORGANIZATION ( #57, #312 ) ;
#221 = DESIGN_CONTEXT ( 'detailed design', #239, 'design' ) ;
#222 = ORIENTED_EDGE ( 'NONE', *, *, #33, .F. ) ;
#223 = VECTOR ( 'NONE', #268, 1000.000000000000000 ) ;
#224 = COORDINATED_UNIVERSAL_TIME_OFFSET ( 9, 0, .AHEAD. ) ;
#225 = APPROVAL ( #307, 'UNSPECIFIED' ) ;
#226 = CARTESIAN_POINT ( 'NONE',  ( -42.69999999999999600, -3.000000000000007100, 3.673940397442061300E-016 ) ) ;
#227 = EDGE_LOOP ( 'NONE', ( #28, #54, #256, #138 ) ) ;
#228 = CIRCLE ( 'NONE', #267, 2.999999999999999100 ) ;
#229 = DIRECTION ( 'NONE',  ( 0.0000000000000000000, 0.0000000000000000000, 1.000000000000000000 ) ) ;
#230 = DIRECTION ( 'NONE',  ( 0.0000000000000000000, 1.000000000000000000, 0.0000000000000000000 ) ) ;
#231 = AXIS2_PLACEMENT_3D ( 'NONE', #301, #43, #70 ) ;
#232 = LOCAL_TIME ( 16, 38, 6.000000000000000000, #290 ) ;
#233 = UNCERTAINTY_MEASURE_WITH_UNIT (LENGTH_MEASURE( 1.000000000000000100E-005 ), #304, 'distance_accuracy_value', 'NONE');
#234 = CARTESIAN_POINT ( 'NONE',  ( -42.69999999999999600, -5.494259263183981800E-015, 0.0000000000000000000 ) ) ;
#235 = CARTESIAN_POINT ( 'NONE',  ( -43.00000000000000000, -5.531977290162361100E-015, 0.0000000000000000000 ) ) ;
#236 = CARTESIAN_POINT ( 'NONE',  ( 1.000000000000002200, -7.950815931560375400E-016, 0.0000000000000000000 ) ) ;
#237 = ORIENTED_EDGE ( 'NONE', *, *, #118, .T. ) ;
#238 = VECTOR ( 'NONE', #201, 1000.000000000000000 ) ;
#239 = APPLICATION_CONTEXT ( 'configuration controlled 3d designs of mechanical parts and assemblies' ) ;
#240 = APPROVAL_STATUS ( 'not_yet_approved' ) ;
#241 = CALENDAR_DATE ( 2023, 12, 7 ) ;
#242 = CC_DESIGN_APPROVAL ( #225, ( #209 ) ) ;
#243 = ORIENTED_EDGE ( 'NONE', *, *, #59, .T. ) ;
#244 = AXIS2_PLACEMENT_3D ( 'NONE', #72, #147, #125 ) ;
#245 = CARTESIAN_POINT ( 'NONE',  ( 1.000000000000003300, 0.0000000000000000000, 0.0000000000000000000 ) ) ;
#246 = EDGE_LOOP ( 'NONE', ( #213, #184 ) ) ;
#247 = CARTESIAN_POINT ( 'NONE',  ( 25.00000000000000000, 0.0000000000000000000, 0.0000000000000000000 ) ) ;
#248 = FACE_OUTER_BOUND ( 'NONE', #89, .T. ) ;
#249 = CARTESIAN_POINT ( 'NONE',  ( -42.69999999999999600, -5.494259263183981800E-015, 0.0000000000000000000 ) ) ;
#250 = CARTESIAN_POINT ( 'NONE',  ( -43.00000000000000000, -5.531977290162361900E-015, 0.0000000000000000000 ) ) ;
#251 = DIRECTION ( 'NONE',  ( 0.0000000000000000000, 1.000000000000000000, 0.0000000000000000000 ) ) ;
#252 = PERSON_AND_ORGANIZATION ( #57, #312 ) ;
#253 = CC_DESIGN_PERSON_AND_ORGANIZATION_ASSIGNMENT ( #220, #19, ( #209 ) ) ;
#254 = ADVANCED_FACE ( 'NONE', ( #308 ), #188, .T. ) ;
#255 = PLANE ( 'NONE',  #244 ) ;
#256 = ORIENTED_EDGE ( 'NONE', *, *, #27, .F. ) ;
#257 = CARTESIAN_POINT ( 'NONE',  ( -43.00000000000000000, -2.700000000000008600, 3.490243377569960000E-016 ) ) ;
#258 = APPROVAL_STATUS ( 'not_yet_approved' ) ;
#259 = CONICAL_SURFACE ( 'NONE', #130, 3.000000000000001300, 0.7853981633974425100 ) ;
#260 = COORDINATED_UNIVERSAL_TIME_OFFSET ( 9, 0, .AHEAD. ) ;
#261 = VERTEX_POINT ( 'NONE', #100 ) ;
#262 = LINE ( 'NONE', #39, #86 ) ;
#263 = LOCAL_TIME ( 16, 38, 6.000000000000000000, #23 ) ;
#264 = CC_DESIGN_PERSON_AND_ORGANIZATION_ASSIGNMENT ( #161, #193, ( #209 ) ) ;
#265 = ORIENTED_EDGE ( 'NONE', *, *, #27, .T. ) ;
#266 = DIRECTION ( 'NONE',  ( 0.0000000000000000000, 0.0000000000000000000, 1.000000000000000000 ) ) ;
#267 = AXIS2_PLACEMENT_3D ( 'NONE', #203, #65, #229 ) ;
#268 = DIRECTION ( 'NONE',  ( 0.7071067811865517900, -0.7071067811865433500, 8.659560562354883600E-017 ) ) ;
#269 = DIRECTION ( 'NONE',  ( -1.000000000000000000, 0.0000000000000000000, -0.0000000000000000000 ) ) ;
#270 = ORIENTED_EDGE ( 'NONE', *, *, #64, .T. ) ;
#271 = LINE ( 'NONE', #7, #283 ) ;
#272 = CARTESIAN_POINT ( 'NONE',  ( -42.69999999999999600, -5.494259263183981800E-015, 0.0000000000000000000 ) ) ;
#273 = DIRECTION ( 'NONE',  ( 1.000000000000000000, 1.257267565945991400E-016, -0.0000000000000000000 ) ) ;
#274 = AXIS2_PLACEMENT_3D ( 'NONE', #235, #212, #16 ) ;
#275 = DIRECTION ( 'NONE',  ( 0.0000000000000000000, 1.000000000000000000, 0.0000000000000000000 ) ) ;
#276 = APPROVAL_DATE_TIME ( #31, #225 ) ;
#277 = DIRECTION ( 'NONE',  ( 0.0000000000000000000, 1.000000000000000000, 0.0000000000000000000 ) ) ;
#278 = ADVANCED_FACE ( 'NONE', ( #248 ), #303, .F. ) ;
#279 = PLANE ( 'NONE',  #274 ) ;
#280 = DIRECTION ( 'NONE',  ( 1.000000000000000000, 0.0000000000000000000, 0.0000000000000000000 ) ) ;
#281 =( NAMED_UNIT ( * ) SI_UNIT ( $, .STERADIAN. ) SOLID_ANGLE_UNIT ( ) );
#282 = VERTEX_POINT ( 'NONE', #257 ) ;
#283 = VECTOR ( 'NONE', #166, 1000.000000000000000 ) ;
#284 = PERSON_AND_ORGANIZATION_ROLE ( 'creator' ) ;
#285 = MANIFOLD_SOLID_BREP ( 'È¸Àü4', #298 ) ;
#286 = APPROVAL_PERSON_ORGANIZATION ( #41, #225, #175 ) ;
#287 = SECURITY_CLASSIFICATION ( '', '', #51 ) ;
#288 = ORIENTED_EDGE ( 'NONE', *, *, #96, .T. ) ;
#289 = FACE_OUTER_BOUND ( 'NONE', #15, .T. ) ;
#290 = COORDINATED_UNIVERSAL_TIME_OFFSET ( 9, 0, .AHEAD. ) ;
#291 = ORIENTED_EDGE ( 'NONE', *, *, #73, .T. ) ;
#292 = LINE ( 'NONE', #61, #238 ) ;
#293 = CARTESIAN_POINT ( 'NONE',  ( 25.00000000000000000, 0.0000000000000000000, 0.0000000000000000000 ) ) ;
#294 = CARTESIAN_POINT ( 'NONE',  ( -42.69999999999999600, 2.999999999999995600, 0.0000000000000000000 ) ) ;
#295 = DIRECTION ( 'NONE',  ( 0.0000000000000000000, 1.000000000000000000, 0.0000000000000000000 ) ) ;
#296 = CARTESIAN_POINT ( 'NONE',  ( -42.69999999999999600, -3.000000000000007100, 3.673940397442063800E-016 ) ) ;
#297 = LOCAL_TIME ( 16, 38, 6.000000000000000000, #58 ) ;
#298 = CLOSED_SHELL ( 'NONE', ( #99, #254, #208, #190, #171, #149 ) ) ;
#299 = CYLINDRICAL_SURFACE ( 'NONE', #53, 3.000000000000001800 ) ;
#300 = ADVANCED_FACE ( 'NONE', ( #132 ), #299, .T. ) ;
#301 = CARTESIAN_POINT ( 'NONE',  ( 1.000000000000000000, 0.0000000000000000000, 0.0000000000000000000 ) ) ;
#302 = CC_DESIGN_PERSON_AND_ORGANIZATION_ASSIGNMENT ( #98, #219, ( #287 ) ) ;
#303 = PLANE ( 'NONE',  #10 ) ;
#304 =( LENGTH_UNIT ( ) NAMED_UNIT ( * ) SI_UNIT ( .MILLI., .METRE. ) );
#305 = EDGE_LOOP ( 'NONE', ( #191, #237, #217, #139 ) ) ;
#306 = APPLICATION_PROTOCOL_DEFINITION ( 'international standard', 'config_control_design', 1994, #18 ) ;
#307 = APPROVAL_STATUS ( 'not_yet_approved' ) ;
#308 = FACE_OUTER_BOUND ( 'NONE', #173, .T. ) ;
#309 = AXIS2_PLACEMENT_3D ( 'NONE', #75, #45, #214 ) ;
#310 = VERTEX_POINT ( 'NONE', #215 ) ;
#311 = AXIS2_PLACEMENT_3D ( 'NONE', #293, #163, #6 ) ;
#312 = ORGANIZATION ( 'UNSPECIFIED', 'UNSPECIFIED', '' ) ;
#313 = SHAPE_DEFINITION_REPRESENTATION ( #91, #133 ) ;
ENDSEC;
END-ISO-10303-21;
