ISO-10303-21;
HEADER;
FILE_DESCRIPTION (( 'STEP AP203' ),
    '1' );
FILE_NAME ('03-3185.STEP',
    '2023-07-12T07:38:35',
    ( 'USER' ),
    ( 'Hewlett-Packard Company' ),
    'SwSTEP 2.0',
    'SolidWorks 2014',
    '' );
FILE_SCHEMA (( 'CONFIG_CONTROL_DESIGN' ));
ENDSEC;

DATA;
#1 = VECTOR ( 'NONE', #13, 1000.000000000000000 ) ;
#2 = COORDINATED_UNIVERSAL_TIME_OFFSET ( 9, 0, .AHEAD. ) ;
#3 = VECTOR ( 'NONE', #253, 1000.000000000000000 ) ;
#4 = AXIS2_PLACEMENT_3D ( 'NONE', #178, #41, #298 ) ;
#5 = EDGE_LOOP ( 'NONE', ( #215, #128, #223, #69 ) ) ;
#6 = CIRCLE ( 'NONE', #10, 5.000000000000000000 ) ;
#7 = VERTEX_POINT ( 'NONE', #109 ) ;
#8 = DIRECTION ( 'NONE',  ( -1.000000000000000000, -0.0000000000000000000, -0.0000000000000000000 ) ) ;
#9 = FACE_OUTER_BOUND ( 'NONE', #173, .T. ) ;
#10 = AXIS2_PLACEMENT_3D ( 'NONE', #15, #177, #248 ) ;
#11 = CARTESIAN_POINT ( 'NONE',  ( 0.9999999999999997800, 0.0000000000000000000, 5.000000000000000000 ) ) ;
#12 = SHAPE_DEFINITION_REPRESENTATION ( #166, #137 ) ;
#13 = DIRECTION ( 'NONE',  ( -1.000000000000000000, -0.0000000000000000000, -0.0000000000000000000 ) ) ;
#14 = CC_DESIGN_PERSON_AND_ORGANIZATION_ASSIGNMENT ( #100, #211, ( #256 ) ) ;
#15 = CARTESIAN_POINT ( 'NONE',  ( 0.9999999999999997800, 0.0000000000000000000, 0.0000000000000000000 ) ) ;
#16 = CARTESIAN_POINT ( 'NONE',  ( 0.9999999999999997800, 6.123233995736768300E-016, -5.000000000000000000 ) ) ;
#17 = ORIENTED_EDGE ( 'NONE', *, *, #80, .F. ) ;
#18 = DIRECTION ( 'NONE',  ( 1.000000000000000000, 0.0000000000000000000, 0.0000000000000000000 ) ) ;
#19 = CARTESIAN_POINT ( 'NONE',  ( 46.00000000000000000, 6.123233995736777100E-016, -5.000000000000008900 ) ) ;
#20 = CARTESIAN_POINT ( 'NONE',  ( 1.000000000000000000, -5.000000000000000000, 6.123233995736766300E-016 ) ) ;
#21 = AXIS2_PLACEMENT_3D ( 'NONE', #52, #189, #209 ) ;
#22 = CARTESIAN_POINT ( 'NONE',  ( 46.00000000000000000, 0.0000000000000000000, 0.0000000000000000000 ) ) ;
#23 = DIRECTION ( 'NONE',  ( -1.301042606982605300E-016, 1.000000000000000000, 0.0000000000000000000 ) ) ;
#24 = DATE_AND_TIME ( #85, #145 ) ;
#25 =( LENGTH_UNIT ( ) NAMED_UNIT ( * ) SI_UNIT ( .MILLI., .METRE. ) );
#26 = VERTEX_POINT ( 'NONE', #305 ) ;
#27 = APPROVAL_STATUS ( 'not_yet_approved' ) ;
#28 = AXIS2_PLACEMENT_3D ( 'NONE', #267, #264, #148 ) ;
#29 = SECURITY_CLASSIFICATION ( '', '', #76 ) ;
#30 = LINE ( 'NONE', #131, #105 ) ;
#31 = PERSON_AND_ORGANIZATION ( #221, #255 ) ;
#32 = ORIENTED_EDGE ( 'NONE', *, *, #80, .T. ) ;
#33 = EDGE_CURVE ( 'NONE', #302, #7, #99, .T. ) ;
#34 = FACE_OUTER_BOUND ( 'NONE', #197, .T. ) ;
#35 = CARTESIAN_POINT ( 'NONE',  ( 46.00000000000000000, 0.0000000000000000000, 0.0000000000000000000 ) ) ;
#36 = CYLINDRICAL_SURFACE ( 'NONE', #28, 4.999999999999999100 ) ;
#37 = AXIS2_PLACEMENT_3D ( 'NONE', #22, #188, #162 ) ;
#38 = PERSON_AND_ORGANIZATION ( #221, #255 ) ;
#39 = CARTESIAN_POINT ( 'NONE',  ( 46.00000000000000000, 0.0000000000000000000, 5.000000000000008900 ) ) ;
#40 = ORIENTED_EDGE ( 'NONE', *, *, #54, .F. ) ;
#41 = DIRECTION ( 'NONE',  ( 1.000000000000000000, 1.193131631831312900E-016, -0.0000000000000000000 ) ) ;
#42 = DIRECTION ( 'NONE',  ( 0.0000000000000000000, 1.000000000000000000, 0.0000000000000000000 ) ) ;
#43 = CARTESIAN_POINT ( 'NONE',  ( -48.99999999999998600, -5.965658159156562900E-015, 0.0000000000000000000 ) ) ;
#44 = LINE ( 'NONE', #250, #217 ) ;
#45 = AXIS2_PLACEMENT_3D ( 'NONE', #182, #82, #295 ) ;
#46 = APPLICATION_CONTEXT ( 'configuration controlled 3d designs of mechanical parts and assemblies' ) ;
#47 = CC_DESIGN_PERSON_AND_ORGANIZATION_ASSIGNMENT ( #38, #234, ( #29 ) ) ;
#48 = ADVANCED_FACE ( 'NONE', ( #123 ), #36, .T. ) ;
#49 = CALENDAR_DATE ( 2023, 12, 7 ) ;
#50 = DIRECTION ( 'NONE',  ( 1.000000000000000000, 1.193131631831312900E-016, -0.0000000000000000000 ) ) ;
#51 = EDGE_LOOP ( 'NONE', ( #101, #176, #117, #180 ) ) ;
#52 = CARTESIAN_POINT ( 'NONE',  ( -48.69999999999999600, -5.929864210201623900E-015, 0.0000000000000000000 ) ) ;
#53 = CARTESIAN_POINT ( 'NONE',  ( 0.0000000000000000000, 0.0000000000000000000, 0.0000000000000000000 ) ) ;
#54 = EDGE_CURVE ( 'NONE', #61, #79, #237, .T. ) ;
#55 = LINE ( 'NONE', #158, #3 ) ;
#56 = PERSON_AND_ORGANIZATION_ROLE ( 'creator' ) ;
#57 = ORIENTED_EDGE ( 'NONE', *, *, #192, .F. ) ;
#58 =( GEOMETRIC_REPRESENTATION_CONTEXT ( 3 ) GLOBAL_UNCERTAINTY_ASSIGNED_CONTEXT ( ( #244 ) ) GLOBAL_UNIT_ASSIGNED_CONTEXT ( ( #25, #276, #138 ) ) REPRESENTATION_CONTEXT ( 'NONE', 'WORKASPACE' ) );
#59 = DATE_AND_TIME ( #118, #175 ) ;
#60 = EDGE_LOOP ( 'NONE', ( #94, #154 ) ) ;
#61 = VERTEX_POINT ( 'NONE', #39 ) ;
#62 = AXIS2_PLACEMENT_3D ( 'NONE', #151, #106, #269 ) ;
#63 = DIRECTION ( 'NONE',  ( 0.0000000000000000000, 0.0000000000000000000, 1.000000000000000000 ) ) ;
#64 = APPROVAL_DATE_TIME ( #124, #195 ) ;
#65 = CC_DESIGN_DATE_AND_TIME_ASSIGNMENT ( #93, #97, ( #29 ) ) ;
#66 = DIRECTION ( 'NONE',  ( -1.000000000000000000, -0.0000000000000000000, -0.0000000000000000000 ) ) ;
#67 = DIRECTION ( 'NONE',  ( -1.301042606982605300E-016, 1.000000000000000000, 0.0000000000000000000 ) ) ;
#68 = EDGE_CURVE ( 'NONE', #79, #196, #6, .T. ) ;
#69 = ORIENTED_EDGE ( 'NONE', *, *, #266, .F. ) ;
#70 = DIRECTION ( 'NONE',  ( 1.000000000000000000, 0.0000000000000000000, 0.0000000000000000000 ) ) ;
#71 = APPROVAL_PERSON_ORGANIZATION ( #130, #195, #142 ) ;
#72 = ADVANCED_FACE ( 'NONE', ( #310 ), #293, .T. ) ;
#73 = CARTESIAN_POINT ( 'NONE',  ( -48.69999999999999600, -5.000000000000004400, 6.123233995736768300E-016 ) ) ;
#74 = CARTESIAN_POINT ( 'NONE',  ( 0.9999999999999993300, -8.405335433129956000E-032, 0.0000000000000000000 ) ) ;
#75 = ORIENTED_EDGE ( 'NONE', *, *, #143, .T. ) ;
#76 = SECURITY_CLASSIFICATION_LEVEL ( 'unclassified' ) ;
#77 = AXIS2_PLACEMENT_3D ( 'NONE', #245, #8, #172 ) ;
#78 = APPROVAL ( #278, 'UNSPECIFIED' ) ;
#79 = VERTEX_POINT ( 'NONE', #11 ) ;
#80 = EDGE_CURVE ( 'NONE', #87, #196, #30, .T. ) ;
#81 = CARTESIAN_POINT ( 'NONE',  ( 1.000000000000000400, 2.168404344971010800E-016, 0.0000000000000000000 ) ) ;
#82 = DIRECTION ( 'NONE',  ( 1.000000000000000000, 1.193131631831312900E-016, -0.0000000000000000000 ) ) ;
#83 = CONICAL_SURFACE ( 'NONE', #45, 4.999999999999998200, 0.7853981633974540500 ) ;
#84 = CARTESIAN_POINT ( 'NONE',  ( 0.9999999999999991100, 5.000000000000000000, 0.0000000000000000000 ) ) ;
#85 = CALENDAR_DATE ( 2023, 12, 7 ) ;
#86 = DIRECTION ( 'NONE',  ( -1.193131631831312900E-016, 1.000000000000000000, 0.0000000000000000000 ) ) ;
#87 = VERTEX_POINT ( 'NONE', #19 ) ;
#88 = CARTESIAN_POINT ( 'NONE',  ( 1.000000000000000700, -4.999999999999999100, 6.123233995736765300E-016 ) ) ;
#89 = AXIS2_PLACEMENT_3D ( 'NONE', #35, #199, #63 ) ;
#90 = APPLICATION_PROTOCOL_DEFINITION ( 'international standard', 'config_control_design', 1994, #46 ) ;
#91 = ADVANCED_FACE ( 'NONE', ( #9 ), #83, .T. ) ;
#92 = CC_DESIGN_APPROVAL ( #78, ( #29 ) ) ;
#93 = DATE_AND_TIME ( #152, #214 ) ;
#94 = ORIENTED_EDGE ( 'NONE', *, *, #216, .T. ) ;
#95 = PERSON_AND_ORGANIZATION_ROLE ( 'design_owner' ) ;
#96 = EDGE_CURVE ( 'NONE', #61, #87, #220, .T. ) ;
#97 = DATE_TIME_ROLE ( 'classification_date' ) ;
#98 = FACE_OUTER_BOUND ( 'NONE', #249, .T. ) ;
#99 = CIRCLE ( 'NONE', #284, 4.999999999999998200 ) ;
#100 = PERSON_AND_ORGANIZATION ( #221, #255 ) ;
#101 = ORIENTED_EDGE ( 'NONE', *, *, #171, .T. ) ;
#102 = DIRECTION ( 'NONE',  ( -1.000000000000000000, -0.0000000000000000000, -0.0000000000000000000 ) ) ;
#103 = FACE_OUTER_BOUND ( 'NONE', #60, .T. ) ;
#104 = AXIS2_PLACEMENT_3D ( 'NONE', #240, #102, #265 ) ;
#105 = VECTOR ( 'NONE', #66, 1000.000000000000000 ) ;
#106 = DIRECTION ( 'NONE',  ( -1.000000000000000000, -1.193131631831312900E-016, 0.0000000000000000000 ) ) ;
#107 = LOCAL_TIME ( 16, 38, 35.00000000000000000, #168 ) ;
#108 = CC_DESIGN_SECURITY_CLASSIFICATION ( #29, ( #256 ) ) ;
#109 = CARTESIAN_POINT ( 'NONE',  ( -48.69999999999999600, 4.999999999999992000, 0.0000000000000000000 ) ) ;
#110 = PRODUCT ( '03-3185', '03-3185', '', ( #232 ) ) ;
#111 = EDGE_LOOP ( 'NONE', ( #121, #297 ) ) ;
#112 = CARTESIAN_POINT ( 'NONE',  ( 0.9999999999999993300, -8.405335433129956000E-032, 0.0000000000000000000 ) ) ;
#113 = DIRECTION ( 'NONE',  ( 0.7071067811865434600, 0.7071067811865516800, 0.0000000000000000000 ) ) ;
#114 = EDGE_CURVE ( 'NONE', #87, #61, #306, .T. ) ;
#115 = CIRCLE ( 'NONE', #212, 5.000000000000000000 ) ;
#116 = DIRECTION ( 'NONE',  ( 0.0000000000000000000, 0.0000000000000000000, 1.000000000000000000 ) ) ;
#117 = ORIENTED_EDGE ( 'NONE', *, *, #216, .F. ) ;
#118 = CALENDAR_DATE ( 2023, 12, 7 ) ;
#119 = CLOSED_SHELL ( 'NONE', ( #307, #48, #72, #230, #257, #91 ) ) ;
#120 = APPLICATION_PROTOCOL_DEFINITION ( 'international standard', 'config_control_design', 1994, #259 ) ;
#121 = ORIENTED_EDGE ( 'NONE', *, *, #68, .T. ) ;
#122 = DIRECTION ( 'NONE',  ( 1.000000000000000000, 1.193131631831312900E-016, -0.0000000000000000000 ) ) ;
#123 = FACE_OUTER_BOUND ( 'NONE', #51, .T. ) ;
#124 = DATE_AND_TIME ( #184, #247 ) ;
#125 = PRODUCT_RELATED_PRODUCT_CATEGORY ( 'detail', '', ( #110 ) ) ;
#126 = ORIENTED_EDGE ( 'NONE', *, *, #192, .T. ) ;
#127 = EDGE_CURVE ( 'NONE', #196, #79, #213, .T. ) ;
#128 = ORIENTED_EDGE ( 'NONE', *, *, #33, .T. ) ;
#129 = DIRECTION ( 'NONE',  ( 1.000000000000000000, 1.193131631831312900E-016, -0.0000000000000000000 ) ) ;
#130 = PERSON_AND_ORGANIZATION ( #221, #255 ) ;
#131 = CARTESIAN_POINT ( 'NONE',  ( 0.0000000000000000000, 6.123233995736772200E-016, -5.000000000000004400 ) ) ;
#132 = ORIENTED_EDGE ( 'NONE', *, *, #96, .T. ) ;
#133 = DIRECTION ( 'NONE',  ( 1.000000000000000000, 1.193131631831312900E-016, -0.0000000000000000000 ) ) ;
#134 = CARTESIAN_POINT ( 'NONE',  ( 0.0000000000000000000, 0.0000000000000000000, 0.0000000000000000000 ) ) ;
#135 = CARTESIAN_POINT ( 'NONE',  ( -48.69999999999999600, -5.929864210201623900E-015, 0.0000000000000000000 ) ) ;
#136 = AXIS2_PLACEMENT_3D ( 'NONE', #43, #202, #42 ) ;
#137 = ADVANCED_BREP_SHAPE_REPRESENTATION ( '03-3185', ( #193, #304, #144 ), #58 ) ;
#138 =( NAMED_UNIT ( * ) SI_UNIT ( $, .STERADIAN. ) SOLID_ANGLE_UNIT ( ) );
#139 = APPROVAL_ROLE ( '' ) ;
#140 = ADVANCED_FACE ( 'NONE', ( #285 ), #218, .F. ) ;
#141 = EDGE_LOOP ( 'NONE', ( #17, #236, #288, #201 ) ) ;
#142 = APPROVAL_ROLE ( '' ) ;
#143 = EDGE_CURVE ( 'NONE', #231, #302, #55, .T. ) ;
#144 = AXIS2_PLACEMENT_3D ( 'NONE', #53, #205, #70 ) ;
#145 = LOCAL_TIME ( 16, 38, 35.00000000000000000, #208 ) ;
#146 = FACE_OUTER_BOUND ( 'NONE', #141, .T. ) ;
#147 = ORIENTED_EDGE ( 'NONE', *, *, #96, .F. ) ;
#148 = DIRECTION ( 'NONE',  ( -1.301042606982605600E-016, 1.000000000000000000, 0.0000000000000000000 ) ) ;
#149 = AXIS2_PLACEMENT_3D ( 'NONE', #81, #18, #181 ) ;
#150 = CARTESIAN_POINT ( 'NONE',  ( 0.0000000000000000000, 0.0000000000000000000, 5.000000000000004400 ) ) ;
#151 = CARTESIAN_POINT ( 'NONE',  ( -48.99999999999998600, -5.965658159156562900E-015, 0.0000000000000000000 ) ) ;
#152 = CALENDAR_DATE ( 2023, 12, 7 ) ;
#153 = DIRECTION ( 'NONE',  ( 1.000000000000000000, 1.193131631831312900E-016, -0.0000000000000000000 ) ) ;
#154 = ORIENTED_EDGE ( 'NONE', *, *, #266, .T. ) ;
#155 = CARTESIAN_POINT ( 'NONE',  ( -48.69999999999999600, 4.999999999999992000, 0.0000000000000000000 ) ) ;
#156 = EDGE_CURVE ( 'NONE', #26, #231, #290, .T. ) ;
#157 = FACE_OUTER_BOUND ( 'NONE', #5, .T. ) ;
#158 = CARTESIAN_POINT ( 'NONE',  ( -48.69999999999999600, -5.000000000000004400, 6.123233995736764300E-016 ) ) ;
#159 = CC_DESIGN_PERSON_AND_ORGANIZATION_ASSIGNMENT ( #194, #95, ( #110 ) ) ;
#160 = ADVANCED_FACE ( 'NONE', ( #146 ), #243, .T. ) ;
#161 = PERSON_AND_ORGANIZATION ( #221, #255 ) ;
#162 = DIRECTION ( 'NONE',  ( -0.0000000000000000000, 0.0000000000000000000, 1.000000000000000000 ) ) ;
#163 = EDGE_LOOP ( 'NONE', ( #132, #32, #291, #40 ) ) ;
#164 = DATE_TIME_ROLE ( 'creation_date' ) ;
#165 = CIRCLE ( 'NONE', #246, 4.700000000000000200 ) ;
#166 = PRODUCT_DEFINITION_SHAPE ( 'NONE', 'NONE',  #174 ) ;
#167 = FACE_OUTER_BOUND ( 'NONE', #163, .T. ) ;
#168 = COORDINATED_UNIVERSAL_TIME_OFFSET ( 9, 0, .AHEAD. ) ;
#169 = ORIENTED_EDGE ( 'NONE', *, *, #254, .T. ) ;
#170 = VECTOR ( 'NONE', #113, 999.9999999999998900 ) ;
#171 = EDGE_CURVE ( 'NONE', #7, #302, #311, .T. ) ;
#172 = DIRECTION ( 'NONE',  ( 0.0000000000000000000, 0.0000000000000000000, 1.000000000000000000 ) ) ;
#173 = EDGE_LOOP ( 'NONE', ( #313, #169, #126, #210 ) ) ;
#174 = PRODUCT_DEFINITION ( 'UNKNOWN', '', #256, #303 ) ;
#175 = LOCAL_TIME ( 16, 38, 35.00000000000000000, #239 ) ;
#176 = ORIENTED_EDGE ( 'NONE', *, *, #203, .T. ) ;
#177 = DIRECTION ( 'NONE',  ( -1.000000000000000000, -0.0000000000000000000, -0.0000000000000000000 ) ) ;
#178 = CARTESIAN_POINT ( 'NONE',  ( 1.000000000000000000, 0.0000000000000000000, 0.0000000000000000000 ) ) ;
#179 = CARTESIAN_POINT ( 'NONE',  ( -48.99999999999998600, -4.700000000000006400, 5.939536975864662000E-016 ) ) ;
#180 = ORIENTED_EDGE ( 'NONE', *, *, #235, .F. ) ;
#181 = DIRECTION ( 'NONE',  ( 0.0000000000000000000, 0.0000000000000000000, -1.000000000000000000 ) ) ;
#182 = CARTESIAN_POINT ( 'NONE',  ( -48.69999999999999600, -5.929864210201623900E-015, 0.0000000000000000000 ) ) ;
#183 = AXIS2_PLACEMENT_3D ( 'NONE', #273, #133, #301 ) ;
#184 = CALENDAR_DATE ( 2023, 12, 7 ) ;
#185 = PLANE ( 'NONE',  #37 ) ;
#186 = ADVANCED_FACE ( 'NONE', ( #167 ), #233, .T. ) ;
#187 = CLOSED_SHELL ( 'NONE', ( #186, #160, #140, #277 ) ) ;
#188 = DIRECTION ( 'NONE',  ( -1.000000000000000000, 0.0000000000000000000, -0.0000000000000000000 ) ) ;
#189 = DIRECTION ( 'NONE',  ( 1.000000000000000000, 1.193131631831312900E-016, -0.0000000000000000000 ) ) ;
#190 = ORIENTED_EDGE ( 'NONE', *, *, #114, .F. ) ;
#191 = APPROVAL_ROLE ( '' ) ;
#192 = EDGE_CURVE ( 'NONE', #26, #7, #300, .T. ) ;
#193 = MANIFOLD_SOLID_BREP ( 'È¸Àü3', #187 ) ;
#194 = PERSON_AND_ORGANIZATION ( #221, #255 ) ;
#195 = APPROVAL ( #281, 'UNSPECIFIED' ) ;
#196 = VERTEX_POINT ( 'NONE', #16 ) ;
#197 = EDGE_LOOP ( 'NONE', ( #147, #190 ) ) ;
#198 = AXIS2_PLACEMENT_3D ( 'NONE', #242, #274, #116 ) ;
#199 = DIRECTION ( 'NONE',  ( -1.000000000000000000, -0.0000000000000000000, -0.0000000000000000000 ) ) ;
#200 = DIRECTION ( 'NONE',  ( 1.000000000000000000, 1.193131631831312900E-016, -0.0000000000000000000 ) ) ;
#201 = ORIENTED_EDGE ( 'NONE', *, *, #127, .F. ) ;
#202 = DIRECTION ( 'NONE',  ( 1.000000000000000000, 1.193131631831312900E-016, -0.0000000000000000000 ) ) ;
#203 = EDGE_CURVE ( 'NONE', #302, #258, #289, .T. ) ;
#204 = CONICAL_SURFACE ( 'NONE', #21, 4.999999999999998200, 0.7853981633974540500 ) ;
#205 = DIRECTION ( 'NONE',  ( 0.0000000000000000000, 0.0000000000000000000, 1.000000000000000000 ) ) ;
#206 = CC_DESIGN_APPROVAL ( #195, ( #174 ) ) ;
#207 = CARTESIAN_POINT ( 'NONE',  ( 0.9999999999999986700, 5.000000000000000000, 0.0000000000000000000 ) ) ;
#208 = COORDINATED_UNIVERSAL_TIME_OFFSET ( 9, 0, .AHEAD. ) ;
#209 = DIRECTION ( 'NONE',  ( 0.0000000000000000000, 1.000000000000000000, 0.0000000000000000000 ) ) ;
#210 = ORIENTED_EDGE ( 'NONE', *, *, #33, .F. ) ;
#211 = PERSON_AND_ORGANIZATION_ROLE ( 'design_supplier' ) ;
#212 = AXIS2_PLACEMENT_3D ( 'NONE', #112, #200, #67 ) ;
#213 = CIRCLE ( 'NONE', #104, 5.000000000000000000 ) ;
#214 = LOCAL_TIME ( 16, 38, 35.00000000000000000, #279 ) ;
#215 = ORIENTED_EDGE ( 'NONE', *, *, #203, .F. ) ;
#216 = EDGE_CURVE ( 'NONE', #280, #258, #115, .T. ) ;
#217 = VECTOR ( 'NONE', #153, 1000.000000000000000 ) ;
#218 = PLANE ( 'NONE',  #149 ) ;
#219 = CC_DESIGN_PERSON_AND_ORGANIZATION_ASSIGNMENT ( #308, #312, ( #174 ) ) ;
#220 = CIRCLE ( 'NONE', #77, 5.000000000000008900 ) ;
#221 = PERSON ( 'UNSPECIFIED', 'UNSPECIFIED', 'UNSPECIFIED', ('UNSPECIFIED'), ('UNSPECIFIED'), ('UNSPECIFIED') ) ;
#222 = APPROVAL_DATE_TIME ( #287, #268 ) ;
#223 = ORIENTED_EDGE ( 'NONE', *, *, #235, .T. ) ;
#224 = DIRECTION ( 'NONE',  ( 1.000000000000000000, 1.193131631831312900E-016, -0.0000000000000000000 ) ) ;
#225 = DIRECTION ( 'NONE',  ( 1.000000000000000000, 1.193131631831312900E-016, -0.0000000000000000000 ) ) ;
#226 = VECTOR ( 'NONE', #225, 1000.000000000000000 ) ;
#227 = ORIENTED_EDGE ( 'NONE', *, *, #171, .F. ) ;
#228 = AXIS2_PLACEMENT_3D ( 'NONE', #134, #272, #299 ) ;
#229 = APPROVAL_PERSON_ORGANIZATION ( #296, #268, #191 ) ;
#230 = ADVANCED_FACE ( 'NONE', ( #103 ), #251, .T. ) ;
#231 = VERTEX_POINT ( 'NONE', #179 ) ;
#232 = MECHANICAL_CONTEXT ( 'NONE', #46, 'mechanical' ) ;
#233 = CYLINDRICAL_SURFACE ( 'NONE', #228, 5.000000000000004400 ) ;
#234 = PERSON_AND_ORGANIZATION_ROLE ( 'classification_officer' ) ;
#235 = EDGE_CURVE ( 'NONE', #7, #280, #44, .T. ) ;
#236 = ORIENTED_EDGE ( 'NONE', *, *, #114, .T. ) ;
#237 = LINE ( 'NONE', #150, #1 ) ;
#238 = CC_DESIGN_DATE_AND_TIME_ASSIGNMENT ( #59, #164, ( #174 ) ) ;
#239 = COORDINATED_UNIVERSAL_TIME_OFFSET ( 9, 0, .AHEAD. ) ;
#240 = CARTESIAN_POINT ( 'NONE',  ( 0.9999999999999997800, 0.0000000000000000000, 0.0000000000000000000 ) ) ;
#241 = ORIENTED_EDGE ( 'NONE', *, *, #156, .F. ) ;
#242 = CARTESIAN_POINT ( 'NONE',  ( 0.0000000000000000000, 0.0000000000000000000, 0.0000000000000000000 ) ) ;
#243 = CYLINDRICAL_SURFACE ( 'NONE', #198, 5.000000000000004400 ) ;
#244 = UNCERTAINTY_MEASURE_WITH_UNIT (LENGTH_MEASURE( 1.000000000000000100E-005 ), #25, 'distance_accuracy_value', 'NONE');
#245 = CARTESIAN_POINT ( 'NONE',  ( 46.00000000000000000, 0.0000000000000000000, 0.0000000000000000000 ) ) ;
#246 = AXIS2_PLACEMENT_3D ( 'NONE', #283, #122, #260 ) ;
#247 = LOCAL_TIME ( 16, 38, 35.00000000000000000, #2 ) ;
#248 = DIRECTION ( 'NONE',  ( 0.0000000000000000000, 0.0000000000000000000, 1.000000000000000000 ) ) ;
#249 = EDGE_LOOP ( 'NONE', ( #271, #75, #227, #57 ) ) ;
#250 = CARTESIAN_POINT ( 'NONE',  ( 0.9999999999999993300, 4.999999999999999100, 0.0000000000000000000 ) ) ;
#251 = PLANE ( 'NONE',  #261 ) ;
#252 = EDGE_LOOP ( 'NONE', ( #241, #263 ) ) ;
#253 = DIRECTION ( 'NONE',  ( 0.7071067811865435800, -0.7071067811865514600, 8.659560562354982200E-017 ) ) ;
#254 = EDGE_CURVE ( 'NONE', #231, #26, #165, .T. ) ;
#255 = ORGANIZATION ( 'UNSPECIFIED', 'UNSPECIFIED', '' ) ;
#256 = PRODUCT_DEFINITION_FORMATION_WITH_SPECIFIED_SOURCE ( 'ANY', '', #110, .NOT_KNOWN. ) ;
#257 = ADVANCED_FACE ( 'NONE', ( #157 ), #275, .T. ) ;
#258 = VERTEX_POINT ( 'NONE', #20 ) ;
#259 = APPLICATION_CONTEXT ( 'configuration controlled 3d designs of mechanical parts and assemblies' ) ;
#260 = DIRECTION ( 'NONE',  ( 0.0000000000000000000, 1.000000000000000000, 0.0000000000000000000 ) ) ;
#261 = AXIS2_PLACEMENT_3D ( 'NONE', #84, #224, #86 ) ;
#262 = APPROVAL_DATE_TIME ( #24, #78 ) ;
#263 = ORIENTED_EDGE ( 'NONE', *, *, #254, .F. ) ;
#264 = DIRECTION ( 'NONE',  ( 1.000000000000000000, 1.193131631831312900E-016, -0.0000000000000000000 ) ) ;
#265 = DIRECTION ( 'NONE',  ( 0.0000000000000000000, 0.0000000000000000000, 1.000000000000000000 ) ) ;
#266 = EDGE_CURVE ( 'NONE', #258, #280, #282, .T. ) ;
#267 = CARTESIAN_POINT ( 'NONE',  ( 1.000000000000000000, 0.0000000000000000000, 0.0000000000000000000 ) ) ;
#268 = APPROVAL ( #27, 'UNSPECIFIED' ) ;
#269 = DIRECTION ( 'NONE',  ( 1.193131631831312900E-016, -1.000000000000000000, 0.0000000000000000000 ) ) ;
#270 = APPROVAL_PERSON_ORGANIZATION ( #31, #78, #139 ) ;
#271 = ORIENTED_EDGE ( 'NONE', *, *, #156, .T. ) ;
#272 = DIRECTION ( 'NONE',  ( -1.000000000000000000, -0.0000000000000000000, -0.0000000000000000000 ) ) ;
#273 = CARTESIAN_POINT ( 'NONE',  ( -48.69999999999999600, -5.929864210201623900E-015, 0.0000000000000000000 ) ) ;
#274 = DIRECTION ( 'NONE',  ( -1.000000000000000000, -0.0000000000000000000, -0.0000000000000000000 ) ) ;
#275 = CYLINDRICAL_SURFACE ( 'NONE', #4, 4.999999999999999100 ) ;
#276 =( NAMED_UNIT ( * ) PLANE_ANGLE_UNIT ( ) SI_UNIT ( $, .RADIAN. ) );
#277 = ADVANCED_FACE ( 'NONE', ( #34 ), #185, .F. ) ;
#278 = APPROVAL_STATUS ( 'not_yet_approved' ) ;
#279 = COORDINATED_UNIVERSAL_TIME_OFFSET ( 9, 0, .AHEAD. ) ;
#280 = VERTEX_POINT ( 'NONE', #207 ) ;
#281 = APPROVAL_STATUS ( 'not_yet_approved' ) ;
#282 = CIRCLE ( 'NONE', #294, 5.000000000000000000 ) ;
#283 = CARTESIAN_POINT ( 'NONE',  ( -48.99999999999998600, -5.965658159156562900E-015, 0.0000000000000000000 ) ) ;
#284 = AXIS2_PLACEMENT_3D ( 'NONE', #135, #129, #292 ) ;
#285 = FACE_OUTER_BOUND ( 'NONE', #111, .T. ) ;
#286 = CC_DESIGN_APPROVAL ( #268, ( #256 ) ) ;
#287 = DATE_AND_TIME ( #49, #107 ) ;
#288 = ORIENTED_EDGE ( 'NONE', *, *, #54, .T. ) ;
#289 = LINE ( 'NONE', #88, #226 ) ;
#290 = CIRCLE ( 'NONE', #136, 4.700000000000000200 ) ;
#291 = ORIENTED_EDGE ( 'NONE', *, *, #68, .F. ) ;
#292 = DIRECTION ( 'NONE',  ( 0.0000000000000000000, 1.000000000000000000, 0.0000000000000000000 ) ) ;
#293 = PLANE ( 'NONE',  #62 ) ;
#294 = AXIS2_PLACEMENT_3D ( 'NONE', #74, #50, #23 ) ;
#295 = DIRECTION ( 'NONE',  ( 0.0000000000000000000, 1.000000000000000000, 0.0000000000000000000 ) ) ;
#296 = PERSON_AND_ORGANIZATION ( #221, #255 ) ;
#297 = ORIENTED_EDGE ( 'NONE', *, *, #127, .T. ) ;
#298 = DIRECTION ( 'NONE',  ( -1.301042606982605600E-016, 1.000000000000000000, 0.0000000000000000000 ) ) ;
#299 = DIRECTION ( 'NONE',  ( 0.0000000000000000000, 0.0000000000000000000, 1.000000000000000000 ) ) ;
#300 = LINE ( 'NONE', #155, #170 ) ;
#301 = DIRECTION ( 'NONE',  ( 0.0000000000000000000, 1.000000000000000000, 0.0000000000000000000 ) ) ;
#302 = VERTEX_POINT ( 'NONE', #73 ) ;
#303 = DESIGN_CONTEXT ( 'detailed design', #259, 'design' ) ;
#304 = MANIFOLD_SOLID_BREP ( 'È¸Àü4', #119 ) ;
#305 = CARTESIAN_POINT ( 'NONE',  ( -48.99999999999998600, 4.699999999999994000, 0.0000000000000000000 ) ) ;
#306 = CIRCLE ( 'NONE', #89, 5.000000000000008900 ) ;
#307 = ADVANCED_FACE ( 'NONE', ( #98 ), #204, .T. ) ;
#308 = PERSON_AND_ORGANIZATION ( #221, #255 ) ;
#309 = CC_DESIGN_PERSON_AND_ORGANIZATION_ASSIGNMENT ( #161, #56, ( #256 ) ) ;
#310 = FACE_OUTER_BOUND ( 'NONE', #252, .T. ) ;
#311 = CIRCLE ( 'NONE', #183, 4.999999999999998200 ) ;
#312 = PERSON_AND_ORGANIZATION_ROLE ( 'creator' ) ;
#313 = ORIENTED_EDGE ( 'NONE', *, *, #143, .F. ) ;
ENDSEC;
END-ISO-10303-21;
