ISO-10303-21;
HEADER;
FILE_DESCRIPTION (( 'STEP AP203' ),
    '1' );
FILE_NAME ('03-3186.STEP',
    '2023-07-12T07:38:51',
    ( 'USER' ),
    ( 'Hewlett-Packard Company' ),
    'SwSTEP 2.0',
    'SolidWorks 2014',
    '' );
FILE_SCHEMA (( 'CONFIG_CONTROL_DESIGN' ));
ENDSEC;

DATA;
#1 = CLOSED_SHELL ( 'NONE', ( #245, #58, #83, #130, #271, #294 ) ) ;
#2 = EDGE_CURVE ( 'NONE', #210, #292, #152, .T. ) ;
#3 = PERSON_AND_ORGANIZATION_ROLE ( 'creator' ) ;
#4 = CARTESIAN_POINT ( 'NONE',  ( -55.99999999999999300, -6.833019897144968000E-015, 0.0000000000000000000 ) ) ;
#5 = AXIS2_PLACEMENT_3D ( 'NONE', #84, #293, #151 ) ;
#6 = VECTOR ( 'NONE', #159, 1000.000000000000000 ) ;
#7 = PERSON_AND_ORGANIZATION ( #247, #132 ) ;
#8 = VERTEX_POINT ( 'NONE', #222 ) ;
#9 = EDGE_CURVE ( 'NONE', #8, #292, #27, .T. ) ;
#10 = UNCERTAINTY_MEASURE_WITH_UNIT (LENGTH_MEASURE( 1.000000000000000100E-005 ), #23, 'distance_accuracy_value', 'NONE');
#11 = CARTESIAN_POINT ( 'NONE',  ( -55.70000000000000300, -6.797056634528415700E-015, 0.0000000000000000000 ) ) ;
#12 = CYLINDRICAL_SURFACE ( 'NONE', #262, 6.000000000000000000 ) ;
#13 = DIRECTION ( 'NONE',  ( 0.7071067811865413600, 0.7071067811865536800, 0.0000000000000000000 ) ) ;
#14 = CC_DESIGN_PERSON_AND_ORGANIZATION_ASSIGNMENT ( #74, #95, ( #112 ) ) ;
#15 = CARTESIAN_POINT ( 'NONE',  ( -55.70000000000000300, -6.000000000000007100, 7.347880794884119700E-016 ) ) ;
#16 = ORIENTED_EDGE ( 'NONE', *, *, #56, .F. ) ;
#17 = DIRECTION ( 'NONE',  ( 1.000000000000000000, 1.198775420551748800E-016, -0.0000000000000000000 ) ) ;
#18 = CYLINDRICAL_SURFACE ( 'NONE', #229, 6.000000000000005300 ) ;
#19 = AXIS2_PLACEMENT_3D ( 'NONE', #228, #92, #255 ) ;
#20 = CARTESIAN_POINT ( 'NONE',  ( -55.70000000000000300, 5.999999999999992900, 0.0000000000000000000 ) ) ;
#21 = EDGE_LOOP ( 'NONE', ( #192, #237, #298, #52 ) ) ;
#22 = LOCAL_TIME ( 16, 38, 51.00000000000000000, #90 ) ;
#23 =( LENGTH_UNIT ( ) NAMED_UNIT ( * ) SI_UNIT ( .MILLI., .METRE. ) );
#24 = CONICAL_SURFACE ( 'NONE', #190, 6.000000000000000000, 0.7853981633974569400 ) ;
#25 = EDGE_CURVE ( 'NONE', #292, #210, #93, .T. ) ;
#26 = APPROVAL_STATUS ( 'not_yet_approved' ) ;
#27 = LINE ( 'NONE', #172, #270 ) ;
#28 = DIRECTION ( 'NONE',  ( 1.000000000000000000, 1.198775420551748800E-016, -0.0000000000000000000 ) ) ;
#29 = PRODUCT_DEFINITION ( 'UNKNOWN', '', #109, #185 ) ;
#30 = ORIENTED_EDGE ( 'NONE', *, *, #304, .F. ) ;
#31 = CALENDAR_DATE ( 2023, 12, 7 ) ;
#32 = VERTEX_POINT ( 'NONE', #34 ) ;
#33 = ADVANCED_FACE ( 'NONE', ( #280 ), #18, .T. ) ;
#34 = CARTESIAN_POINT ( 'NONE',  ( 0.9999999999999995600, -6.000000000000000000, 7.347880794884119700E-016 ) ) ;
#35 = CARTESIAN_POINT ( 'NONE',  ( 54.00000000000000000, 7.347880794884130600E-016, -6.000000000000009800 ) ) ;
#36 = CARTESIAN_POINT ( 'NONE',  ( -55.99999999999999300, -6.833019897144968000E-015, 0.0000000000000000000 ) ) ;
#37 = ORIENTED_EDGE ( 'NONE', *, *, #67, .F. ) ;
#38 = DIRECTION ( 'NONE',  ( 1.000000000000000000, 1.198775420551748800E-016, -0.0000000000000000000 ) ) ;
#39 = PERSON_AND_ORGANIZATION ( #247, #132 ) ;
#40 = EDGE_CURVE ( 'NONE', #8, #76, #85, .T. ) ;
#41 = EDGE_LOOP ( 'NONE', ( #289, #163 ) ) ;
#42 = CARTESIAN_POINT ( 'NONE',  ( 0.0000000000000000000, 0.0000000000000000000, 6.000000000000005300 ) ) ;
#43 = CARTESIAN_POINT ( 'NONE',  ( 54.00000000000000000, 0.0000000000000000000, 0.0000000000000000000 ) ) ;
#44 = APPROVAL ( #288, 'UNSPECIFIED' ) ;
#45 = CARTESIAN_POINT ( 'NONE',  ( 0.9999999999999988900, -1.217306359103674800E-031, 0.0000000000000000000 ) ) ;
#46 = COORDINATED_UNIVERSAL_TIME_OFFSET ( 9, 0, .AHEAD. ) ;
#47 = CARTESIAN_POINT ( 'NONE',  ( 1.000000000000000700, -6.000000000000000000, 7.347880794884119700E-016 ) ) ;
#48 = VERTEX_POINT ( 'NONE', #35 ) ;
#49 = PERSON_AND_ORGANIZATION_ROLE ( 'creator' ) ;
#50 = AXIS2_PLACEMENT_3D ( 'NONE', #203, #68, #116 ) ;
#51 = CYLINDRICAL_SURFACE ( 'NONE', #146, 6.000000000000005300 ) ;
#52 = ORIENTED_EDGE ( 'NONE', *, *, #9, .F. ) ;
#53 = LOCAL_TIME ( 16, 38, 51.00000000000000000, #120 ) ;
#54 = PRODUCT_DEFINITION_SHAPE ( 'NONE', 'NONE',  #29 ) ;
#55 = EDGE_LOOP ( 'NONE', ( #284, #88, #158, #303 ) ) ;
#56 = EDGE_CURVE ( 'NONE', #76, #210, #263, .T. ) ;
#57 = DIRECTION ( 'NONE',  ( 1.000000000000000000, 1.198775420551748800E-016, -0.0000000000000000000 ) ) ;
#58 = ADVANCED_FACE ( 'NONE', ( #214 ), #12, .T. ) ;
#59 = DIRECTION ( 'NONE',  ( 1.000000000000000000, 1.198775420551748800E-016, -0.0000000000000000000 ) ) ;
#60 = VECTOR ( 'NONE', #87, 1000.000000000000000 ) ;
#61 = DIRECTION ( 'NONE',  ( 0.0000000000000000000, 0.0000000000000000000, 1.000000000000000000 ) ) ;
#62 = CC_DESIGN_APPROVAL ( #44, ( #29 ) ) ;
#63 = CALENDAR_DATE ( 2023, 12, 7 ) ;
#64 = CARTESIAN_POINT ( 'NONE',  ( 0.9999999999999993300, 6.000000000000000000, 0.0000000000000000000 ) ) ;
#65 = ORIENTED_EDGE ( 'NONE', *, *, #268, .F. ) ;
#66 = DIRECTION ( 'NONE',  ( 1.000000000000000000, 0.0000000000000000000, 0.0000000000000000000 ) ) ;
#67 = EDGE_CURVE ( 'NONE', #32, #243, #80, .T. ) ;
#68 = DIRECTION ( 'NONE',  ( -1.000000000000000000, -0.0000000000000000000, -0.0000000000000000000 ) ) ;
#69 = MANIFOLD_SOLID_BREP ( 'È¸Àü4', #1 ) ;
#70 = CARTESIAN_POINT ( 'NONE',  ( 0.9999999999999986700, 6.000000000000000000, 0.0000000000000000000 ) ) ;
#71 = AXIS2_PLACEMENT_3D ( 'NONE', #70, #17, #177 ) ;
#72 = LINE ( 'NONE', #42, #60 ) ;
#73 = DIRECTION ( 'NONE',  ( 0.0000000000000000000, 1.000000000000000000, 0.0000000000000000000 ) ) ;
#74 = PERSON_AND_ORGANIZATION ( #247, #132 ) ;
#75 = CARTESIAN_POINT ( 'NONE',  ( 1.000000000000000000, 0.0000000000000000000, 0.0000000000000000000 ) ) ;
#76 = VERTEX_POINT ( 'NONE', #86 ) ;
#77 = DIRECTION ( 'NONE',  ( 1.000000000000000000, 1.198775420551748800E-016, -0.0000000000000000000 ) ) ;
#78 = EDGE_CURVE ( 'NONE', #82, #219, #204, .T. ) ;
#79 = SECURITY_CLASSIFICATION_LEVEL ( 'unclassified' ) ;
#80 = CIRCLE ( 'NONE', #244, 6.000000000000000000 ) ;
#81 = CC_DESIGN_PERSON_AND_ORGANIZATION_ASSIGNMENT ( #175, #3, ( #29 ) ) ;
#82 = VERTEX_POINT ( 'NONE', #272 ) ;
#83 = ADVANCED_FACE ( 'NONE', ( #145 ), #128, .T. ) ;
#84 = CARTESIAN_POINT ( 'NONE',  ( -55.99999999999999300, -6.833019897144966400E-015, 0.0000000000000000000 ) ) ;
#85 = CIRCLE ( 'NONE', #215, 5.700000000000000200 ) ;
#86 = CARTESIAN_POINT ( 'NONE',  ( -55.99999999999999300, -5.700000000000007300, 7.164183775012016400E-016 ) ) ;
#87 = DIRECTION ( 'NONE',  ( -1.000000000000000000, -0.0000000000000000000, -0.0000000000000000000 ) ) ;
#88 = ORIENTED_EDGE ( 'NONE', *, *, #122, .T. ) ;
#89 = CARTESIAN_POINT ( 'NONE',  ( -55.70000000000000300, -6.797056634528415700E-015, 0.0000000000000000000 ) ) ;
#90 = COORDINATED_UNIVERSAL_TIME_OFFSET ( 9, 0, .AHEAD. ) ;
#91 = EDGE_CURVE ( 'NONE', #48, #275, #138, .T. ) ;
#92 = DIRECTION ( 'NONE',  ( -1.000000000000000000, -0.0000000000000000000, -0.0000000000000000000 ) ) ;
#93 = CIRCLE ( 'NONE', #178, 6.000000000000000000 ) ;
#94 = CARTESIAN_POINT ( 'NONE',  ( 0.0000000000000000000, 7.347880794884125700E-016, -6.000000000000005300 ) ) ;
#95 = PERSON_AND_ORGANIZATION_ROLE ( 'design_owner' ) ;
#96 = CC_DESIGN_DATE_AND_TIME_ASSIGNMENT ( #235, #164, ( #29 ) ) ;
#97 = CLOSED_SHELL ( 'NONE', ( #33, #171, #153, #221 ) ) ;
#98 = LOCAL_TIME ( 16, 38, 51.00000000000000000, #156 ) ;
#99 =( NAMED_UNIT ( * ) PLANE_ANGLE_UNIT ( ) SI_UNIT ( $, .RADIAN. ) );
#100 = ORIENTED_EDGE ( 'NONE', *, *, #40, .F. ) ;
#101 = DATE_TIME_ROLE ( 'classification_date' ) ;
#102 = AXIS2_PLACEMENT_3D ( 'NONE', #157, #38, #301 ) ;
#103 = EDGE_LOOP ( 'NONE', ( #176, #282, #265, #65 ) ) ;
#104 = APPROVAL_DATE_TIME ( #162, #125 ) ;
#105 = ORIENTED_EDGE ( 'NONE', *, *, #67, .T. ) ;
#106 = EDGE_CURVE ( 'NONE', #275, #48, #188, .T. ) ;
#107 = DIRECTION ( 'NONE',  ( -1.000000000000000000, -0.0000000000000000000, -0.0000000000000000000 ) ) ;
#108 = CIRCLE ( 'NONE', #173, 5.700000000000000200 ) ;
#109 = PRODUCT_DEFINITION_FORMATION_WITH_SPECIFIED_SOURCE ( 'ANY', '', #112, .NOT_KNOWN. ) ;
#110 = DIRECTION ( 'NONE',  ( 1.000000000000000000, 1.198775420551748800E-016, -0.0000000000000000000 ) ) ;
#111 = APPROVAL_PERSON_ORGANIZATION ( #169, #125, #187 ) ;
#112 = PRODUCT ( '03-3186', '03-3186', '', ( #308 ) ) ;
#113 = PLANE ( 'NONE',  #160 ) ;
#114 = ORIENTED_EDGE ( 'NONE', *, *, #78, .T. ) ;
#115 = PLANE ( 'NONE',  #71 ) ;
#116 = DIRECTION ( 'NONE',  ( 0.0000000000000000000, 0.0000000000000000000, 1.000000000000000000 ) ) ;
#117 = AXIS2_PLACEMENT_3D ( 'NONE', #200, #66, #226 ) ;
#118 = APPLICATION_PROTOCOL_DEFINITION ( 'international standard', 'config_control_design', 1994, #257 ) ;
#119 = EDGE_LOOP ( 'NONE', ( #30, #133, #170, #37 ) ) ;
#120 = COORDINATED_UNIVERSAL_TIME_OFFSET ( 9, 0, .AHEAD. ) ;
#121 = ORIENTED_EDGE ( 'NONE', *, *, #249, .T. ) ;
#122 = EDGE_CURVE ( 'NONE', #48, #82, #256, .T. ) ;
#123 = FACE_OUTER_BOUND ( 'NONE', #21, .T. ) ;
#124 = ORIENTED_EDGE ( 'NONE', *, *, #136, .T. ) ;
#125 = APPROVAL ( #26, 'UNSPECIFIED' ) ;
#126 = LOCAL_TIME ( 16, 38, 51.00000000000000000, #181 ) ;
#127 = ORIENTED_EDGE ( 'NONE', *, *, #122, .F. ) ;
#128 = PLANE ( 'NONE',  #5 ) ;
#129 = CARTESIAN_POINT ( 'NONE',  ( 1.000000000000000000, 0.0000000000000000000, 0.0000000000000000000 ) ) ;
#130 = ADVANCED_FACE ( 'NONE', ( #131 ), #115, .T. ) ;
#131 = FACE_OUTER_BOUND ( 'NONE', #141, .T. ) ;
#132 = ORGANIZATION ( 'UNSPECIFIED', 'UNSPECIFIED', '' ) ;
#133 = ORIENTED_EDGE ( 'NONE', *, *, #2, .T. ) ;
#134 = DIRECTION ( 'NONE',  ( -1.000000000000000000, 0.0000000000000000000, -0.0000000000000000000 ) ) ;
#135 = CARTESIAN_POINT ( 'NONE',  ( -55.70000000000000300, -6.000000000000008000, 7.347880794884123700E-016 ) ) ;
#136 = EDGE_CURVE ( 'NONE', #219, #82, #179, .T. ) ;
#137 = DIRECTION ( 'NONE',  ( 0.0000000000000000000, 0.0000000000000000000, 1.000000000000000000 ) ) ;
#138 = CIRCLE ( 'NONE', #295, 6.000000000000009800 ) ;
#139 = DIRECTION ( 'NONE',  ( 1.000000000000000000, 0.0000000000000000000, 0.0000000000000000000 ) ) ;
#140 = CC_DESIGN_APPROVAL ( #125, ( #109 ) ) ;
#141 = EDGE_LOOP ( 'NONE', ( #252, #105 ) ) ;
#142 = APPROVAL_ROLE ( '' ) ;
#143 = APPROVAL_DATE_TIME ( #201, #234 ) ;
#144 = APPROVAL_ROLE ( '' ) ;
#145 = FACE_OUTER_BOUND ( 'NONE', #184, .T. ) ;
#146 = AXIS2_PLACEMENT_3D ( 'NONE', #305, #279, #137 ) ;
#147 = ORIENTED_EDGE ( 'NONE', *, *, #249, .F. ) ;
#148 = APPROVAL_PERSON_ORGANIZATION ( #212, #234, #142 ) ;
#149 = DIRECTION ( 'NONE',  ( 0.0000000000000000000, 1.000000000000000000, 0.0000000000000000000 ) ) ;
#150 = EDGE_CURVE ( 'NONE', #275, #219, #72, .T. ) ;
#151 = DIRECTION ( 'NONE',  ( 1.198775420551748800E-016, -1.000000000000000000, 0.0000000000000000000 ) ) ;
#152 = CIRCLE ( 'NONE', #165, 6.000000000000000000 ) ;
#153 = ADVANCED_FACE ( 'NONE', ( #240 ), #254, .F. ) ;
#154 = ORIENTED_EDGE ( 'NONE', *, *, #78, .F. ) ;
#155 = CC_DESIGN_PERSON_AND_ORGANIZATION_ASSIGNMENT ( #39, #49, ( #109 ) ) ;
#156 = COORDINATED_UNIVERSAL_TIME_OFFSET ( 9, 0, .AHEAD. ) ;
#157 = CARTESIAN_POINT ( 'NONE',  ( -55.70000000000000300, -6.797056634528415700E-015, 0.0000000000000000000 ) ) ;
#158 = ORIENTED_EDGE ( 'NONE', *, *, #136, .F. ) ;
#159 = DIRECTION ( 'NONE',  ( -1.000000000000000000, -0.0000000000000000000, -0.0000000000000000000 ) ) ;
#160 = AXIS2_PLACEMENT_3D ( 'NONE', #277, #134, #302 ) ;
#161 = APPLICATION_PROTOCOL_DEFINITION ( 'international standard', 'config_control_design', 1994, #180 ) ;
#162 = DATE_AND_TIME ( #225, #291 ) ;
#163 = ORIENTED_EDGE ( 'NONE', *, *, #91, .F. ) ;
#164 = DATE_TIME_ROLE ( 'creation_date' ) ;
#165 = AXIS2_PLACEMENT_3D ( 'NONE', #11, #59, #149 ) ;
#166 = DIRECTION ( 'NONE',  ( 1.000000000000000000, 1.198775420551748800E-016, -0.0000000000000000000 ) ) ;
#167 = CIRCLE ( 'NONE', #208, 6.000000000000000000 ) ;
#168 = CC_DESIGN_PERSON_AND_ORGANIZATION_ASSIGNMENT ( #286, #213, ( #109 ) ) ;
#169 = PERSON_AND_ORGANIZATION ( #247, #132 ) ;
#170 = ORIENTED_EDGE ( 'NONE', *, *, #268, .T. ) ;
#171 = ADVANCED_FACE ( 'NONE', ( #174 ), #51, .T. ) ;
#172 = CARTESIAN_POINT ( 'NONE',  ( -55.70000000000000300, 5.999999999999992900, 0.0000000000000000000 ) ) ;
#173 = AXIS2_PLACEMENT_3D ( 'NONE', #4, #232, #73 ) ;
#174 = FACE_OUTER_BOUND ( 'NONE', #227, .T. ) ;
#175 = PERSON_AND_ORGANIZATION ( #247, #132 ) ;
#176 = ORIENTED_EDGE ( 'NONE', *, *, #25, .T. ) ;
#177 = DIRECTION ( 'NONE',  ( -1.198775420551748800E-016, 1.000000000000000000, 0.0000000000000000000 ) ) ;
#178 = AXIS2_PLACEMENT_3D ( 'NONE', #89, #110, #276 ) ;
#179 = CIRCLE ( 'NONE', #50, 6.000000000000000000 ) ;
#180 = APPLICATION_CONTEXT ( 'configuration controlled 3d designs of mechanical parts and assemblies' ) ;
#181 = COORDINATED_UNIVERSAL_TIME_OFFSET ( 9, 0, .AHEAD. ) ;
#182 = SECURITY_CLASSIFICATION ( '', '', #79 ) ;
#183 = DIRECTION ( 'NONE',  ( 1.000000000000000000, 1.198775420551748800E-016, -0.0000000000000000000 ) ) ;
#184 = EDGE_LOOP ( 'NONE', ( #100, #147 ) ) ;
#185 = DESIGN_CONTEXT ( 'detailed design', #257, 'design' ) ;
#186 = CARTESIAN_POINT ( 'NONE',  ( 0.0000000000000000000, 0.0000000000000000000, 0.0000000000000000000 ) ) ;
#187 = APPROVAL_ROLE ( '' ) ;
#188 = CIRCLE ( 'NONE', #19, 6.000000000000009800 ) ;
#189 = EDGE_LOOP ( 'NONE', ( #124, #114 ) ) ;
#190 = AXIS2_PLACEMENT_3D ( 'NONE', #209, #77, #313 ) ;
#191 = SHAPE_DEFINITION_REPRESENTATION ( #54, #206 ) ;
#192 = ORIENTED_EDGE ( 'NONE', *, *, #40, .T. ) ;
#193 = AXIS2_PLACEMENT_3D ( 'NONE', #248, #107, #274 ) ;
#194 = VECTOR ( 'NONE', #230, 1000.000000000000000 ) ;
#195 = CARTESIAN_POINT ( 'NONE',  ( 0.0000000000000000000, 0.0000000000000000000, 0.0000000000000000000 ) ) ;
#196 = DIRECTION ( 'NONE',  ( 1.000000000000000000, 1.198775420551748800E-016, -0.0000000000000000000 ) ) ;
#197 = CC_DESIGN_PERSON_AND_ORGANIZATION_ASSIGNMENT ( #218, #238, ( #182 ) ) ;
#198 = DIRECTION ( 'NONE',  ( -1.000000000000000000, -0.0000000000000000000, -0.0000000000000000000 ) ) ;
#199 = ORIENTED_EDGE ( 'NONE', *, *, #2, .F. ) ;
#200 = CARTESIAN_POINT ( 'NONE',  ( 1.000000000000000400, 1.807003620809175600E-016, 0.0000000000000000000 ) ) ;
#201 = DATE_AND_TIME ( #267, #22 ) ;
#202 = FACE_OUTER_BOUND ( 'NONE', #216, .T. ) ;
#203 = CARTESIAN_POINT ( 'NONE',  ( 0.9999999999999997800, 0.0000000000000000000, 0.0000000000000000000 ) ) ;
#204 = CIRCLE ( 'NONE', #193, 6.000000000000000000 ) ;
#205 = DIRECTION ( 'NONE',  ( -1.000000000000000000, -0.0000000000000000000, -0.0000000000000000000 ) ) ;
#206 = ADVANCED_BREP_SHAPE_REPRESENTATION ( '03-3186', ( #264, #69, #310 ), #241 ) ;
#207 = DIRECTION ( 'NONE',  ( 0.0000000000000000000, 1.000000000000000000, 0.0000000000000000000 ) ) ;
#208 = AXIS2_PLACEMENT_3D ( 'NONE', #45, #183, #236 ) ;
#209 = CARTESIAN_POINT ( 'NONE',  ( -55.70000000000000300, -6.797056634528415700E-015, 0.0000000000000000000 ) ) ;
#210 = VERTEX_POINT ( 'NONE', #135 ) ;
#211 = DIRECTION ( 'NONE',  ( 1.000000000000000000, 1.198775420551748800E-016, -0.0000000000000000000 ) ) ;
#212 = PERSON_AND_ORGANIZATION ( #247, #132 ) ;
#213 = PERSON_AND_ORGANIZATION_ROLE ( 'design_supplier' ) ;
#214 = FACE_OUTER_BOUND ( 'NONE', #103, .T. ) ;
#215 = AXIS2_PLACEMENT_3D ( 'NONE', #36, #196, #207 ) ;
#216 = EDGE_LOOP ( 'NONE', ( #16, #121, #290, #199 ) ) ;
#217 = CC_DESIGN_DATE_AND_TIME_ASSIGNMENT ( #278, #101, ( #182 ) ) ;
#218 = PERSON_AND_ORGANIZATION ( #247, #132 ) ;
#219 = VERTEX_POINT ( 'NONE', #281 ) ;
#220 = DIRECTION ( 'NONE',  ( -1.084202172485504400E-016, 1.000000000000000000, 0.0000000000000000000 ) ) ;
#221 = ADVANCED_FACE ( 'NONE', ( #246 ), #113, .F. ) ;
#222 = CARTESIAN_POINT ( 'NONE',  ( -55.99999999999999300, 5.699999999999993100, 0.0000000000000000000 ) ) ;
#223 = AXIS2_PLACEMENT_3D ( 'NONE', #75, #166, #233 ) ;
#224 = DIRECTION ( 'NONE',  ( 1.000000000000000000, 1.198775420551748800E-016, -0.0000000000000000000 ) ) ;
#225 = CALENDAR_DATE ( 2023, 12, 7 ) ;
#226 = DIRECTION ( 'NONE',  ( 0.0000000000000000000, 0.0000000000000000000, -1.000000000000000000 ) ) ;
#227 = EDGE_LOOP ( 'NONE', ( #127, #259, #309, #154 ) ) ;
#228 = CARTESIAN_POINT ( 'NONE',  ( 54.00000000000000000, 0.0000000000000000000, 0.0000000000000000000 ) ) ;
#229 = AXIS2_PLACEMENT_3D ( 'NONE', #195, #198, #61 ) ;
#230 = DIRECTION ( 'NONE',  ( 0.7071067811865415800, -0.7071067811865535700, 8.659560562355008000E-017 ) ) ;
#231 = VECTOR ( 'NONE', #28, 1000.000000000000000 ) ;
#232 = DIRECTION ( 'NONE',  ( 1.000000000000000000, 1.198775420551748800E-016, -0.0000000000000000000 ) ) ;
#233 = DIRECTION ( 'NONE',  ( -1.084202172485504400E-016, 1.000000000000000000, 0.0000000000000000000 ) ) ;
#234 = APPROVAL ( #261, 'UNSPECIFIED' ) ;
#235 = DATE_AND_TIME ( #300, #53 ) ;
#236 = DIRECTION ( 'NONE',  ( -1.084202172485504400E-016, 1.000000000000000000, 0.0000000000000000000 ) ) ;
#237 = ORIENTED_EDGE ( 'NONE', *, *, #56, .T. ) ;
#238 = PERSON_AND_ORGANIZATION_ROLE ( 'classification_officer' ) ;
#239 = CYLINDRICAL_SURFACE ( 'NONE', #223, 6.000000000000000000 ) ;
#240 = FACE_OUTER_BOUND ( 'NONE', #189, .T. ) ;
#241 =( GEOMETRIC_REPRESENTATION_CONTEXT ( 3 ) GLOBAL_UNCERTAINTY_ASSIGNED_CONTEXT ( ( #10 ) ) GLOBAL_UNIT_ASSIGNED_CONTEXT ( ( #23, #99, #260 ) ) REPRESENTATION_CONTEXT ( 'NONE', 'WORKASPACE' ) );
#242 = APPROVAL_DATE_TIME ( #312, #44 ) ;
#243 = VERTEX_POINT ( 'NONE', #253 ) ;
#244 = AXIS2_PLACEMENT_3D ( 'NONE', #297, #57, #220 ) ;
#245 = ADVANCED_FACE ( 'NONE', ( #123 ), #269, .T. ) ;
#246 = FACE_OUTER_BOUND ( 'NONE', #41, .T. ) ;
#247 = PERSON ( 'UNSPECIFIED', 'UNSPECIFIED', 'UNSPECIFIED', ('UNSPECIFIED'), ('UNSPECIFIED'), ('UNSPECIFIED') ) ;
#248 = CARTESIAN_POINT ( 'NONE',  ( 0.9999999999999997800, 0.0000000000000000000, 0.0000000000000000000 ) ) ;
#249 = EDGE_CURVE ( 'NONE', #76, #8, #108, .T. ) ;
#250 = APPROVAL_PERSON_ORGANIZATION ( #7, #44, #144 ) ;
#251 = CC_DESIGN_APPROVAL ( #234, ( #182 ) ) ;
#252 = ORIENTED_EDGE ( 'NONE', *, *, #287, .T. ) ;
#253 = CARTESIAN_POINT ( 'NONE',  ( 0.9999999999999983300, 6.000000000000000000, 0.0000000000000000000 ) ) ;
#254 = PLANE ( 'NONE',  #117 ) ;
#255 = DIRECTION ( 'NONE',  ( 0.0000000000000000000, 0.0000000000000000000, 1.000000000000000000 ) ) ;
#256 = LINE ( 'NONE', #94, #6 ) ;
#257 = APPLICATION_CONTEXT ( 'configuration controlled 3d designs of mechanical parts and assemblies' ) ;
#258 = CARTESIAN_POINT ( 'NONE',  ( 54.00000000000000000, 0.0000000000000000000, 6.000000000000009800 ) ) ;
#259 = ORIENTED_EDGE ( 'NONE', *, *, #91, .T. ) ;
#260 =( NAMED_UNIT ( * ) SI_UNIT ( $, .STERADIAN. ) SOLID_ANGLE_UNIT ( ) );
#261 = APPROVAL_STATUS ( 'not_yet_approved' ) ;
#262 = AXIS2_PLACEMENT_3D ( 'NONE', #129, #224, #296 ) ;
#263 = LINE ( 'NONE', #15, #194 ) ;
#264 = MANIFOLD_SOLID_BREP ( 'È¸Àü3', #97 ) ;
#265 = ORIENTED_EDGE ( 'NONE', *, *, #287, .F. ) ;
#266 = CC_DESIGN_SECURITY_CLASSIFICATION ( #182, ( #109 ) ) ;
#267 = CALENDAR_DATE ( 2023, 12, 7 ) ;
#268 = EDGE_CURVE ( 'NONE', #292, #243, #307, .T. ) ;
#269 = CONICAL_SURFACE ( 'NONE', #102, 6.000000000000000000, 0.7853981633974569400 ) ;
#270 = VECTOR ( 'NONE', #13, 1000.000000000000100 ) ;
#271 = ADVANCED_FACE ( 'NONE', ( #299 ), #239, .T. ) ;
#272 = CARTESIAN_POINT ( 'NONE',  ( 0.9999999999999997800, 7.347880794884123700E-016, -6.000000000000000000 ) ) ;
#273 = VECTOR ( 'NONE', #211, 1000.000000000000000 ) ;
#274 = DIRECTION ( 'NONE',  ( 0.0000000000000000000, 0.0000000000000000000, 1.000000000000000000 ) ) ;
#275 = VERTEX_POINT ( 'NONE', #258 ) ;
#276 = DIRECTION ( 'NONE',  ( 0.0000000000000000000, 1.000000000000000000, 0.0000000000000000000 ) ) ;
#277 = CARTESIAN_POINT ( 'NONE',  ( 54.00000000000000000, 0.0000000000000000000, 0.0000000000000000000 ) ) ;
#278 = DATE_AND_TIME ( #31, #98 ) ;
#279 = DIRECTION ( 'NONE',  ( -1.000000000000000000, -0.0000000000000000000, -0.0000000000000000000 ) ) ;
#280 = FACE_OUTER_BOUND ( 'NONE', #55, .T. ) ;
#281 = CARTESIAN_POINT ( 'NONE',  ( 0.9999999999999997800, 0.0000000000000000000, 6.000000000000000000 ) ) ;
#282 = ORIENTED_EDGE ( 'NONE', *, *, #304, .T. ) ;
#283 = DIRECTION ( 'NONE',  ( 0.0000000000000000000, 0.0000000000000000000, 1.000000000000000000 ) ) ;
#284 = ORIENTED_EDGE ( 'NONE', *, *, #106, .T. ) ;
#285 = PRODUCT_RELATED_PRODUCT_CATEGORY ( 'detail', '', ( #112 ) ) ;
#286 = PERSON_AND_ORGANIZATION ( #247, #132 ) ;
#287 = EDGE_CURVE ( 'NONE', #243, #32, #167, .T. ) ;
#288 = APPROVAL_STATUS ( 'not_yet_approved' ) ;
#289 = ORIENTED_EDGE ( 'NONE', *, *, #106, .F. ) ;
#290 = ORIENTED_EDGE ( 'NONE', *, *, #9, .T. ) ;
#291 = LOCAL_TIME ( 16, 38, 51.00000000000000000, #46 ) ;
#292 = VERTEX_POINT ( 'NONE', #20 ) ;
#293 = DIRECTION ( 'NONE',  ( -1.000000000000000000, -1.198775420551748800E-016, 0.0000000000000000000 ) ) ;
#294 = ADVANCED_FACE ( 'NONE', ( #202 ), #24, .T. ) ;
#295 = AXIS2_PLACEMENT_3D ( 'NONE', #43, #205, #306 ) ;
#296 = DIRECTION ( 'NONE',  ( -1.084202172485504400E-016, 1.000000000000000000, 0.0000000000000000000 ) ) ;
#297 = CARTESIAN_POINT ( 'NONE',  ( 0.9999999999999988900, -1.217306359103674800E-031, 0.0000000000000000000 ) ) ;
#298 = ORIENTED_EDGE ( 'NONE', *, *, #25, .F. ) ;
#299 = FACE_OUTER_BOUND ( 'NONE', #119, .T. ) ;
#300 = CALENDAR_DATE ( 2023, 12, 7 ) ;
#301 = DIRECTION ( 'NONE',  ( 0.0000000000000000000, 1.000000000000000000, 0.0000000000000000000 ) ) ;
#302 = DIRECTION ( 'NONE',  ( -0.0000000000000000000, 0.0000000000000000000, 1.000000000000000000 ) ) ;
#303 = ORIENTED_EDGE ( 'NONE', *, *, #150, .F. ) ;
#304 = EDGE_CURVE ( 'NONE', #210, #32, #311, .T. ) ;
#305 = CARTESIAN_POINT ( 'NONE',  ( 0.0000000000000000000, 0.0000000000000000000, 0.0000000000000000000 ) ) ;
#306 = DIRECTION ( 'NONE',  ( 0.0000000000000000000, 0.0000000000000000000, 1.000000000000000000 ) ) ;
#307 = LINE ( 'NONE', #64, #231 ) ;
#308 = MECHANICAL_CONTEXT ( 'NONE', #180, 'mechanical' ) ;
#309 = ORIENTED_EDGE ( 'NONE', *, *, #150, .T. ) ;
#310 = AXIS2_PLACEMENT_3D ( 'NONE', #186, #283, #139 ) ;
#311 = LINE ( 'NONE', #47, #273 ) ;
#312 = DATE_AND_TIME ( #63, #126 ) ;
#313 = DIRECTION ( 'NONE',  ( 0.0000000000000000000, 1.000000000000000000, 0.0000000000000000000 ) ) ;
ENDSEC;
END-ISO-10303-21;
