ISO-10303-21;
HEADER;
FILE_DESCRIPTION (( 'STEP AP203' ),
    '1' );
FILE_NAME ('03-3187.STEP',
    '2023-07-12T07:39:06',
    ( 'USER' ),
    ( 'Hewlett-Packard Company' ),
    'SwSTEP 2.0',
    'SolidWorks 2014',
    '' );
FILE_SCHEMA (( 'CONFIG_CONTROL_DESIGN' ));
ENDSEC;

DATA;
#1 = ADVANCED_FACE ( 'NONE', ( #72 ), #246, .T. ) ;
#2 = EDGE_LOOP ( 'NONE', ( #245, #199 ) ) ;
#3 = APPROVAL_ROLE ( '' ) ;
#4 = AXIS2_PLACEMENT_3D ( 'NONE', #131, #298, #147 ) ;
#5 = LINE ( 'NONE', #224, #129 ) ;
#6 = APPROVAL_STATUS ( 'not_yet_approved' ) ;
#7 = DIRECTION ( 'NONE',  ( 0.0000000000000000000, 0.0000000000000000000, 1.000000000000000000 ) ) ;
#8 = CC_DESIGN_APPROVAL ( #301, ( #250 ) ) ;
#9 = ORIENTED_EDGE ( 'NONE', *, *, #71, .F. ) ;
#10 = EDGE_CURVE ( 'NONE', #219, #73, #5, .T. ) ;
#11 = DIRECTION ( 'NONE',  ( 0.0000000000000000000, 0.0000000000000000000, 1.000000000000000000 ) ) ;
#12 = CIRCLE ( 'NONE', #295, 8.000000000000012400 ) ;
#13 = DIRECTION ( 'NONE',  ( -1.000000000000000000, -0.0000000000000000000, -0.0000000000000000000 ) ) ;
#14 = EDGE_LOOP ( 'NONE', ( #9, #227, #269, #204 ) ) ;
#15 = DIRECTION ( 'NONE',  ( 0.0000000000000000000, 1.000000000000000000, 0.0000000000000000000 ) ) ;
#16 = DIRECTION ( 'NONE',  ( 1.000000000000000000, 1.211116794356528300E-016, -0.0000000000000000000 ) ) ;
#17 = VERTEX_POINT ( 'NONE', #274 ) ;
#18 = ORIENTED_EDGE ( 'NONE', *, *, #179, .F. ) ;
#19 = AXIS2_PLACEMENT_3D ( 'NONE', #87, #230, #43 ) ;
#20 = CARTESIAN_POINT ( 'NONE',  ( 1.000000000000000000, 0.0000000000000000000, 0.0000000000000000000 ) ) ;
#21 = LOCAL_TIME ( 16, 39, 6.000000000000000000, #270 ) ;
#22 = DESIGN_CONTEXT ( 'detailed design', #53, 'design' ) ;
#23 = CYLINDRICAL_SURFACE ( 'NONE', #222, 8.000000000000000000 ) ;
#24 = ADVANCED_FACE ( 'NONE', ( #189 ), #302, .F. ) ;
#25 = CC_DESIGN_SECURITY_CLASSIFICATION ( #250, ( #167 ) ) ;
#26 = CARTESIAN_POINT ( 'NONE',  ( 0.9999999999999978900, 8.000000000000000000, 0.0000000000000000000 ) ) ;
#27 = LOCAL_TIME ( 16, 39, 6.000000000000000000, #280 ) ;
#28 = EDGE_CURVE ( 'NONE', #261, #219, #255, .T. ) ;
#29 = ORIENTED_EDGE ( 'NONE', *, *, #134, .T. ) ;
#30 = PERSON_AND_ORGANIZATION_ROLE ( 'design_supplier' ) ;
#31 = CONICAL_SURFACE ( 'NONE', #19, 8.000000000000000000, 0.7853981633974223000 ) ;
#32 = MECHANICAL_CONTEXT ( 'NONE', #137, 'mechanical' ) ;
#33 = EDGE_LOOP ( 'NONE', ( #293, #29, #92, #303 ) ) ;
#34 = DIRECTION ( 'NONE',  ( 1.000000000000000000, 1.211116794356528300E-016, -0.0000000000000000000 ) ) ;
#35 = LOCAL_TIME ( 16, 39, 6.000000000000000000, #96 ) ;
#36 = DIRECTION ( 'NONE',  ( 1.000000000000000000, 1.211116794356528300E-016, -0.0000000000000000000 ) ) ;
#37 = AXIS2_PLACEMENT_3D ( 'NONE', #171, #36, #88 ) ;
#38 = CIRCLE ( 'NONE', #130, 7.700000000000000200 ) ;
#39 = PRODUCT_RELATED_PRODUCT_CATEGORY ( 'detail', '', ( #153 ) ) ;
#40 = ORIENTED_EDGE ( 'NONE', *, *, #71, .T. ) ;
#41 = EDGE_CURVE ( 'NONE', #219, #261, #12, .T. ) ;
#42 = CARTESIAN_POINT ( 'NONE',  ( -58.69999999999998900, 7.999999999999992900, 0.0000000000000000000 ) ) ;
#43 = DIRECTION ( 'NONE',  ( 0.0000000000000000000, 1.000000000000000000, 0.0000000000000000000 ) ) ;
#44 = CALENDAR_DATE ( 2023, 12, 7 ) ;
#45 = DIRECTION ( 'NONE',  ( 1.000000000000000000, 1.211116794356528300E-016, -0.0000000000000000000 ) ) ;
#46 = CIRCLE ( 'NONE', #97, 8.000000000000000000 ) ;
#47 = ORIENTED_EDGE ( 'NONE', *, *, #10, .F. ) ;
#48 = PERSON_AND_ORGANIZATION ( #103, #175 ) ;
#49 = AXIS2_PLACEMENT_3D ( 'NONE', #201, #258, #105 ) ;
#50 = MANIFOLD_SOLID_BREP ( 'È¸Àü3', #198 ) ;
#51 = FACE_OUTER_BOUND ( 'NONE', #121, .T. ) ;
#52 = CARTESIAN_POINT ( 'NONE',  ( 0.0000000000000000000, 0.0000000000000000000, 0.0000000000000000000 ) ) ;
#53 = APPLICATION_CONTEXT ( 'configuration controlled 3d designs of mechanical parts and assemblies' ) ;
#54 = DIRECTION ( 'NONE',  ( 1.000000000000000000, 1.211116794356528300E-016, -0.0000000000000000000 ) ) ;
#55 = PERSON_AND_ORGANIZATION ( #103, #175 ) ;
#56 = ORIENTED_EDGE ( 'NONE', *, *, #57, .F. ) ;
#57 = EDGE_CURVE ( 'NONE', #73, #109, #65, .T. ) ;
#58 = FACE_OUTER_BOUND ( 'NONE', #133, .T. ) ;
#59 = CARTESIAN_POINT ( 'NONE',  ( -58.69999999999998900, -7.230367262308473300E-015, 0.0000000000000000000 ) ) ;
#60 = AXIS2_PLACEMENT_3D ( 'NONE', #52, #7, #168 ) ;
#61 = CARTESIAN_POINT ( 'NONE',  ( 64.00000000000000000, 0.0000000000000000000, 0.0000000000000000000 ) ) ;
#62 = ORIENTED_EDGE ( 'NONE', *, *, #213, .T. ) ;
#63 = CARTESIAN_POINT ( 'NONE',  ( 1.000000000000000000, 0.0000000000000000000, 0.0000000000000000000 ) ) ;
#64 = CARTESIAN_POINT ( 'NONE',  ( 0.9999999999999991100, 8.000000000000000000, 0.0000000000000000000 ) ) ;
#65 = CIRCLE ( 'NONE', #4, 8.000000000000000000 ) ;
#66 = AXIS2_PLACEMENT_3D ( 'NONE', #181, #45, #254 ) ;
#67 = DIRECTION ( 'NONE',  ( -1.084202172485504400E-016, 1.000000000000000000, 0.0000000000000000000 ) ) ;
#68 = ORIENTED_EDGE ( 'NONE', *, *, #122, .F. ) ;
#69 = ADVANCED_FACE ( 'NONE', ( #58 ), #172, .T. ) ;
#70 = DIRECTION ( 'NONE',  ( -0.0000000000000000000, 0.0000000000000000000, 1.000000000000000000 ) ) ;
#71 = EDGE_CURVE ( 'NONE', #17, #77, #182, .T. ) ;
#72 = FACE_OUTER_BOUND ( 'NONE', #262, .T. ) ;
#73 = VERTEX_POINT ( 'NONE', #104 ) ;
#74 = CC_DESIGN_PERSON_AND_ORGANIZATION_ASSIGNMENT ( #120, #194, ( #153 ) ) ;
#75 = DIRECTION ( 'NONE',  ( -1.000000000000000000, -0.0000000000000000000, -0.0000000000000000000 ) ) ;
#76 = VECTOR ( 'NONE', #75, 1000.000000000000000 ) ;
#77 = VERTEX_POINT ( 'NONE', #272 ) ;
#78 = APPROVAL_STATUS ( 'not_yet_approved' ) ;
#79 = ORIENTED_EDGE ( 'NONE', *, *, #197, .F. ) ;
#80 = AXIS2_PLACEMENT_3D ( 'NONE', #299, #132, #11 ) ;
#81 = CIRCLE ( 'NONE', #208, 8.000000000000000000 ) ;
#82 = DIRECTION ( 'NONE',  ( 0.0000000000000000000, 0.0000000000000000000, -1.000000000000000000 ) ) ;
#83 = DIRECTION ( 'NONE',  ( 1.000000000000000000, 1.211116794356528300E-016, -0.0000000000000000000 ) ) ;
#84 = EDGE_CURVE ( 'NONE', #139, #17, #123, .T. ) ;
#85 = CARTESIAN_POINT ( 'NONE',  ( -58.69999999999998900, 7.999999999999992900, 0.0000000000000000000 ) ) ;
#86 = ORIENTED_EDGE ( 'NONE', *, *, #41, .T. ) ;
#87 = CARTESIAN_POINT ( 'NONE',  ( -58.69999999999998900, -7.230367262308473300E-015, 0.0000000000000000000 ) ) ;
#88 = DIRECTION ( 'NONE',  ( 0.0000000000000000000, 1.000000000000000000, 0.0000000000000000000 ) ) ;
#89 = LINE ( 'NONE', #64, #148 ) ;
#90 = PRODUCT_DEFINITION ( 'UNKNOWN', '', #167, #22 ) ;
#91 = PLANE ( 'NONE',  #289 ) ;
#92 = ORIENTED_EDGE ( 'NONE', *, *, #144, .F. ) ;
#93 = ADVANCED_FACE ( 'NONE', ( #51 ), #165, .T. ) ;
#94 = CARTESIAN_POINT ( 'NONE',  ( 64.00000000000000000, 0.0000000000000000000, 0.0000000000000000000 ) ) ;
#95 = ORIENTED_EDGE ( 'NONE', *, *, #197, .T. ) ;
#96 = COORDINATED_UNIVERSAL_TIME_OFFSET ( 9, 0, .AHEAD. ) ;
#97 = AXIS2_PLACEMENT_3D ( 'NONE', #136, #307, #156 ) ;
#98 = FACE_OUTER_BOUND ( 'NONE', #14, .T. ) ;
#99 = PERSON_AND_ORGANIZATION_ROLE ( 'creator' ) ;
#100 = ORIENTED_EDGE ( 'NONE', *, *, #28, .T. ) ;
#101 = EDGE_CURVE ( 'NONE', #162, #77, #296, .T. ) ;
#102 = LOCAL_TIME ( 16, 39, 6.000000000000000000, #164 ) ;
#103 = PERSON ( 'UNSPECIFIED', 'UNSPECIFIED', 'UNSPECIFIED', ('UNSPECIFIED'), ('UNSPECIFIED'), ('UNSPECIFIED') ) ;
#104 = CARTESIAN_POINT ( 'NONE',  ( 0.9999999999999997800, 9.797174393178831600E-016, -8.000000000000000000 ) ) ;
#105 = DIRECTION ( 'NONE',  ( 0.0000000000000000000, 0.0000000000000000000, 1.000000000000000000 ) ) ;
#106 = LINE ( 'NONE', #111, #158 ) ;
#107 = DIRECTION ( 'NONE',  ( 0.7071067811865660000, -0.7071067811865291400, 8.659560562354708500E-017 ) ) ;
#108 = APPROVAL ( #78, 'UNSPECIFIED' ) ;
#109 = VERTEX_POINT ( 'NONE', #256 ) ;
#110 = CARTESIAN_POINT ( 'NONE',  ( 64.00000000000000000, 9.797174393178841400E-016, -8.000000000000012400 ) ) ;
#111 = CARTESIAN_POINT ( 'NONE',  ( 1.000000000000000900, -8.000000000000000000, 9.797174393178825700E-016 ) ) ;
#112 = APPROVAL_DATE_TIME ( #170, #185 ) ;
#113 = DIRECTION ( 'NONE',  ( 1.000000000000000000, 1.211116794356528300E-016, -0.0000000000000000000 ) ) ;
#114 = AXIS2_PLACEMENT_3D ( 'NONE', #20, #113, #67 ) ;
#115 = LINE ( 'NONE', #42, #241 ) ;
#116 = APPLICATION_PROTOCOL_DEFINITION ( 'international standard', 'config_control_design', 1994, #137 ) ;
#117 = CARTESIAN_POINT ( 'NONE',  ( 0.9999999999999986700, -1.452747807492109100E-031, 0.0000000000000000000 ) ) ;
#118 = CARTESIAN_POINT ( 'NONE',  ( -58.69999999999998900, -7.230367262308473300E-015, 0.0000000000000000000 ) ) ;
#119 = ADVANCED_FACE ( 'NONE', ( #232 ), #288, .T. ) ;
#120 = PERSON_AND_ORGANIZATION ( #103, #175 ) ;
#121 = EDGE_LOOP ( 'NONE', ( #47, #86, #216, #56 ) ) ;
#122 = EDGE_CURVE ( 'NONE', #139, #162, #115, .T. ) ;
#123 = CIRCLE ( 'NONE', #37, 7.700000000000000200 ) ;
#124 = DIRECTION ( 'NONE',  ( 0.0000000000000000000, 1.000000000000000000, 0.0000000000000000000 ) ) ;
#125 = CC_DESIGN_APPROVAL ( #108, ( #90 ) ) ;
#126 = DIRECTION ( 'NONE',  ( -1.000000000000000000, -0.0000000000000000000, -0.0000000000000000000 ) ) ;
#127 = APPROVAL_STATUS ( 'not_yet_approved' ) ;
#128 = ORIENTED_EDGE ( 'NONE', *, *, #84, .T. ) ;
#129 = VECTOR ( 'NONE', #174, 1000.000000000000000 ) ;
#130 = AXIS2_PLACEMENT_3D ( 'NONE', #305, #151, #15 ) ;
#131 = CARTESIAN_POINT ( 'NONE',  ( 0.9999999999999997800, 0.0000000000000000000, 0.0000000000000000000 ) ) ;
#132 = DIRECTION ( 'NONE',  ( -1.000000000000000000, -0.0000000000000000000, -0.0000000000000000000 ) ) ;
#133 = EDGE_LOOP ( 'NONE', ( #100, #187, #207, #195 ) ) ;
#134 = EDGE_CURVE ( 'NONE', #77, #169, #106, .T. ) ;
#135 = ORIENTED_EDGE ( 'NONE', *, *, #134, .F. ) ;
#136 = CARTESIAN_POINT ( 'NONE',  ( 0.9999999999999986700, -1.452747807492109100E-031, 0.0000000000000000000 ) ) ;
#137 = APPLICATION_CONTEXT ( 'configuration controlled 3d designs of mechanical parts and assemblies' ) ;
#138 = CC_DESIGN_PERSON_AND_ORGANIZATION_ASSIGNMENT ( #268, #99, ( #90 ) ) ;
#139 = VERTEX_POINT ( 'NONE', #180 ) ;
#140 = ORIENTED_EDGE ( 'NONE', *, *, #101, .F. ) ;
#141 = CALENDAR_DATE ( 2023, 12, 7 ) ;
#142 = DATE_TIME_ROLE ( 'classification_date' ) ;
#143 = ORIENTED_EDGE ( 'NONE', *, *, #84, .F. ) ;
#144 = EDGE_CURVE ( 'NONE', #275, #169, #46, .T. ) ;
#145 = APPROVAL_DATE_TIME ( #214, #301 ) ;
#146 = CARTESIAN_POINT ( 'NONE',  ( 64.00000000000000000, 0.0000000000000000000, 0.0000000000000000000 ) ) ;
#147 = DIRECTION ( 'NONE',  ( 0.0000000000000000000, 0.0000000000000000000, 1.000000000000000000 ) ) ;
#148 = VECTOR ( 'NONE', #16, 1000.000000000000000 ) ;
#149 = EDGE_LOOP ( 'NONE', ( #212, #190 ) ) ;
#150 = CC_DESIGN_DATE_AND_TIME_ASSIGNMENT ( #234, #267, ( #90 ) ) ;
#151 = DIRECTION ( 'NONE',  ( 1.000000000000000000, 1.211116794356528300E-016, -0.0000000000000000000 ) ) ;
#152 = EDGE_LOOP ( 'NONE', ( #176, #95 ) ) ;
#153 = PRODUCT ( '03-3187', '03-3187', '', ( #32 ) ) ;
#154 = CARTESIAN_POINT ( 'NONE',  ( 0.9999999999999995600, -8.000000000000000000, 9.797174393178825700E-016 ) ) ;
#155 = APPROVAL_PERSON_ORGANIZATION ( #220, #301, #3 ) ;
#156 = DIRECTION ( 'NONE',  ( -1.084202172485504400E-016, 1.000000000000000000, 0.0000000000000000000 ) ) ;
#157 = AXIS2_PLACEMENT_3D ( 'NONE', #117, #54, #196 ) ;
#158 = VECTOR ( 'NONE', #278, 1000.000000000000000 ) ;
#159 =( NAMED_UNIT ( * ) SI_UNIT ( $, .STERADIAN. ) SOLID_ANGLE_UNIT ( ) );
#160 = DIRECTION ( 'NONE',  ( -1.000000000000000000, -1.211116794356528300E-016, 0.0000000000000000000 ) ) ;
#161 = ADVANCED_FACE ( 'NONE', ( #98 ), #31, .T. ) ;
#162 = VERTEX_POINT ( 'NONE', #85 ) ;
#163 = EDGE_CURVE ( 'NONE', #162, #275, #89, .T. ) ;
#164 = COORDINATED_UNIVERSAL_TIME_OFFSET ( 9, 0, .AHEAD. ) ;
#165 = CYLINDRICAL_SURFACE ( 'NONE', #80, 8.000000000000007100 ) ;
#166 = PERSON_AND_ORGANIZATION_ROLE ( 'creator' ) ;
#167 = PRODUCT_DEFINITION_FORMATION_WITH_SPECIFIED_SOURCE ( 'ANY', '', #153, .NOT_KNOWN. ) ;
#168 = DIRECTION ( 'NONE',  ( 1.000000000000000000, 0.0000000000000000000, 0.0000000000000000000 ) ) ;
#169 = VERTEX_POINT ( 'NONE', #154 ) ;
#170 = DATE_AND_TIME ( #239, #306 ) ;
#171 = CARTESIAN_POINT ( 'NONE',  ( -59.00000000000000700, -7.266700766139170600E-015, 0.0000000000000000000 ) ) ;
#172 = CYLINDRICAL_SURFACE ( 'NONE', #49, 8.000000000000007100 ) ;
#173 = AXIS2_PLACEMENT_3D ( 'NONE', #177, #178, #205 ) ;
#174 = DIRECTION ( 'NONE',  ( -1.000000000000000000, -0.0000000000000000000, -0.0000000000000000000 ) ) ;
#175 = ORGANIZATION ( 'UNSPECIFIED', 'UNSPECIFIED', '' ) ;
#176 = ORIENTED_EDGE ( 'NONE', *, *, #144, .T. ) ;
#177 = CARTESIAN_POINT ( 'NONE',  ( 0.9999999999999985600, 8.000000000000000000, 0.0000000000000000000 ) ) ;
#178 = DIRECTION ( 'NONE',  ( 1.000000000000000000, 1.211116794356528300E-016, -0.0000000000000000000 ) ) ;
#179 = EDGE_CURVE ( 'NONE', #17, #139, #38, .T. ) ;
#180 = CARTESIAN_POINT ( 'NONE',  ( -59.00000000000000700, 7.699999999999993100, 0.0000000000000000000 ) ) ;
#181 = CARTESIAN_POINT ( 'NONE',  ( -58.69999999999998900, -7.230367262308473300E-015, 0.0000000000000000000 ) ) ;
#182 = LINE ( 'NONE', #249, #309 ) ;
#183 = COORDINATED_UNIVERSAL_TIME_OFFSET ( 9, 0, .AHEAD. ) ;
#184 =( LENGTH_UNIT ( ) NAMED_UNIT ( * ) SI_UNIT ( .MILLI., .METRE. ) );
#185 = APPROVAL ( #127, 'UNSPECIFIED' ) ;
#186 = DIRECTION ( 'NONE',  ( 1.211116794356528300E-016, -1.000000000000000000, 0.0000000000000000000 ) ) ;
#187 = ORIENTED_EDGE ( 'NONE', *, *, #10, .T. ) ;
#188 = ADVANCED_FACE ( 'NONE', ( #281 ), #253, .T. ) ;
#189 = FACE_OUTER_BOUND ( 'NONE', #149, .T. ) ;
#190 = ORIENTED_EDGE ( 'NONE', *, *, #57, .T. ) ;
#191 = ADVANCED_BREP_SHAPE_REPRESENTATION ( '03-3187', ( #50, #247, #60 ), #311 ) ;
#192 = PRODUCT_DEFINITION_SHAPE ( 'NONE', 'NONE',  #90 ) ;
#193 = SECURITY_CLASSIFICATION_LEVEL ( 'unclassified' ) ;
#194 = PERSON_AND_ORGANIZATION_ROLE ( 'design_owner' ) ;
#195 = ORIENTED_EDGE ( 'NONE', *, *, #304, .F. ) ;
#196 = DIRECTION ( 'NONE',  ( -1.084202172485504400E-016, 1.000000000000000000, 0.0000000000000000000 ) ) ;
#197 = EDGE_CURVE ( 'NONE', #169, #275, #215, .T. ) ;
#198 = CLOSED_SHELL ( 'NONE', ( #69, #93, #24, #284 ) ) ;
#199 = ORIENTED_EDGE ( 'NONE', *, *, #41, .F. ) ;
#200 = CARTESIAN_POINT ( 'NONE',  ( 1.000000000000000400, 1.355252715606881800E-016, 0.0000000000000000000 ) ) ;
#201 = CARTESIAN_POINT ( 'NONE',  ( 0.0000000000000000000, 0.0000000000000000000, 0.0000000000000000000 ) ) ;
#202 = CIRCLE ( 'NONE', #271, 8.000000000000000000 ) ;
#203 = CC_DESIGN_APPROVAL ( #185, ( #167 ) ) ;
#204 = ORIENTED_EDGE ( 'NONE', *, *, #213, .F. ) ;
#205 = DIRECTION ( 'NONE',  ( -1.211116794356528300E-016, 1.000000000000000000, 0.0000000000000000000 ) ) ;
#206 = DIRECTION ( 'NONE',  ( 0.7071067811865657800, 0.7071067811865292500, 0.0000000000000000000 ) ) ;
#207 = ORIENTED_EDGE ( 'NONE', *, *, #285, .F. ) ;
#208 = AXIS2_PLACEMENT_3D ( 'NONE', #118, #283, #124 ) ;
#209 = FACE_OUTER_BOUND ( 'NONE', #251, .T. ) ;
#210 = ADVANCED_FACE ( 'NONE', ( #223 ), #23, .T. ) ;
#211 = CARTESIAN_POINT ( 'NONE',  ( 64.00000000000000000, 0.0000000000000000000, 8.000000000000012400 ) ) ;
#212 = ORIENTED_EDGE ( 'NONE', *, *, #285, .T. ) ;
#213 = EDGE_CURVE ( 'NONE', #77, #162, #81, .T. ) ;
#214 = DATE_AND_TIME ( #279, #35 ) ;
#215 = CIRCLE ( 'NONE', #157, 8.000000000000000000 ) ;
#216 = ORIENTED_EDGE ( 'NONE', *, *, #304, .T. ) ;
#217 = CC_DESIGN_PERSON_AND_ORGANIZATION_ASSIGNMENT ( #48, #166, ( #167 ) ) ;
#218 = APPLICATION_PROTOCOL_DEFINITION ( 'international standard', 'config_control_design', 1994, #53 ) ;
#219 = VERTEX_POINT ( 'NONE', #110 ) ;
#220 = PERSON_AND_ORGANIZATION ( #103, #175 ) ;
#221 = DIRECTION ( 'NONE',  ( 0.0000000000000000000, 0.0000000000000000000, 1.000000000000000000 ) ) ;
#222 = AXIS2_PLACEMENT_3D ( 'NONE', #63, #83, #252 ) ;
#223 = FACE_OUTER_BOUND ( 'NONE', #33, .T. ) ;
#224 = CARTESIAN_POINT ( 'NONE',  ( 0.0000000000000000000, 9.797174393178835500E-016, -8.000000000000007100 ) ) ;
#225 = DIRECTION ( 'NONE',  ( -1.000000000000000000, -0.0000000000000000000, -0.0000000000000000000 ) ) ;
#226 = DIRECTION ( 'NONE',  ( 1.000000000000000000, 0.0000000000000000000, 0.0000000000000000000 ) ) ;
#227 = ORIENTED_EDGE ( 'NONE', *, *, #179, .T. ) ;
#228 = PERSON_AND_ORGANIZATION ( #103, #175 ) ;
#229 = AXIS2_PLACEMENT_3D ( 'NONE', #59, #34, #248 ) ;
#230 = DIRECTION ( 'NONE',  ( 1.000000000000000000, 1.211116794356528300E-016, -0.0000000000000000000 ) ) ;
#231 = CALENDAR_DATE ( 2023, 12, 7 ) ;
#232 = FACE_OUTER_BOUND ( 'NONE', #297, .T. ) ;
#233 = DIRECTION ( 'NONE',  ( 0.0000000000000000000, 0.0000000000000000000, 1.000000000000000000 ) ) ;
#234 = DATE_AND_TIME ( #141, #21 ) ;
#235 = CC_DESIGN_PERSON_AND_ORGANIZATION_ASSIGNMENT ( #294, #30, ( #167 ) ) ;
#236 = ADVANCED_FACE ( 'NONE', ( #209 ), #259, .T. ) ;
#237 = CLOSED_SHELL ( 'NONE', ( #1, #210, #236, #188, #119, #161 ) ) ;
#238 = DIRECTION ( 'NONE',  ( -1.000000000000000000, 0.0000000000000000000, -0.0000000000000000000 ) ) ;
#239 = CALENDAR_DATE ( 2023, 12, 7 ) ;
#240 = APPROVAL_DATE_TIME ( #313, #108 ) ;
#241 = VECTOR ( 'NONE', #206, 1000.000000000000000 ) ;
#242 = CARTESIAN_POINT ( 'NONE',  ( 0.0000000000000000000, 0.0000000000000000000, 8.000000000000007100 ) ) ;
#243 = APPROVAL_ROLE ( '' ) ;
#244 = SHAPE_DEFINITION_REPRESENTATION ( #192, #191 ) ;
#245 = ORIENTED_EDGE ( 'NONE', *, *, #28, .F. ) ;
#246 = CONICAL_SURFACE ( 'NONE', #229, 8.000000000000000000, 0.7853981633974223000 ) ;
#247 = MANIFOLD_SOLID_BREP ( 'È¸Àü4', #237 ) ;
#248 = DIRECTION ( 'NONE',  ( 0.0000000000000000000, 1.000000000000000000, 0.0000000000000000000 ) ) ;
#249 = CARTESIAN_POINT ( 'NONE',  ( -58.69999999999998900, -8.000000000000007100, 9.797174393178825700E-016 ) ) ;
#250 = SECURITY_CLASSIFICATION ( '', '', #193 ) ;
#251 = EDGE_LOOP ( 'NONE', ( #143, #18 ) ) ;
#252 = DIRECTION ( 'NONE',  ( -1.084202172485504400E-016, 1.000000000000000000, 0.0000000000000000000 ) ) ;
#253 = PLANE ( 'NONE',  #173 ) ;
#254 = DIRECTION ( 'NONE',  ( 0.0000000000000000000, 1.000000000000000000, 0.0000000000000000000 ) ) ;
#255 = CIRCLE ( 'NONE', #263, 8.000000000000012400 ) ;
#256 = CARTESIAN_POINT ( 'NONE',  ( 0.9999999999999997800, 0.0000000000000000000, 8.000000000000000000 ) ) ;
#257 = AXIS2_PLACEMENT_3D ( 'NONE', #260, #160, #186 ) ;
#258 = DIRECTION ( 'NONE',  ( -1.000000000000000000, -0.0000000000000000000, -0.0000000000000000000 ) ) ;
#259 = PLANE ( 'NONE',  #257 ) ;
#260 = CARTESIAN_POINT ( 'NONE',  ( -59.00000000000000000, -7.266700766139169000E-015, 0.0000000000000000000 ) ) ;
#261 = VERTEX_POINT ( 'NONE', #211 ) ;
#262 = EDGE_LOOP ( 'NONE', ( #128, #40, #140, #68 ) ) ;
#263 = AXIS2_PLACEMENT_3D ( 'NONE', #61, #225, #233 ) ;
#264 = CARTESIAN_POINT ( 'NONE',  ( 0.9999999999999997800, 0.0000000000000000000, 0.0000000000000000000 ) ) ;
#265 = FACE_OUTER_BOUND ( 'NONE', #2, .T. ) ;
#266 = CC_DESIGN_PERSON_AND_ORGANIZATION_ASSIGNMENT ( #228, #290, ( #250 ) ) ;
#267 = DATE_TIME_ROLE ( 'creation_date' ) ;
#268 = PERSON_AND_ORGANIZATION ( #103, #175 ) ;
#269 = ORIENTED_EDGE ( 'NONE', *, *, #122, .T. ) ;
#270 = COORDINATED_UNIVERSAL_TIME_OFFSET ( 9, 0, .AHEAD. ) ;
#271 = AXIS2_PLACEMENT_3D ( 'NONE', #264, #126, #291 ) ;
#272 = CARTESIAN_POINT ( 'NONE',  ( -58.69999999999998900, -8.000000000000007100, 9.797174393178829600E-016 ) ) ;
#273 = LINE ( 'NONE', #242, #76 ) ;
#274 = CARTESIAN_POINT ( 'NONE',  ( -59.00000000000000700, -7.700000000000007300, 9.613477373306723300E-016 ) ) ;
#275 = VERTEX_POINT ( 'NONE', #26 ) ;
#276 = PERSON_AND_ORGANIZATION ( #103, #175 ) ;
#277 = AXIS2_PLACEMENT_3D ( 'NONE', #200, #226, #82 ) ;
#278 = DIRECTION ( 'NONE',  ( 1.000000000000000000, 1.211116794356528300E-016, -0.0000000000000000000 ) ) ;
#279 = CALENDAR_DATE ( 2023, 12, 7 ) ;
#280 = COORDINATED_UNIVERSAL_TIME_OFFSET ( 9, 0, .AHEAD. ) ;
#281 = FACE_OUTER_BOUND ( 'NONE', #152, .T. ) ;
#282 = CC_DESIGN_DATE_AND_TIME_ASSIGNMENT ( #287, #142, ( #250 ) ) ;
#283 = DIRECTION ( 'NONE',  ( 1.000000000000000000, 1.211116794356528300E-016, -0.0000000000000000000 ) ) ;
#284 = ADVANCED_FACE ( 'NONE', ( #265 ), #91, .F. ) ;
#285 = EDGE_CURVE ( 'NONE', #109, #73, #202, .T. ) ;
#286 = ORIENTED_EDGE ( 'NONE', *, *, #163, .T. ) ;
#287 = DATE_AND_TIME ( #44, #102 ) ;
#288 = CYLINDRICAL_SURFACE ( 'NONE', #114, 8.000000000000000000 ) ;
#289 = AXIS2_PLACEMENT_3D ( 'NONE', #94, #238, #70 ) ;
#290 = PERSON_AND_ORGANIZATION_ROLE ( 'classification_officer' ) ;
#291 = DIRECTION ( 'NONE',  ( 0.0000000000000000000, 0.0000000000000000000, 1.000000000000000000 ) ) ;
#292 = APPROVAL_ROLE ( '' ) ;
#293 = ORIENTED_EDGE ( 'NONE', *, *, #101, .T. ) ;
#294 = PERSON_AND_ORGANIZATION ( #103, #175 ) ;
#295 = AXIS2_PLACEMENT_3D ( 'NONE', #146, #13, #221 ) ;
#296 = CIRCLE ( 'NONE', #66, 8.000000000000000000 ) ;
#297 = EDGE_LOOP ( 'NONE', ( #135, #62, #286, #79 ) ) ;
#298 = DIRECTION ( 'NONE',  ( -1.000000000000000000, -0.0000000000000000000, -0.0000000000000000000 ) ) ;
#299 = CARTESIAN_POINT ( 'NONE',  ( 0.0000000000000000000, 0.0000000000000000000, 0.0000000000000000000 ) ) ;
#300 = APPROVAL_PERSON_ORGANIZATION ( #55, #108, #243 ) ;
#301 = APPROVAL ( #6, 'UNSPECIFIED' ) ;
#302 = PLANE ( 'NONE',  #277 ) ;
#303 = ORIENTED_EDGE ( 'NONE', *, *, #163, .F. ) ;
#304 = EDGE_CURVE ( 'NONE', #261, #109, #273, .T. ) ;
#305 = CARTESIAN_POINT ( 'NONE',  ( -59.00000000000000700, -7.266700766139170600E-015, 0.0000000000000000000 ) ) ;
#306 = LOCAL_TIME ( 16, 39, 6.000000000000000000, #183 ) ;
#307 = DIRECTION ( 'NONE',  ( 1.000000000000000000, 1.211116794356528300E-016, -0.0000000000000000000 ) ) ;
#308 = UNCERTAINTY_MEASURE_WITH_UNIT (LENGTH_MEASURE( 1.000000000000000100E-005 ), #184, 'distance_accuracy_value', 'NONE');
#309 = VECTOR ( 'NONE', #107, 999.9999999999998900 ) ;
#310 = APPROVAL_PERSON_ORGANIZATION ( #276, #185, #292 ) ;
#311 =( GEOMETRIC_REPRESENTATION_CONTEXT ( 3 ) GLOBAL_UNCERTAINTY_ASSIGNED_CONTEXT ( ( #308 ) ) GLOBAL_UNIT_ASSIGNED_CONTEXT ( ( #184, #312, #159 ) ) REPRESENTATION_CONTEXT ( 'NONE', 'WORKASPACE' ) );
#312 =( NAMED_UNIT ( * ) PLANE_ANGLE_UNIT ( ) SI_UNIT ( $, .RADIAN. ) );
#313 = DATE_AND_TIME ( #231, #27 ) ;
ENDSEC;
END-ISO-10303-21;
