ISO-10303-21;
HEADER;
FILE_DESCRIPTION (( 'STEP AP203' ),
    '1' );
FILE_NAME ('03-3189.STEP',
    '2023-07-12T07:39:35',
    ( 'USER' ),
    ( 'Hewlett-Packard Company' ),
    'SwSTEP 2.0',
    'SolidWorks 2014',
    '' );
FILE_SCHEMA (( 'CONFIG_CONTROL_DESIGN' ));
ENDSEC;

DATA;
#1 = APPROVAL_PERSON_ORGANIZATION ( #68, #163, #256 ) ;
#2 = ORIENTED_EDGE ( 'NONE', *, *, #191, .T. ) ;
#3 = EDGE_CURVE ( 'NONE', #194, #291, #99, .T. ) ;
#4 = EDGE_CURVE ( 'NONE', #235, #310, #211, .T. ) ;
#5 = CIRCLE ( 'NONE', #100, 12.50000000000000000 ) ;
#6 = AXIS2_PLACEMENT_3D ( 'NONE', #302, #15, #168 ) ;
#7 = ADVANCED_FACE ( 'NONE', ( #153 ), #57, .F. ) ;
#8 = EDGE_CURVE ( 'NONE', #160, #235, #148, .T. ) ;
#9 = COORDINATED_UNIVERSAL_TIME_OFFSET ( 9, 0, .AHEAD. ) ;
#10 = ORIENTED_EDGE ( 'NONE', *, *, #3, .T. ) ;
#11 = CC_DESIGN_SECURITY_CLASSIFICATION ( #227, ( #151 ) ) ;
#12 = EDGE_CURVE ( 'NONE', #135, #310, #205, .T. ) ;
#13 = CARTESIAN_POINT ( 'NONE',  ( 1.000000000000000000, 0.0000000000000000000, 0.0000000000000000000 ) ) ;
#14 = CIRCLE ( 'NONE', #55, 12.50000000000000000 ) ;
#15 = DIRECTION ( 'NONE',  ( -1.000000000000000000, -0.0000000000000000000, -0.0000000000000000000 ) ) ;
#16 = EDGE_CURVE ( 'NONE', #160, #135, #94, .T. ) ;
#17 = CARTESIAN_POINT ( 'NONE',  ( 0.9999999999999985600, 12.50000000000000000, 0.0000000000000000000 ) ) ;
#18 = CARTESIAN_POINT ( 'NONE',  ( 1.000000000000001600, 0.0000000000000000000, 0.0000000000000000000 ) ) ;
#19 = ADVANCED_FACE ( 'NONE', ( #37 ), #23, .T. ) ;
#20 = LOCAL_TIME ( 16, 39, 35.00000000000000000, #80 ) ;
#21 = ORIENTED_EDGE ( 'NONE', *, *, #12, .F. ) ;
#22 = EDGE_CURVE ( 'NONE', #287, #126, #86, .T. ) ;
#23 = CYLINDRICAL_SURFACE ( 'NONE', #25, 12.50000000000001100 ) ;
#24 = EDGE_CURVE ( 'NONE', #310, #231, #144, .T. ) ;
#25 = AXIS2_PLACEMENT_3D ( 'NONE', #93, #209, #83 ) ;
#26 = APPROVAL_STATUS ( 'not_yet_approved' ) ;
#27 = ORGANIZATION ( 'UNSPECIFIED', 'UNSPECIFIED', '' ) ;
#28 = ORIENTED_EDGE ( 'NONE', *, *, #22, .T. ) ;
#29 = EDGE_CURVE ( 'NONE', #278, #231, #200, .T. ) ;
#30 = PRODUCT_RELATED_PRODUCT_CATEGORY ( 'detail', '', ( #285 ) ) ;
#31 = EDGE_CURVE ( 'NONE', #135, #278, #32, .T. ) ;
#32 = LINE ( 'NONE', #61, #77 ) ;
#33 = DIRECTION ( 'NONE',  ( 1.000000000000000000, 1.184397926594207700E-016, -0.0000000000000000000 ) ) ;
#34 = EDGE_LOOP ( 'NONE', ( #280, #264, #238, #262 ) ) ;
#35 = DIRECTION ( 'NONE',  ( 1.000000000000000000, 1.184397926594207700E-016, -0.0000000000000000000 ) ) ;
#36 = APPROVAL_DATE_TIME ( #98, #288 ) ;
#37 = FACE_OUTER_BOUND ( 'NONE', #132, .T. ) ;
#38 = EDGE_CURVE ( 'NONE', #235, #160, #190, .T. ) ;
#39 = CARTESIAN_POINT ( 'NONE',  ( -74.69999999999998900, -8.965892304318150300E-015, 0.0000000000000000000 ) ) ;
#40 = AXIS2_PLACEMENT_3D ( 'NONE', #188, #102, #297 ) ;
#41 = CARTESIAN_POINT ( 'NONE',  ( 101.0000000000000000, 1.530808498934193900E-015, -12.50000000000002000 ) ) ;
#42 = CONICAL_SURFACE ( 'NONE', #234, 12.50000000000000200, 0.7853981633974859200 ) ;
#43 = DIRECTION ( 'NONE',  ( -1.184397926594207700E-016, 1.000000000000000000, 0.0000000000000000000 ) ) ;
#44 = EDGE_CURVE ( 'NONE', #231, #278, #14, .T. ) ;
#45 = CARTESIAN_POINT ( 'NONE',  ( 1.000000000000001600, -12.50000000000000000, 1.530808498934191500E-015 ) ) ;
#46 = MANIFOLD_SOLID_BREP ( 'È¸Àü3', #109 ) ;
#47 = EDGE_CURVE ( 'NONE', #310, #135, #138, .T. ) ;
#48 = APPROVAL_PERSON_ORGANIZATION ( #104, #288, #70 ) ;
#49 = ORIENTED_EDGE ( 'NONE', *, *, #47, .T. ) ;
#50 = DIRECTION ( 'NONE',  ( 0.0000000000000000000, 0.0000000000000000000, 1.000000000000000000 ) ) ;
#51 = SHAPE_DEFINITION_REPRESENTATION ( #232, #176 ) ;
#52 = AXIS2_PLACEMENT_3D ( 'NONE', #203, #50, #72 ) ;
#53 = COORDINATED_UNIVERSAL_TIME_OFFSET ( 9, 0, .AHEAD. ) ;
#54 = ORIENTED_EDGE ( 'NONE', *, *, #8, .T. ) ;
#55 = AXIS2_PLACEMENT_3D ( 'NONE', #166, #35, #189 ) ;
#56 = FACE_OUTER_BOUND ( 'NONE', #299, .T. ) ;
#57 = PLANE ( 'NONE',  #261 ) ;
#58 = DIRECTION ( 'NONE',  ( 0.7071067811865210400, -0.7071067811865740000, 8.659560562355258300E-017 ) ) ;
#59 = DATE_AND_TIME ( #119, #174 ) ;
#60 = EDGE_LOOP ( 'NONE', ( #245, #114, #143, #175 ) ) ;
#61 = CARTESIAN_POINT ( 'NONE',  ( 0.9999999999999985600, 12.50000000000000000, 0.0000000000000000000 ) ) ;
#62 = LINE ( 'NONE', #248, #312 ) ;
#63 = DIRECTION ( 'NONE',  ( 1.000000000000000000, 1.184397926594207700E-016, -0.0000000000000000000 ) ) ;
#64 = CARTESIAN_POINT ( 'NONE',  ( -74.69999999999998900, -8.965892304318150300E-015, 0.0000000000000000000 ) ) ;
#65 = CARTESIAN_POINT ( 'NONE',  ( 1.000000000000001600, 1.530808498934192100E-015, -12.50000000000000000 ) ) ;
#66 = CC_DESIGN_PERSON_AND_ORGANIZATION_ASSIGNMENT ( #263, #253, ( #285 ) ) ;
#67 = DIRECTION ( 'NONE',  ( 0.0000000000000000000, 0.0000000000000000000, 1.000000000000000000 ) ) ;
#68 = PERSON_AND_ORGANIZATION ( #158, #27 ) ;
#69 = EDGE_LOOP ( 'NONE', ( #54, #122, #21, #120 ) ) ;
#70 = APPROVAL_ROLE ( '' ) ;
#71 = DESIGN_CONTEXT ( 'detailed design', #95, 'design' ) ;
#72 = DIRECTION ( 'NONE',  ( 1.000000000000000000, 0.0000000000000000000, 0.0000000000000000000 ) ) ;
#73 = FACE_OUTER_BOUND ( 'NONE', #34, .T. ) ;
#74 = AXIS2_PLACEMENT_3D ( 'NONE', #295, #128, #300 ) ;
#75 = PERSON_AND_ORGANIZATION ( #158, #27 ) ;
#76 = EDGE_LOOP ( 'NONE', ( #105, #294 ) ) ;
#77 = VECTOR ( 'NONE', #106, 1000.000000000000000 ) ;
#78 = CARTESIAN_POINT ( 'NONE',  ( -74.99999999999997200, -9.001424242115974500E-015, 0.0000000000000000000 ) ) ;
#79 = PRODUCT_DEFINITION ( 'UNKNOWN', '', #151, #71 ) ;
#80 = COORDINATED_UNIVERSAL_TIME_OFFSET ( 9, 0, .AHEAD. ) ;
#81 = EDGE_LOOP ( 'NONE', ( #258, #92, #255, #273 ) ) ;
#82 = DIRECTION ( 'NONE',  ( 0.0000000000000000000, 0.0000000000000000000, 1.000000000000000000 ) ) ;
#83 = DIRECTION ( 'NONE',  ( 0.0000000000000000000, 0.0000000000000000000, 1.000000000000000000 ) ) ;
#84 = DIRECTION ( 'NONE',  ( 1.000000000000000000, 1.184397926594207700E-016, -0.0000000000000000000 ) ) ;
#85 = DIRECTION ( 'NONE',  ( 1.000000000000000000, 1.184397926594207700E-016, -0.0000000000000000000 ) ) ;
#86 = CIRCLE ( 'NONE', #6, 12.50000000000002000 ) ;
#87 = DIRECTION ( 'NONE',  ( 0.0000000000000000000, 1.000000000000000000, 0.0000000000000000000 ) ) ;
#88 = AXIS2_PLACEMENT_3D ( 'NONE', #112, #198, #67 ) ;
#89 = ADVANCED_FACE ( 'NONE', ( #182 ), #242, .T. ) ;
#90 = DIRECTION ( 'NONE',  ( 0.0000000000000000000, 0.0000000000000000000, 1.000000000000000000 ) ) ;
#91 = DIRECTION ( 'NONE',  ( -1.000000000000000000, -1.184397926594207700E-016, 0.0000000000000000000 ) ) ;
#92 = ORIENTED_EDGE ( 'NONE', *, *, #38, .T. ) ;
#93 = CARTESIAN_POINT ( 'NONE',  ( 0.0000000000000000000, 0.0000000000000000000, 0.0000000000000000000 ) ) ;
#94 = LINE ( 'NONE', #251, #270 ) ;
#95 = APPLICATION_CONTEXT ( 'configuration controlled 3d designs of mechanical parts and assemblies' ) ;
#96 = APPROVAL_STATUS ( 'not_yet_approved' ) ;
#97 = APPROVAL ( #284, 'UNSPECIFIED' ) ;
#98 = DATE_AND_TIME ( #152, #210 ) ;
#99 = CIRCLE ( 'NONE', #206, 12.50000000000000000 ) ;
#100 = AXIS2_PLACEMENT_3D ( 'NONE', #18, #215, #90 ) ;
#101 = FACE_OUTER_BOUND ( 'NONE', #145, .T. ) ;
#102 = DIRECTION ( 'NONE',  ( 1.000000000000000000, 1.184397926594207700E-016, -0.0000000000000000000 ) ) ;
#103 = CARTESIAN_POINT ( 'NONE',  ( -74.69999999999998900, -8.965892304318150300E-015, 0.0000000000000000000 ) ) ;
#104 = PERSON_AND_ORGANIZATION ( #158, #27 ) ;
#105 = ORIENTED_EDGE ( 'NONE', *, *, #149, .F. ) ;
#106 = DIRECTION ( 'NONE',  ( 1.000000000000000000, 1.184397926594207700E-016, -0.0000000000000000000 ) ) ;
#107 = ADVANCED_FACE ( 'NONE', ( #73 ), #121, .T. ) ;
#108 = CARTESIAN_POINT ( 'NONE',  ( 1.000000000000001600, 0.0000000000000000000, 12.50000000000000000 ) ) ;
#109 = CLOSED_SHELL ( 'NONE', ( #89, #19, #304, #7 ) ) ;
#110 = DIRECTION ( 'NONE',  ( -1.214306433183765000E-016, 1.000000000000000000, 0.0000000000000000000 ) ) ;
#111 = CC_DESIGN_APPROVAL ( #97, ( #79 ) ) ;
#112 = CARTESIAN_POINT ( 'NONE',  ( 101.0000000000000000, 0.0000000000000000000, 0.0000000000000000000 ) ) ;
#113 = PERSON_AND_ORGANIZATION ( #158, #27 ) ;
#114 = ORIENTED_EDGE ( 'NONE', *, *, #161, .T. ) ;
#115 =( LENGTH_UNIT ( ) NAMED_UNIT ( * ) SI_UNIT ( .MILLI., .METRE. ) );
#116 = AXIS2_PLACEMENT_3D ( 'NONE', #265, #146, #124 ) ;
#117 = APPROVAL_ROLE ( '' ) ;
#118 = PERSON_AND_ORGANIZATION_ROLE ( 'creator' ) ;
#119 = CALENDAR_DATE ( 2023, 12, 7 ) ;
#120 = ORIENTED_EDGE ( 'NONE', *, *, #16, .F. ) ;
#121 = CYLINDRICAL_SURFACE ( 'NONE', #131, 12.50000000000000000 ) ;
#122 = ORIENTED_EDGE ( 'NONE', *, *, #4, .T. ) ;
#123 = CC_DESIGN_PERSON_AND_ORGANIZATION_ASSIGNMENT ( #75, #254, ( #79 ) ) ;
#124 = DIRECTION ( 'NONE',  ( 0.0000000000000000000, 0.0000000000000000000, 1.000000000000000000 ) ) ;
#125 = DATE_AND_TIME ( #180, #247 ) ;
#126 = VERTEX_POINT ( 'NONE', #185 ) ;
#127 = DIRECTION ( 'NONE',  ( 0.0000000000000000000, 1.000000000000000000, 0.0000000000000000000 ) ) ;
#128 = DIRECTION ( 'NONE',  ( 1.000000000000000000, 1.184397926594207700E-016, -0.0000000000000000000 ) ) ;
#129 = DIRECTION ( 'NONE',  ( -0.0000000000000000000, 0.0000000000000000000, 1.000000000000000000 ) ) ;
#130 = CIRCLE ( 'NONE', #88, 12.50000000000002000 ) ;
#131 = AXIS2_PLACEMENT_3D ( 'NONE', #13, #33, #147 ) ;
#132 = EDGE_LOOP ( 'NONE', ( #204, #28, #2, #307 ) ) ;
#133 = DIRECTION ( 'NONE',  ( -1.000000000000000000, -0.0000000000000000000, -0.0000000000000000000 ) ) ;
#134 = APPROVAL_DATE_TIME ( #186, #97 ) ;
#135 = VERTEX_POINT ( 'NONE', #272 ) ;
#136 = PLANE ( 'NONE',  #171 ) ;
#137 =( NAMED_UNIT ( * ) SI_UNIT ( $, .STERADIAN. ) SOLID_ANGLE_UNIT ( ) );
#138 = CIRCLE ( 'NONE', #74, 12.50000000000000200 ) ;
#139 = APPLICATION_PROTOCOL_DEFINITION ( 'international standard', 'config_control_design', 1994, #95 ) ;
#140 = SECURITY_CLASSIFICATION_LEVEL ( 'unclassified' ) ;
#141 = APPROVAL_PERSON_ORGANIZATION ( #196, #97, #117 ) ;
#142 = CC_DESIGN_DATE_AND_TIME_ASSIGNMENT ( #125, #226, ( #79 ) ) ;
#143 = ORIENTED_EDGE ( 'NONE', *, *, #177, .F. ) ;
#144 = LINE ( 'NONE', #269, #259 ) ;
#145 = EDGE_LOOP ( 'NONE', ( #301, #10 ) ) ;
#146 = DIRECTION ( 'NONE',  ( -1.000000000000000000, -0.0000000000000000000, -0.0000000000000000000 ) ) ;
#147 = DIRECTION ( 'NONE',  ( -1.214306433183765000E-016, 1.000000000000000000, 0.0000000000000000000 ) ) ;
#148 = CIRCLE ( 'NONE', #241, 12.19999999999999900 ) ;
#149 = EDGE_CURVE ( 'NONE', #126, #287, #130, .T. ) ;
#150 = DIRECTION ( 'NONE',  ( -1.000000000000000000, -0.0000000000000000000, -0.0000000000000000000 ) ) ;
#151 = PRODUCT_DEFINITION_FORMATION_WITH_SPECIFIED_SOURCE ( 'ANY', '', #285, .NOT_KNOWN. ) ;
#152 = CALENDAR_DATE ( 2023, 12, 7 ) ;
#153 = FACE_OUTER_BOUND ( 'NONE', #76, .T. ) ;
#154 = APPLICATION_PROTOCOL_DEFINITION ( 'international standard', 'config_control_design', 1994, #223 ) ;
#155 = AXIS2_PLACEMENT_3D ( 'NONE', #39, #63, #195 ) ;
#156 = CONICAL_SURFACE ( 'NONE', #155, 12.50000000000000200, 0.7853981633974859200 ) ;
#157 = DATE_TIME_ROLE ( 'classification_date' ) ;
#158 = PERSON ( 'UNSPECIFIED', 'UNSPECIFIED', 'UNSPECIFIED', ('UNSPECIFIED'), ('UNSPECIFIED'), ('UNSPECIFIED') ) ;
#159 = DATE_AND_TIME ( #220, #298 ) ;
#160 = VERTEX_POINT ( 'NONE', #279 ) ;
#161 = EDGE_CURVE ( 'NONE', #287, #194, #62, .T. ) ;
#162 = CYLINDRICAL_SURFACE ( 'NONE', #202, 12.50000000000000000 ) ;
#163 = APPROVAL ( #96, 'UNSPECIFIED' ) ;
#164 = PERSON_AND_ORGANIZATION ( #158, #27 ) ;
#165 = ORIENTED_EDGE ( 'NONE', *, *, #31, .T. ) ;
#166 = CARTESIAN_POINT ( 'NONE',  ( 1.000000000000000000, -4.427946649025080500E-033, 0.0000000000000000000 ) ) ;
#167 = DIRECTION ( 'NONE',  ( 0.7071067811865207100, 0.7071067811865742200, 0.0000000000000000000 ) ) ;
#168 = DIRECTION ( 'NONE',  ( 0.0000000000000000000, 0.0000000000000000000, 1.000000000000000000 ) ) ;
#169 = VECTOR ( 'NONE', #150, 1000.000000000000000 ) ;
#170 = DIRECTION ( 'NONE',  ( 1.000000000000000000, 1.184397926594207700E-016, -0.0000000000000000000 ) ) ;
#171 = AXIS2_PLACEMENT_3D ( 'NONE', #217, #91, #246 ) ;
#172 = DIRECTION ( 'NONE',  ( 1.000000000000000000, 1.184397926594207700E-016, -0.0000000000000000000 ) ) ;
#173 = DIRECTION ( 'NONE',  ( 1.000000000000000000, 1.184397926594207700E-016, -0.0000000000000000000 ) ) ;
#174 = LOCAL_TIME ( 16, 39, 35.00000000000000000, #237 ) ;
#175 = ORIENTED_EDGE ( 'NONE', *, *, #191, .F. ) ;
#176 = ADVANCED_BREP_SHAPE_REPRESENTATION ( '03-3189', ( #46, #230, #52 ), #276 ) ;
#177 = EDGE_CURVE ( 'NONE', #291, #194, #5, .T. ) ;
#178 = FACE_OUTER_BOUND ( 'NONE', #187, .T. ) ;
#179 = CC_DESIGN_APPROVAL ( #163, ( #151 ) ) ;
#180 = CALENDAR_DATE ( 2023, 12, 7 ) ;
#181 = ORIENTED_EDGE ( 'NONE', *, *, #44, .F. ) ;
#182 = FACE_OUTER_BOUND ( 'NONE', #60, .T. ) ;
#183 = ORIENTED_EDGE ( 'NONE', *, *, #44, .T. ) ;
#184 = CARTESIAN_POINT ( 'NONE',  ( 101.0000000000000000, 0.0000000000000000000, 0.0000000000000000000 ) ) ;
#185 = CARTESIAN_POINT ( 'NONE',  ( 101.0000000000000000, 0.0000000000000000000, 12.50000000000002000 ) ) ;
#186 = DATE_AND_TIME ( #257, #20 ) ;
#187 = EDGE_LOOP ( 'NONE', ( #197, #183 ) ) ;
#188 = CARTESIAN_POINT ( 'NONE',  ( -74.99999999999997200, -9.001424242115974500E-015, 0.0000000000000000000 ) ) ;
#189 = DIRECTION ( 'NONE',  ( -1.214306433183765000E-016, 1.000000000000000000, 0.0000000000000000000 ) ) ;
#190 = CIRCLE ( 'NONE', #40, 12.19999999999999900 ) ;
#191 = EDGE_CURVE ( 'NONE', #126, #291, #233, .T. ) ;
#192 = CARTESIAN_POINT ( 'NONE',  ( -74.99999999999997200, -12.20000000000000800, 1.512438796946981300E-015 ) ) ;
#193 = ADVANCED_FACE ( 'NONE', ( #56 ), #136, .T. ) ;
#194 = VERTEX_POINT ( 'NONE', #65 ) ;
#195 = DIRECTION ( 'NONE',  ( 0.0000000000000000000, 1.000000000000000000, 0.0000000000000000000 ) ) ;
#196 = PERSON_AND_ORGANIZATION ( #158, #27 ) ;
#197 = ORIENTED_EDGE ( 'NONE', *, *, #29, .T. ) ;
#198 = DIRECTION ( 'NONE',  ( -1.000000000000000000, -0.0000000000000000000, -0.0000000000000000000 ) ) ;
#199 = CC_DESIGN_PERSON_AND_ORGANIZATION_ASSIGNMENT ( #229, #118, ( #151 ) ) ;
#200 = CIRCLE ( 'NONE', #303, 12.50000000000000000 ) ;
#201 = MECHANICAL_CONTEXT ( 'NONE', #223, 'mechanical' ) ;
#202 = AXIS2_PLACEMENT_3D ( 'NONE', #277, #173, #110 ) ;
#203 = CARTESIAN_POINT ( 'NONE',  ( 0.0000000000000000000, 0.0000000000000000000, 0.0000000000000000000 ) ) ;
#204 = ORIENTED_EDGE ( 'NONE', *, *, #161, .F. ) ;
#205 = CIRCLE ( 'NONE', #283, 12.50000000000000200 ) ;
#206 = AXIS2_PLACEMENT_3D ( 'NONE', #214, #236, #82 ) ;
#207 = DIRECTION ( 'NONE',  ( 1.000000000000000000, 1.184397926594207700E-016, -0.0000000000000000000 ) ) ;
#208 = CC_DESIGN_PERSON_AND_ORGANIZATION_ASSIGNMENT ( #164, #286, ( #151 ) ) ;
#209 = DIRECTION ( 'NONE',  ( -1.000000000000000000, -0.0000000000000000000, -0.0000000000000000000 ) ) ;
#210 = LOCAL_TIME ( 16, 39, 35.00000000000000000, #290 ) ;
#211 = LINE ( 'NONE', #240, #281 ) ;
#212 = CARTESIAN_POINT ( 'NONE',  ( 1.000000000000000000, -4.427946649025080500E-033, 0.0000000000000000000 ) ) ;
#213 = ADVANCED_FACE ( 'NONE', ( #252 ), #162, .T. ) ;
#214 = CARTESIAN_POINT ( 'NONE',  ( 1.000000000000001600, 0.0000000000000000000, 0.0000000000000000000 ) ) ;
#215 = DIRECTION ( 'NONE',  ( -1.000000000000000000, -0.0000000000000000000, -0.0000000000000000000 ) ) ;
#216 = AXIS2_PLACEMENT_3D ( 'NONE', #244, #172, #43 ) ;
#217 = CARTESIAN_POINT ( 'NONE',  ( -74.99999999999998600, -9.001424242115976100E-015, 0.0000000000000000000 ) ) ;
#218 = EDGE_LOOP ( 'NONE', ( #268, #49, #165, #181 ) ) ;
#219 = DIRECTION ( 'NONE',  ( 0.0000000000000000000, 1.000000000000000000, 0.0000000000000000000 ) ) ;
#220 = CALENDAR_DATE ( 2023, 12, 7 ) ;
#221 = CLOSED_SHELL ( 'NONE', ( #260, #107, #193, #225, #213, #289 ) ) ;
#222 = ORIENTED_EDGE ( 'NONE', *, *, #8, .F. ) ;
#223 = APPLICATION_CONTEXT ( 'configuration controlled 3d designs of mechanical parts and assemblies' ) ;
#224 = FACE_OUTER_BOUND ( 'NONE', #69, .T. ) ;
#225 = ADVANCED_FACE ( 'NONE', ( #178 ), #275, .T. ) ;
#226 = DATE_TIME_ROLE ( 'creation_date' ) ;
#227 = SECURITY_CLASSIFICATION ( '', '', #140 ) ;
#228 = DIRECTION ( 'NONE',  ( 0.0000000000000000000, 0.0000000000000000000, -1.000000000000000000 ) ) ;
#229 = PERSON_AND_ORGANIZATION ( #158, #27 ) ;
#230 = MANIFOLD_SOLID_BREP ( 'È¸Àü4', #221 ) ;
#231 = VERTEX_POINT ( 'NONE', #45 ) ;
#232 = PRODUCT_DEFINITION_SHAPE ( 'NONE', 'NONE',  #79 ) ;
#233 = LINE ( 'NONE', #306, #169 ) ;
#234 = AXIS2_PLACEMENT_3D ( 'NONE', #64, #170, #87 ) ;
#235 = VERTEX_POINT ( 'NONE', #192 ) ;
#236 = DIRECTION ( 'NONE',  ( -1.000000000000000000, -0.0000000000000000000, -0.0000000000000000000 ) ) ;
#237 = COORDINATED_UNIVERSAL_TIME_OFFSET ( 9, 0, .AHEAD. ) ;
#238 = ORIENTED_EDGE ( 'NONE', *, *, #29, .F. ) ;
#239 = DIRECTION ( 'NONE',  ( -1.214306433183765000E-016, 1.000000000000000000, 0.0000000000000000000 ) ) ;
#240 = CARTESIAN_POINT ( 'NONE',  ( -74.69999999999998900, -12.50000000000001100, 1.530808498934191700E-015 ) ) ;
#241 = AXIS2_PLACEMENT_3D ( 'NONE', #78, #207, #219 ) ;
#242 = CYLINDRICAL_SURFACE ( 'NONE', #116, 12.50000000000001100 ) ;
#243 = CARTESIAN_POINT ( 'NONE',  ( 1.000000000000001300, -5.204170427930426200E-017, 0.0000000000000000000 ) ) ;
#244 = CARTESIAN_POINT ( 'NONE',  ( 0.9999999999999985600, 12.50000000000000000, 0.0000000000000000000 ) ) ;
#245 = ORIENTED_EDGE ( 'NONE', *, *, #149, .T. ) ;
#246 = DIRECTION ( 'NONE',  ( 1.184397926594207700E-016, -1.000000000000000000, 0.0000000000000000000 ) ) ;
#247 = LOCAL_TIME ( 16, 39, 35.00000000000000000, #9 ) ;
#248 = CARTESIAN_POINT ( 'NONE',  ( 0.0000000000000000000, 1.530808498934192900E-015, -12.50000000000001100 ) ) ;
#249 = CC_DESIGN_PERSON_AND_ORGANIZATION_ASSIGNMENT ( #113, #313, ( #227 ) ) ;
#250 = ORIENTED_EDGE ( 'NONE', *, *, #38, .F. ) ;
#251 = CARTESIAN_POINT ( 'NONE',  ( -74.69999999999998900, 12.49999999999999300, 0.0000000000000000000 ) ) ;
#252 = FACE_OUTER_BOUND ( 'NONE', #218, .T. ) ;
#253 = PERSON_AND_ORGANIZATION_ROLE ( 'design_owner' ) ;
#254 = PERSON_AND_ORGANIZATION_ROLE ( 'creator' ) ;
#255 = ORIENTED_EDGE ( 'NONE', *, *, #16, .T. ) ;
#256 = APPROVAL_ROLE ( '' ) ;
#257 = CALENDAR_DATE ( 2023, 12, 7 ) ;
#258 = ORIENTED_EDGE ( 'NONE', *, *, #4, .F. ) ;
#259 = VECTOR ( 'NONE', #84, 1000.000000000000000 ) ;
#260 = ADVANCED_FACE ( 'NONE', ( #224 ), #156, .T. ) ;
#261 = AXIS2_PLACEMENT_3D ( 'NONE', #184, #271, #129 ) ;
#262 = ORIENTED_EDGE ( 'NONE', *, *, #31, .F. ) ;
#263 = PERSON_AND_ORGANIZATION ( #158, #27 ) ;
#264 = ORIENTED_EDGE ( 'NONE', *, *, #24, .T. ) ;
#265 = CARTESIAN_POINT ( 'NONE',  ( 0.0000000000000000000, 0.0000000000000000000, 0.0000000000000000000 ) ) ;
#266 = CC_DESIGN_DATE_AND_TIME_ASSIGNMENT ( #159, #157, ( #227 ) ) ;
#267 = DIRECTION ( 'NONE',  ( 1.000000000000000000, 1.184397926594207700E-016, -0.0000000000000000000 ) ) ;
#268 = ORIENTED_EDGE ( 'NONE', *, *, #24, .F. ) ;
#269 = CARTESIAN_POINT ( 'NONE',  ( 1.000000000000001600, -12.50000000000000000, 1.530808498934191500E-015 ) ) ;
#270 = VECTOR ( 'NONE', #167, 1000.000000000000100 ) ;
#271 = DIRECTION ( 'NONE',  ( -1.000000000000000000, 0.0000000000000000000, -0.0000000000000000000 ) ) ;
#272 = CARTESIAN_POINT ( 'NONE',  ( -74.69999999999998900, 12.49999999999999300, 0.0000000000000000000 ) ) ;
#273 = ORIENTED_EDGE ( 'NONE', *, *, #47, .F. ) ;
#274 = CARTESIAN_POINT ( 'NONE',  ( -74.69999999999998900, -12.50000000000001200, 1.530808498934192500E-015 ) ) ;
#275 = PLANE ( 'NONE',  #216 ) ;
#276 =( GEOMETRIC_REPRESENTATION_CONTEXT ( 3 ) GLOBAL_UNCERTAINTY_ASSIGNED_CONTEXT ( ( #296 ) ) GLOBAL_UNIT_ASSIGNED_CONTEXT ( ( #115, #282, #137 ) ) REPRESENTATION_CONTEXT ( 'NONE', 'WORKASPACE' ) );
#277 = CARTESIAN_POINT ( 'NONE',  ( 1.000000000000000000, 0.0000000000000000000, 0.0000000000000000000 ) ) ;
#278 = VERTEX_POINT ( 'NONE', #17 ) ;
#279 = CARTESIAN_POINT ( 'NONE',  ( -74.99999999999997200, 12.19999999999999000, 0.0000000000000000000 ) ) ;
#280 = ORIENTED_EDGE ( 'NONE', *, *, #12, .T. ) ;
#281 = VECTOR ( 'NONE', #58, 1000.000000000000000 ) ;
#282 =( NAMED_UNIT ( * ) PLANE_ANGLE_UNIT ( ) SI_UNIT ( $, .RADIAN. ) );
#283 = AXIS2_PLACEMENT_3D ( 'NONE', #103, #267, #127 ) ;
#284 = APPROVAL_STATUS ( 'not_yet_approved' ) ;
#285 = PRODUCT ( '03-3189', '03-3189', '', ( #201 ) ) ;
#286 = PERSON_AND_ORGANIZATION_ROLE ( 'design_supplier' ) ;
#287 = VERTEX_POINT ( 'NONE', #41 ) ;
#288 = APPROVAL ( #26, 'UNSPECIFIED' ) ;
#289 = ADVANCED_FACE ( 'NONE', ( #292 ), #42, .T. ) ;
#290 = COORDINATED_UNIVERSAL_TIME_OFFSET ( 9, 0, .AHEAD. ) ;
#291 = VERTEX_POINT ( 'NONE', #108 ) ;
#292 = FACE_OUTER_BOUND ( 'NONE', #81, .T. ) ;
#293 = AXIS2_PLACEMENT_3D ( 'NONE', #243, #311, #228 ) ;
#294 = ORIENTED_EDGE ( 'NONE', *, *, #22, .F. ) ;
#295 = CARTESIAN_POINT ( 'NONE',  ( -74.69999999999998900, -8.965892304318150300E-015, 0.0000000000000000000 ) ) ;
#296 = UNCERTAINTY_MEASURE_WITH_UNIT (LENGTH_MEASURE( 1.000000000000000100E-005 ), #115, 'distance_accuracy_value', 'NONE');
#297 = DIRECTION ( 'NONE',  ( 0.0000000000000000000, 1.000000000000000000, 0.0000000000000000000 ) ) ;
#298 = LOCAL_TIME ( 16, 39, 35.00000000000000000, #53 ) ;
#299 = EDGE_LOOP ( 'NONE', ( #222, #250 ) ) ;
#300 = DIRECTION ( 'NONE',  ( 0.0000000000000000000, 1.000000000000000000, 0.0000000000000000000 ) ) ;
#301 = ORIENTED_EDGE ( 'NONE', *, *, #177, .T. ) ;
#302 = CARTESIAN_POINT ( 'NONE',  ( 101.0000000000000000, 0.0000000000000000000, 0.0000000000000000000 ) ) ;
#303 = AXIS2_PLACEMENT_3D ( 'NONE', #212, #85, #239 ) ;
#304 = ADVANCED_FACE ( 'NONE', ( #101 ), #305, .F. ) ;
#305 = PLANE ( 'NONE',  #293 ) ;
#306 = CARTESIAN_POINT ( 'NONE',  ( 0.0000000000000000000, 0.0000000000000000000, 12.50000000000001100 ) ) ;
#307 = ORIENTED_EDGE ( 'NONE', *, *, #3, .F. ) ;
#308 = CC_DESIGN_APPROVAL ( #288, ( #227 ) ) ;
#309 = APPROVAL_DATE_TIME ( #59, #163 ) ;
#310 = VERTEX_POINT ( 'NONE', #274 ) ;
#311 = DIRECTION ( 'NONE',  ( 1.000000000000000000, 0.0000000000000000000, 0.0000000000000000000 ) ) ;
#312 = VECTOR ( 'NONE', #133, 1000.000000000000000 ) ;
#313 = PERSON_AND_ORGANIZATION_ROLE ( 'classification_officer' ) ;
ENDSEC;
END-ISO-10303-21;
