ISO-10303-21;
HEADER;
FILE_DESCRIPTION (( 'STEP AP203' ),
    '1' );
FILE_NAME ('03-3190.STEP',
    '2023-07-31T00:17:10',
    ( 'USER' ),
    ( 'Hewlett-Packard Company' ),
    'SwSTEP 2.0',
    'SolidWorks 2014',
    '' );
FILE_SCHEMA (( 'CONFIG_CONTROL_DESIGN' ));
ENDSEC;

DATA;
#1 = EDGE_CURVE ( 'NONE', #318, #58, #175, .T. ) ;
#2 = ADVANCED_FACE ( 'NONE', ( #327 ), #351, .F. ) ;
#3 = DIRECTION ( 'NONE',  ( 0.0000000000000000000, 1.000000000000000000, 0.0000000000000000000 ) ) ;
#4 = DATE_TIME_ROLE ( 'creation_date' ) ;
#5 = COORDINATED_UNIVERSAL_TIME_OFFSET ( 9, 0, .AHEAD. ) ;
#6 = CLOSED_SHELL ( 'NONE', ( #167, #23, #228, #288, #142, #313 ) ) ;
#7 = ORIENTED_EDGE ( 'NONE', *, *, #229, .T. ) ;
#8 = FACE_OUTER_BOUND ( 'NONE', #348, .T. ) ;
#9 =( GEOMETRIC_REPRESENTATION_CONTEXT ( 3 ) GLOBAL_UNCERTAINTY_ASSIGNED_CONTEXT ( ( #36 ) ) GLOBAL_UNIT_ASSIGNED_CONTEXT ( ( #145, #342, #173 ) ) REPRESENTATION_CONTEXT ( 'NONE', 'WORKASPACE' ) );
#10 = AXIS2_PLACEMENT_3D ( 'NONE', #324, #65, #269 ) ;
#11 = LOCAL_TIME ( 9, 17, 10.00000000000000000, #88 ) ;
#12 = DIRECTION ( 'NONE',  ( 1.000000000000000000, 6.123233995736766000E-017, -0.0000000000000000000 ) ) ;
#13 = DIRECTION ( 'NONE',  ( 0.0000000000000000000, 0.0000000000000000000, 1.000000000000000000 ) ) ;
#14 = ORIENTED_EDGE ( 'NONE', *, *, #53, .T. ) ;
#15 = LINE ( 'NONE', #92, #90 ) ;
#16 = DIRECTION ( 'NONE',  ( 1.000000000000000000, 6.123233995736766000E-017, -0.0000000000000000000 ) ) ;
#17 = EDGE_CURVE ( 'NONE', #58, #343, #254, .T. ) ;
#18 = CARTESIAN_POINT ( 'NONE',  ( 0.9999999999999995600, -1.500000000000000000, 1.836970198721029900E-016 ) ) ;
#19 = CIRCLE ( 'NONE', #360, 1.500000000000000000 ) ;
#20 = CARTESIAN_POINT ( 'NONE',  ( 11.00000000000000200, 0.0000000000000000000, 0.0000000000000000000 ) ) ;
#21 = DIRECTION ( 'NONE',  ( 0.0000000000000000000, 0.0000000000000000000, 1.000000000000000000 ) ) ;
#22 = ORIENTED_EDGE ( 'NONE', *, *, #74, .T. ) ;
#23 = ADVANCED_FACE ( 'NONE', ( #319 ), #235, .T. ) ;
#24 = DIRECTION ( 'NONE',  ( -1.000000000000000000, -0.0000000000000000000, -0.0000000000000000000 ) ) ;
#25 = AXIS2_PLACEMENT_3D ( 'NONE', #168, #24, #143 ) ;
#26 = CYLINDRICAL_SURFACE ( 'NONE', #339, 1.500000000000000000 ) ;
#27 = CARTESIAN_POINT ( 'NONE',  ( -28.49999999999999600, -1.500000000000000000, 1.836970198721027700E-016 ) ) ;
#28 = AXIS2_PLACEMENT_3D ( 'NONE', #270, #96, #299 ) ;
#29 = APPROVAL_ROLE ( '' ) ;
#30 = ORIENTED_EDGE ( 'NONE', *, *, #1, .F. ) ;
#31 = AXIS2_PLACEMENT_3D ( 'NONE', #216, #38, #245 ) ;
#32 = ORIENTED_EDGE ( 'NONE', *, *, #252, .T. ) ;
#33 = CIRCLE ( 'NONE', #287, 1.500000000000000000 ) ;
#34 = EDGE_CURVE ( 'NONE', #318, #274, #15, .T. ) ;
#35 = DIRECTION ( 'NONE',  ( 0.7071067811865502400, -0.7071067811865448000, 8.659560562354899600E-017 ) ) ;
#36 = UNCERTAINTY_MEASURE_WITH_UNIT (LENGTH_MEASURE( 1.000000000000000100E-005 ), #145, 'distance_accuracy_value', 'NONE');
#37 = DIRECTION ( 'NONE',  ( -6.123233995736766000E-017, 1.000000000000000000, 0.0000000000000000000 ) ) ;
#38 = DIRECTION ( 'NONE',  ( -1.000000000000000000, -0.0000000000000000000, -0.0000000000000000000 ) ) ;
#39 = ORIENTED_EDGE ( 'NONE', *, *, #113, .F. ) ;
#40 = ORIENTED_EDGE ( 'NONE', *, *, #314, .T. ) ;
#41 = LINE ( 'NONE', #286, #190 ) ;
#42 = CARTESIAN_POINT ( 'NONE',  ( 10.59999999999999800, 0.0000000000000000000, 1.500000000000000900 ) ) ;
#43 = CARTESIAN_POINT ( 'NONE',  ( 10.59999999999999800, 0.0000000000000000000, 1.100000000000000100 ) ) ;
#44 = AXIS2_PLACEMENT_3D ( 'NONE', #156, #353, #182 ) ;
#45 = COORDINATED_UNIVERSAL_TIME_OFFSET ( 9, 0, .AHEAD. ) ;
#46 = DIRECTION ( 'NONE',  ( 0.0000000000000000000, 0.0000000000000000000, 1.000000000000000000 ) ) ;
#47 = AXIS2_PLACEMENT_3D ( 'NONE', #244, #303, #37 ) ;
#48 = ORIENTED_EDGE ( 'NONE', *, *, #265, .F. ) ;
#49 = ORIENTED_EDGE ( 'NONE', *, *, #34, .T. ) ;
#50 = FACE_OUTER_BOUND ( 'NONE', #322, .T. ) ;
#51 = DIRECTION ( 'NONE',  ( -1.000000000000000000, -6.123233995736766000E-017, 0.0000000000000000000 ) ) ;
#52 = ADVANCED_FACE ( 'NONE', ( #163 ), #306, .F. ) ;
#53 = EDGE_CURVE ( 'NONE', #257, #357, #19, .T. ) ;
#54 = DIRECTION ( 'NONE',  ( 0.0000000000000000000, 0.0000000000000000000, 1.000000000000000000 ) ) ;
#55 = DATE_AND_TIME ( #136, #208 ) ;
#56 = PERSON_AND_ORGANIZATION_ROLE ( 'design_supplier' ) ;
#57 = LOCAL_TIME ( 9, 17, 10.00000000000000000, #137 ) ;
#58 = VERTEX_POINT ( 'NONE', #326 ) ;
#59 = EDGE_LOOP ( 'NONE', ( #69, #214, #100, #337 ) ) ;
#60 = LINE ( 'NONE', #212, #215 ) ;
#61 = DIRECTION ( 'NONE',  ( 1.000000000000000000, 0.0000000000000000000, 0.0000000000000000000 ) ) ;
#62 = PERSON_AND_ORGANIZATION ( #320, #220 ) ;
#63 = MANIFOLD_SOLID_BREP ( 'È¸Àü4', #6 ) ;
#64 = AXIS2_PLACEMENT_3D ( 'NONE', #158, #355, #184 ) ;
#65 = DIRECTION ( 'NONE',  ( -1.000000000000000000, 0.0000000000000000000, -0.0000000000000000000 ) ) ;
#66 = DIRECTION ( 'NONE',  ( -1.000000000000000000, -0.0000000000000000000, -0.0000000000000000000 ) ) ;
#67 = APPROVAL_DATE_TIME ( #148, #237 ) ;
#68 = CARTESIAN_POINT ( 'NONE',  ( 0.0000000000000000000, 0.0000000000000000000, 1.500000000000000000 ) ) ;
#69 = ORIENTED_EDGE ( 'NONE', *, *, #297, .F. ) ;
#70 = DIRECTION ( 'NONE',  ( 0.0000000000000000000, 1.000000000000000000, 0.0000000000000000000 ) ) ;
#71 = CIRCLE ( 'NONE', #72, 1.100000000000000100 ) ;
#72 = AXIS2_PLACEMENT_3D ( 'NONE', #132, #330, #160 ) ;
#73 = CARTESIAN_POINT ( 'NONE',  ( 10.59999999999999800, 1.347111479062088500E-016, -1.100000000000000100 ) ) ;
#74 = EDGE_CURVE ( 'NONE', #58, #318, #159, .T. ) ;
#75 = PRODUCT_DEFINITION_SHAPE ( 'NONE', 'NONE',  #122 ) ;
#76 = DIRECTION ( 'NONE',  ( 0.0000000000000000000, 0.0000000000000000000, -1.000000000000000000 ) ) ;
#77 = APPROVAL_PERSON_ORGANIZATION ( #155, #237, #29 ) ;
#78 = ORIENTED_EDGE ( 'NONE', *, *, #265, .T. ) ;
#79 = ORIENTED_EDGE ( 'NONE', *, *, #134, .T. ) ;
#80 = FACE_OUTER_BOUND ( 'NONE', #139, .T. ) ;
#81 = CARTESIAN_POINT ( 'NONE',  ( -28.49999999999999600, 1.499999999999996700, 0.0000000000000000000 ) ) ;
#82 = DIRECTION ( 'NONE',  ( 1.000000000000000000, 6.123233995736766000E-017, -0.0000000000000000000 ) ) ;
#83 = DIRECTION ( 'NONE',  ( 1.000000000000000000, 6.123233995736766000E-017, -0.0000000000000000000 ) ) ;
#84 = AXIS2_PLACEMENT_3D ( 'NONE', #115, #54, #261 ) ;
#85 = DIRECTION ( 'NONE',  ( 1.000000000000000000, 6.123233995736766000E-017, -0.0000000000000000000 ) ) ;
#86 = AXIS2_PLACEMENT_3D ( 'NONE', #125, #239, #13 ) ;
#87 = MECHANICAL_CONTEXT ( 'NONE', #231, 'mechanical' ) ;
#88 = COORDINATED_UNIVERSAL_TIME_OFFSET ( 9, 0, .AHEAD. ) ;
#89 = PERSON_AND_ORGANIZATION_ROLE ( 'classification_officer' ) ;
#90 = VECTOR ( 'NONE', #267, 1000.000000000000000 ) ;
#91 = EDGE_CURVE ( 'NONE', #343, #274, #242, .T. ) ;
#92 = CARTESIAN_POINT ( 'NONE',  ( -28.49999999999999600, 1.499999999999996700, 0.0000000000000000000 ) ) ;
#93 = CYLINDRICAL_SURFACE ( 'NONE', #25, 1.500000000000000000 ) ;
#94 = CARTESIAN_POINT ( 'NONE',  ( -28.49999999999999600, -1.745121688784978200E-015, 0.0000000000000000000 ) ) ;
#95 = DIRECTION ( 'NONE',  ( 0.0000000000000000000, 1.000000000000000000, 0.0000000000000000000 ) ) ;
#96 = DIRECTION ( 'NONE',  ( 1.000000000000000000, 6.123233995736766000E-017, -0.0000000000000000000 ) ) ;
#97 = VECTOR ( 'NONE', #35, 1000.000000000000000 ) ;
#98 = CARTESIAN_POINT ( 'NONE',  ( 1.000000000000000000, 1.836970198721029900E-016, -1.500000000000000000 ) ) ;
#99 = CARTESIAN_POINT ( 'NONE',  ( 1.000000000000000000, 0.0000000000000000000, 1.500000000000000000 ) ) ;
#100 = ORIENTED_EDGE ( 'NONE', *, *, #350, .T. ) ;
#101 = DIRECTION ( 'NONE',  ( 0.0000000000000000000, -1.224646799147353200E-016, 1.000000000000000000 ) ) ;
#102 = CIRCLE ( 'NONE', #321, 1.499999999999998200 ) ;
#103 = CC_DESIGN_PERSON_AND_ORGANIZATION_ASSIGNMENT ( #146, #291, ( #176 ) ) ;
#104 = AXIS2_PLACEMENT_3D ( 'NONE', #328, #16, #211 ) ;
#105 = ORIENTED_EDGE ( 'NONE', *, *, #34, .F. ) ;
#106 = ORIENTED_EDGE ( 'NONE', *, *, #191, .F. ) ;
#107 = DIRECTION ( 'NONE',  ( 0.0000000000000000000, 0.0000000000000000000, 1.000000000000000000 ) ) ;
#108 = AXIS2_PLACEMENT_3D ( 'NONE', #73, #278, #101 ) ;
#109 = ORIENTED_EDGE ( 'NONE', *, *, #134, .F. ) ;
#110 = DIRECTION ( 'NONE',  ( -6.123233995736766000E-017, 1.000000000000000000, 0.0000000000000000000 ) ) ;
#111 = FACE_OUTER_BOUND ( 'NONE', #234, .T. ) ;
#112 = ADVANCED_FACE ( 'NONE', ( #8 ), #312, .T. ) ;
#113 = EDGE_CURVE ( 'NONE', #213, #187, #224, .T. ) ;
#114 = CARTESIAN_POINT ( 'NONE',  ( 0.9999999999999995600, 1.500000000000000000, 0.0000000000000000000 ) ) ;
#115 = CARTESIAN_POINT ( 'NONE',  ( 0.0000000000000000000, 0.0000000000000000000, 0.0000000000000000000 ) ) ;
#116 = APPLICATION_CONTEXT ( 'configuration controlled 3d designs of mechanical parts and assemblies' ) ;
#117 = APPROVAL_STATUS ( 'not_yet_approved' ) ;
#118 = APPROVAL_DATE_TIME ( #192, #243 ) ;
#119 = VERTEX_POINT ( 'NONE', #241 ) ;
#120 = ORIENTED_EDGE ( 'NONE', *, *, #153, .T. ) ;
#121 = CIRCLE ( 'NONE', #205, 1.100000000000000100 ) ;
#122 = PRODUCT_DEFINITION ( 'UNKNOWN', '', #218, #236 ) ;
#123 = CARTESIAN_POINT ( 'NONE',  ( 1.000000000000000400, 5.782411586589361600E-016, 0.0000000000000000000 ) ) ;
#124 = CC_DESIGN_APPROVAL ( #237, ( #218 ) ) ;
#125 = CARTESIAN_POINT ( 'NONE',  ( 10.59999999999999800, 0.0000000000000000000, 0.0000000000000000000 ) ) ;
#126 = APPROVAL_PERSON_ORGANIZATION ( #201, #243, #317 ) ;
#127 = ORIENTED_EDGE ( 'NONE', *, *, #206, .T. ) ;
#128 = ORIENTED_EDGE ( 'NONE', *, *, #229, .F. ) ;
#129 = EDGE_LOOP ( 'NONE', ( #79, #78 ) ) ;
#130 = AXIS2_PLACEMENT_3D ( 'NONE', #276, #185, #304 ) ;
#131 = FACE_OUTER_BOUND ( 'NONE', #240, .T. ) ;
#132 = CARTESIAN_POINT ( 'NONE',  ( 11.00000000000000200, 0.0000000000000000000, 0.0000000000000000000 ) ) ;
#133 = DIRECTION ( 'NONE',  ( 1.000000000000000000, 6.123233995736766000E-017, -0.0000000000000000000 ) ) ;
#134 = EDGE_CURVE ( 'NONE', #187, #138, #301, .T. ) ;
#135 = DIRECTION ( 'NONE',  ( -1.000000000000000000, -0.0000000000000000000, -0.0000000000000000000 ) ) ;
#136 = CALENDAR_DATE ( 2023, 31, 7 ) ;
#137 = COORDINATED_UNIVERSAL_TIME_OFFSET ( 9, 0, .AHEAD. ) ;
#138 = VERTEX_POINT ( 'NONE', #98 ) ;
#139 = EDGE_LOOP ( 'NONE', ( #193, #22, #49, #150 ) ) ;
#140 = CIRCLE ( 'NONE', #186, 1.500000000000000200 ) ;
#141 = DIRECTION ( 'NONE',  ( 1.000000000000000000, 6.123233995736766000E-017, -0.0000000000000000000 ) ) ;
#142 = ADVANCED_FACE ( 'NONE', ( #80 ), #358, .T. ) ;
#143 = DIRECTION ( 'NONE',  ( 0.0000000000000000000, 0.0000000000000000000, 1.000000000000000000 ) ) ;
#144 = APPROVAL ( #147, 'UNSPECIFIED' ) ;
#145 =( LENGTH_UNIT ( ) NAMED_UNIT ( * ) SI_UNIT ( .MILLI., .METRE. ) );
#146 = PERSON_AND_ORGANIZATION ( #320, #220 ) ;
#147 = APPROVAL_STATUS ( 'not_yet_approved' ) ;
#148 = DATE_AND_TIME ( #221, #298 ) ;
#149 = CC_DESIGN_PERSON_AND_ORGANIZATION_ASSIGNMENT ( #362, #233, ( #218 ) ) ;
#150 = ORIENTED_EDGE ( 'NONE', *, *, #91, .F. ) ;
#151 = VECTOR ( 'NONE', #271, 1000.000000000000000 ) ;
#152 = AXIS2_PLACEMENT_3D ( 'NONE', #43, #251, #76 ) ;
#153 = EDGE_CURVE ( 'NONE', #119, #138, #60, .T. ) ;
#154 = DIRECTION ( 'NONE',  ( 1.000000000000000000, 6.123233995736766000E-017, -0.0000000000000000000 ) ) ;
#155 = PERSON_AND_ORGANIZATION ( #320, #220 ) ;
#156 = CARTESIAN_POINT ( 'NONE',  ( -28.49999999999999600, -1.745121688784978200E-015, 0.0000000000000000000 ) ) ;
#157 = ORIENTED_EDGE ( 'NONE', *, *, #314, .F. ) ;
#158 = CARTESIAN_POINT ( 'NONE',  ( 1.000000000000000000, 0.0000000000000000000, 0.0000000000000000000 ) ) ;
#159 = CIRCLE ( 'NONE', #28, 0.9999999999999983300 ) ;
#160 = DIRECTION ( 'NONE',  ( 0.0000000000000000000, 0.0000000000000000000, 1.000000000000000000 ) ) ;
#161 = CC_DESIGN_APPROVAL ( #144, ( #122 ) ) ;
#162 = PERSON_AND_ORGANIZATION ( #320, #220 ) ;
#163 = FACE_OUTER_BOUND ( 'NONE', #249, .T. ) ;
#164 = CC_DESIGN_PERSON_AND_ORGANIZATION_ASSIGNMENT ( #293, #56, ( #218 ) ) ;
#165 = CARTESIAN_POINT ( 'NONE',  ( -28.99999999999999600, -1.775737858763662000E-015, 0.0000000000000000000 ) ) ;
#166 = AXIS2_PLACEMENT_3D ( 'NONE', #217, #133, #334 ) ;
#167 = ADVANCED_FACE ( 'NONE', ( #364 ), #204, .T. ) ;
#168 = CARTESIAN_POINT ( 'NONE',  ( 0.0000000000000000000, 0.0000000000000000000, 0.0000000000000000000 ) ) ;
#169 = ORIENTED_EDGE ( 'NONE', *, *, #171, .F. ) ;
#170 = LINE ( 'NONE', #230, #250 ) ;
#171 = EDGE_CURVE ( 'NONE', #213, #119, #285, .T. ) ;
#172 = DIRECTION ( 'NONE',  ( 1.000000000000000000, 6.123233995736766000E-017, -0.0000000000000000000 ) ) ;
#173 =( NAMED_UNIT ( * ) SI_UNIT ( $, .STERADIAN. ) SOLID_ANGLE_UNIT ( ) );
#174 = PERSON_AND_ORGANIZATION_ROLE ( 'creator' ) ;
#175 = CIRCLE ( 'NONE', #268, 0.9999999999999983300 ) ;
#176 = PRODUCT ( '03-3190', '03-3190', '', ( #87 ) ) ;
#177 = EDGE_LOOP ( 'NONE', ( #275, #120, #109, #39 ) ) ;
#178 = CC_DESIGN_PERSON_AND_ORGANIZATION_ASSIGNMENT ( #162, #174, ( #122 ) ) ;
#179 = CARTESIAN_POINT ( 'NONE',  ( -29.00000000000000000, -1.775737858763662000E-015, 0.0000000000000000000 ) ) ;
#180 = CARTESIAN_POINT ( 'NONE',  ( 0.9999999999999995600, 6.123233995736763600E-017, 0.0000000000000000000 ) ) ;
#181 = ORIENTED_EDGE ( 'NONE', *, *, #191, .T. ) ;
#182 = DIRECTION ( 'NONE',  ( 0.0000000000000000000, 1.000000000000000000, 0.0000000000000000000 ) ) ;
#183 = SECURITY_CLASSIFICATION ( '', '', #262 ) ;
#184 = DIRECTION ( 'NONE',  ( 0.0000000000000000000, 0.0000000000000000000, 1.000000000000000000 ) ) ;
#185 = DIRECTION ( 'NONE',  ( -1.000000000000000000, -0.0000000000000000000, -0.0000000000000000000 ) ) ;
#186 = AXIS2_PLACEMENT_3D ( 'NONE', #307, #135, #335 ) ;
#187 = VERTEX_POINT ( 'NONE', #99 ) ;
#188 = VERTEX_POINT ( 'NONE', #329 ) ;
#189 = PLANE ( 'NONE',  #166 ) ;
#190 = VECTOR ( 'NONE', #82, 1000.000000000000000 ) ;
#191 = EDGE_CURVE ( 'NONE', #248, #188, #71, .T. ) ;
#192 = DATE_AND_TIME ( #272, #346 ) ;
#193 = ORIENTED_EDGE ( 'NONE', *, *, #17, .F. ) ;
#194 = EDGE_LOOP ( 'NONE', ( #222, #264, #157, #105 ) ) ;
#195 = DIRECTION ( 'NONE',  ( -1.000000000000000000, -0.0000000000000000000, -0.0000000000000000000 ) ) ;
#196 = CIRCLE ( 'NONE', #152, 0.4000000000000014700 ) ;
#197 = ADVANCED_FACE ( 'NONE', ( #131 ), #277, .T. ) ;
#198 = CC_DESIGN_DATE_AND_TIME_ASSIGNMENT ( #232, #4, ( #122 ) ) ;
#199 = APPLICATION_PROTOCOL_DEFINITION ( 'international standard', 'config_control_design', 1994, #231 ) ;
#200 = APPROVAL_STATUS ( 'not_yet_approved' ) ;
#201 = PERSON_AND_ORGANIZATION ( #320, #220 ) ;
#202 = CC_DESIGN_PERSON_AND_ORGANIZATION_ASSIGNMENT ( #210, #89, ( #183 ) ) ;
#203 = EDGE_LOOP ( 'NONE', ( #40, #294, #331, #311 ) ) ;
#204 = CYLINDRICAL_SURFACE ( 'NONE', #47, 1.500000000000000000 ) ;
#205 = AXIS2_PLACEMENT_3D ( 'NONE', #20, #225, #46 ) ;
#206 = EDGE_CURVE ( 'NONE', #188, #119, #349, .T. ) ;
#207 = CARTESIAN_POINT ( 'NONE',  ( -28.49999999999999600, -1.500000000000000000, 1.836970198721027700E-016 ) ) ;
#208 = LOCAL_TIME ( 9, 17, 10.00000000000000000, #290 ) ;
#209 = DIRECTION ( 'NONE',  ( 0.0000000000000000000, 1.000000000000000000, 0.0000000000000000000 ) ) ;
#210 = PERSON_AND_ORGANIZATION ( #320, #220 ) ;
#211 = DIRECTION ( 'NONE',  ( 0.0000000000000000000, 1.000000000000000000, 0.0000000000000000000 ) ) ;
#212 = CARTESIAN_POINT ( 'NONE',  ( 0.0000000000000000000, 1.836970198721029900E-016, -1.500000000000000000 ) ) ;
#213 = VERTEX_POINT ( 'NONE', #42 ) ;
#214 = ORIENTED_EDGE ( 'NONE', *, *, #91, .T. ) ;
#215 = VECTOR ( 'NONE', #66, 1000.000000000000000 ) ;
#216 = CARTESIAN_POINT ( 'NONE',  ( 10.59999999999999800, 0.0000000000000000000, 0.0000000000000000000 ) ) ;
#217 = CARTESIAN_POINT ( 'NONE',  ( 0.9999999999999997800, 1.500000000000000000, 0.0000000000000000000 ) ) ;
#218 = PRODUCT_DEFINITION_FORMATION_WITH_SPECIFIED_SOURCE ( 'ANY', '', #176, .NOT_KNOWN. ) ;
#219 = ORIENTED_EDGE ( 'NONE', *, *, #113, .T. ) ;
#220 = ORGANIZATION ( 'UNSPECIFIED', 'UNSPECIFIED', '' ) ;
#221 = CALENDAR_DATE ( 2023, 31, 7 ) ;
#222 = ORIENTED_EDGE ( 'NONE', *, *, #1, .T. ) ;
#223 = CC_DESIGN_DATE_AND_TIME_ASSIGNMENT ( #281, #292, ( #183 ) ) ;
#224 = LINE ( 'NONE', #68, #151 ) ;
#225 = DIRECTION ( 'NONE',  ( -1.000000000000000000, -0.0000000000000000000, -0.0000000000000000000 ) ) ;
#226 = AXIS2_PLACEMENT_3D ( 'NONE', #365, #195, #21 ) ;
#227 = CARTESIAN_POINT ( 'NONE',  ( -29.00000000000000000, 0.9999999999999965600, 0.0000000000000000000 ) ) ;
#228 = ADVANCED_FACE ( 'NONE', ( #50 ), #189, .T. ) ;
#229 = EDGE_CURVE ( 'NONE', #248, #213, #196, .T. ) ;
#230 = CARTESIAN_POINT ( 'NONE',  ( -9.184850993605149700E-017, 1.500000000000000000, 0.0000000000000000000 ) ) ;
#231 = APPLICATION_CONTEXT ( 'configuration controlled 3d designs of mechanical parts and assemblies' ) ;
#232 = DATE_AND_TIME ( #309, #11 ) ;
#233 = PERSON_AND_ORGANIZATION_ROLE ( 'creator' ) ;
#234 = EDGE_LOOP ( 'NONE', ( #30, #283 ) ) ;
#235 = CONICAL_SURFACE ( 'NONE', #308, 1.499999999999998200, 0.7853981633974445000 ) ;
#236 = DESIGN_CONTEXT ( 'detailed design', #116, 'design' ) ;
#237 = APPROVAL ( #200, 'UNSPECIFIED' ) ;
#238 = DIRECTION ( 'NONE',  ( 0.0000000000000000000, 0.0000000000000000000, -1.000000000000000000 ) ) ;
#239 = DIRECTION ( 'NONE',  ( -1.000000000000000000, -0.0000000000000000000, -0.0000000000000000000 ) ) ;
#240 = EDGE_LOOP ( 'NONE', ( #336, #295, #219, #48 ) ) ;
#241 = CARTESIAN_POINT ( 'NONE',  ( 10.59999999999999800, 1.836970198721030700E-016, -1.500000000000000900 ) ) ;
#242 = CIRCLE ( 'NONE', #44, 1.499999999999998200 ) ;
#243 = APPROVAL ( #117, 'UNSPECIFIED' ) ;
#244 = CARTESIAN_POINT ( 'NONE',  ( 0.0000000000000000000, 0.0000000000000000000, 0.0000000000000000000 ) ) ;
#245 = DIRECTION ( 'NONE',  ( 0.0000000000000000000, 0.0000000000000000000, 1.000000000000000000 ) ) ;
#246 = EDGE_CURVE ( 'NONE', #119, #213, #140, .T. ) ;
#247 = AXIS2_PLACEMENT_3D ( 'NONE', #255, #284, #107 ) ;
#248 = VERTEX_POINT ( 'NONE', #359 ) ;
#249 = EDGE_LOOP ( 'NONE', ( #106, #356 ) ) ;
#250 = VECTOR ( 'NONE', #85, 1000.000000000000000 ) ;
#251 = DIRECTION ( 'NONE',  ( 0.0000000000000000000, -1.000000000000000000, 0.0000000000000000000 ) ) ;
#252 = EDGE_CURVE ( 'NONE', #188, #248, #121, .T. ) ;
#253 = EDGE_LOOP ( 'NONE', ( #181, #127, #169, #128 ) ) ;
#254 = LINE ( 'NONE', #207, #97 ) ;
#255 = CARTESIAN_POINT ( 'NONE',  ( 10.59999999999999800, 0.0000000000000000000, 0.0000000000000000000 ) ) ;
#256 = DIRECTION ( 'NONE',  ( 6.123233995736766000E-017, -1.000000000000000000, 0.0000000000000000000 ) ) ;
#257 = VERTEX_POINT ( 'NONE', #18 ) ;
#258 = FACE_OUTER_BOUND ( 'NONE', #59, .T. ) ;
#259 = ADVANCED_FACE ( 'NONE', ( #266 ), #338, .T. ) ;
#260 = CARTESIAN_POINT ( 'NONE',  ( -28.49999999999999600, -1.745121688784978200E-015, 0.0000000000000000000 ) ) ;
#261 = DIRECTION ( 'NONE',  ( 1.000000000000000000, 0.0000000000000000000, 0.0000000000000000000 ) ) ;
#262 = SECURITY_CLASSIFICATION_LEVEL ( 'unclassified' ) ;
#263 = CC_DESIGN_APPROVAL ( #243, ( #183 ) ) ;
#264 = ORIENTED_EDGE ( 'NONE', *, *, #17, .T. ) ;
#265 = EDGE_CURVE ( 'NONE', #138, #187, #296, .T. ) ;
#266 = FACE_OUTER_BOUND ( 'NONE', #253, .T. ) ;
#267 = DIRECTION ( 'NONE',  ( 0.7071067811865502400, 0.7071067811865448000, 0.0000000000000000000 ) ) ;
#268 = AXIS2_PLACEMENT_3D ( 'NONE', #179, #154, #95 ) ;
#269 = DIRECTION ( 'NONE',  ( -0.0000000000000000000, 0.0000000000000000000, 1.000000000000000000 ) ) ;
#270 = CARTESIAN_POINT ( 'NONE',  ( -29.00000000000000000, -1.775737858763662000E-015, 0.0000000000000000000 ) ) ;
#271 = DIRECTION ( 'NONE',  ( -1.000000000000000000, -0.0000000000000000000, -0.0000000000000000000 ) ) ;
#272 = CALENDAR_DATE ( 2023, 31, 7 ) ;
#273 = DIRECTION ( 'NONE',  ( 1.000000000000000000, 6.123233995736766000E-017, -0.0000000000000000000 ) ) ;
#274 = VERTEX_POINT ( 'NONE', #81 ) ;
#275 = ORIENTED_EDGE ( 'NONE', *, *, #171, .T. ) ;
#276 = CARTESIAN_POINT ( 'NONE',  ( 0.0000000000000000000, 0.0000000000000000000, 0.0000000000000000000 ) ) ;
#277 = CYLINDRICAL_SURFACE ( 'NONE', #130, 1.500000000000000000 ) ;
#278 = DIRECTION ( 'NONE',  ( -0.0000000000000000000, 1.000000000000000000, 1.224646799147353200E-016 ) ) ;
#279 = PLANE ( 'NONE',  #305 ) ;
#280 = ADVANCED_BREP_SHAPE_REPRESENTATION ( '03-3190', ( #345, #63, #84 ), #9 ) ;
#281 = DATE_AND_TIME ( #354, #57 ) ;
#282 = CC_DESIGN_SECURITY_CLASSIFICATION ( #183, ( #218 ) ) ;
#283 = ORIENTED_EDGE ( 'NONE', *, *, #74, .F. ) ;
#284 = DIRECTION ( 'NONE',  ( -1.000000000000000000, -0.0000000000000000000, -0.0000000000000000000 ) ) ;
#285 = CIRCLE ( 'NONE', #31, 1.500000000000000200 ) ;
#286 = CARTESIAN_POINT ( 'NONE',  ( 9.184850993605149700E-017, -1.500000000000000000, 1.836970198721029900E-016 ) ) ;
#287 = AXIS2_PLACEMENT_3D ( 'NONE', #341, #172, #3 ) ;
#288 = ADVANCED_FACE ( 'NONE', ( #111 ), #279, .T. ) ;
#289 = DIRECTION ( 'NONE',  ( 0.0000000000000000000, 1.000000000000000000, 0.0000000000000000000 ) ) ;
#290 = COORDINATED_UNIVERSAL_TIME_OFFSET ( 9, 0, .AHEAD. ) ;
#291 = PERSON_AND_ORGANIZATION_ROLE ( 'design_owner' ) ;
#292 = DATE_TIME_ROLE ( 'classification_date' ) ;
#293 = PERSON_AND_ORGANIZATION ( #320, #220 ) ;
#294 = ORIENTED_EDGE ( 'NONE', *, *, #297, .T. ) ;
#295 = ORIENTED_EDGE ( 'NONE', *, *, #246, .T. ) ;
#296 = CIRCLE ( 'NONE', #226, 1.500000000000000000 ) ;
#297 = EDGE_CURVE ( 'NONE', #343, #257, #41, .T. ) ;
#298 = LOCAL_TIME ( 9, 17, 10.00000000000000000, #5 ) ;
#299 = DIRECTION ( 'NONE',  ( 0.0000000000000000000, 1.000000000000000000, 0.0000000000000000000 ) ) ;
#300 = ORIENTED_EDGE ( 'NONE', *, *, #246, .F. ) ;
#301 = CIRCLE ( 'NONE', #64, 1.500000000000000000 ) ;
#302 = PRODUCT_RELATED_PRODUCT_CATEGORY ( 'detail', '', ( #176 ) ) ;
#303 = DIRECTION ( 'NONE',  ( 1.000000000000000000, 6.123233995736766000E-017, -0.0000000000000000000 ) ) ;
#304 = DIRECTION ( 'NONE',  ( 0.0000000000000000000, 0.0000000000000000000, 1.000000000000000000 ) ) ;
#305 = AXIS2_PLACEMENT_3D ( 'NONE', #165, #51, #256 ) ;
#306 = PLANE ( 'NONE',  #10 ) ;
#307 = CARTESIAN_POINT ( 'NONE',  ( 10.59999999999999800, 0.0000000000000000000, 0.0000000000000000000 ) ) ;
#308 = AXIS2_PLACEMENT_3D ( 'NONE', #94, #273, #70 ) ;
#309 = CALENDAR_DATE ( 2023, 31, 7 ) ;
#310 = CLOSED_SHELL ( 'NONE', ( #340, #259, #112, #197, #2, #52 ) ) ;
#311 = ORIENTED_EDGE ( 'NONE', *, *, #350, .F. ) ;
#312 = TOROIDAL_SURFACE ( 'NONE', #86, 1.100000000000000100, 0.4000000000000014700 ) ;
#313 = ADVANCED_FACE ( 'NONE', ( #258 ), #26, .T. ) ;
#314 = EDGE_CURVE ( 'NONE', #274, #343, #102, .T. ) ;
#315 = CARTESIAN_POINT ( 'NONE',  ( 0.0000000000000000000, 0.0000000000000000000, 0.0000000000000000000 ) ) ;
#316 = APPLICATION_PROTOCOL_DEFINITION ( 'international standard', 'config_control_design', 1994, #116 ) ;
#317 = APPROVAL_ROLE ( '' ) ;
#318 = VERTEX_POINT ( 'NONE', #227 ) ;
#319 = FACE_OUTER_BOUND ( 'NONE', #194, .T. ) ;
#320 = PERSON ( 'UNSPECIFIED', 'UNSPECIFIED', 'UNSPECIFIED', ('UNSPECIFIED'), ('UNSPECIFIED'), ('UNSPECIFIED') ) ;
#321 = AXIS2_PLACEMENT_3D ( 'NONE', #260, #83, #289 ) ;
#322 = EDGE_LOOP ( 'NONE', ( #347, #14 ) ) ;
#323 = SHAPE_DEFINITION_REPRESENTATION ( #75, #280 ) ;
#324 = CARTESIAN_POINT ( 'NONE',  ( 11.00000000000000200, 0.0000000000000000000, 0.0000000000000000000 ) ) ;
#325 = AXIS2_PLACEMENT_3D ( 'NONE', #123, #61, #238 ) ;
#326 = CARTESIAN_POINT ( 'NONE',  ( -29.00000000000000000, -1.000000000000000000, 1.530808498934189600E-016 ) ) ;
#327 = FACE_OUTER_BOUND ( 'NONE', #129, .T. ) ;
#328 = CARTESIAN_POINT ( 'NONE',  ( -28.49999999999999600, -1.745121688784978200E-015, 0.0000000000000000000 ) ) ;
#329 = CARTESIAN_POINT ( 'NONE',  ( 11.00000000000000200, 1.592040838891560300E-016, -1.100000000000000100 ) ) ;
#330 = DIRECTION ( 'NONE',  ( -1.000000000000000000, -0.0000000000000000000, -0.0000000000000000000 ) ) ;
#331 = ORIENTED_EDGE ( 'NONE', *, *, #332, .F. ) ;
#332 = EDGE_CURVE ( 'NONE', #357, #257, #33, .T. ) ;
#333 = FACE_OUTER_BOUND ( 'NONE', #177, .T. ) ;
#334 = DIRECTION ( 'NONE',  ( -6.123233995736766000E-017, 1.000000000000000000, 0.0000000000000000000 ) ) ;
#335 = DIRECTION ( 'NONE',  ( 0.0000000000000000000, 0.0000000000000000000, 1.000000000000000000 ) ) ;
#336 = ORIENTED_EDGE ( 'NONE', *, *, #153, .F. ) ;
#337 = ORIENTED_EDGE ( 'NONE', *, *, #53, .F. ) ;
#338 = TOROIDAL_SURFACE ( 'NONE', #247, 1.100000000000000100, 0.4000000000000014700 ) ;
#339 = AXIS2_PLACEMENT_3D ( 'NONE', #315, #141, #110 ) ;
#340 = ADVANCED_FACE ( 'NONE', ( #333 ), #93, .T. ) ;
#341 = CARTESIAN_POINT ( 'NONE',  ( 0.9999999999999995600, 6.123233995736763600E-017, 0.0000000000000000000 ) ) ;
#342 =( NAMED_UNIT ( * ) PLANE_ANGLE_UNIT ( ) SI_UNIT ( $, .RADIAN. ) );
#343 = VERTEX_POINT ( 'NONE', #27 ) ;
#344 = APPROVAL_ROLE ( '' ) ;
#345 = MANIFOLD_SOLID_BREP ( 'È¸Àü3', #310 ) ;
#346 = LOCAL_TIME ( 9, 17, 10.00000000000000000, #45 ) ;
#347 = ORIENTED_EDGE ( 'NONE', *, *, #332, .T. ) ;
#348 = EDGE_LOOP ( 'NONE', ( #363, #32, #7, #300 ) ) ;
#349 = CIRCLE ( 'NONE', #108, 0.4000000000000014700 ) ;
#350 = EDGE_CURVE ( 'NONE', #274, #357, #170, .T. ) ;
#351 = PLANE ( 'NONE',  #325 ) ;
#352 = APPROVAL_DATE_TIME ( #55, #144 ) ;
#353 = DIRECTION ( 'NONE',  ( 1.000000000000000000, 6.123233995736766000E-017, -0.0000000000000000000 ) ) ;
#354 = CALENDAR_DATE ( 2023, 31, 7 ) ;
#355 = DIRECTION ( 'NONE',  ( -1.000000000000000000, -0.0000000000000000000, -0.0000000000000000000 ) ) ;
#356 = ORIENTED_EDGE ( 'NONE', *, *, #252, .F. ) ;
#357 = VERTEX_POINT ( 'NONE', #114 ) ;
#358 = CONICAL_SURFACE ( 'NONE', #104, 1.499999999999998200, 0.7853981633974445000 ) ;
#359 = CARTESIAN_POINT ( 'NONE',  ( 11.00000000000000200, 0.0000000000000000000, 1.100000000000000100 ) ) ;
#360 = AXIS2_PLACEMENT_3D ( 'NONE', #180, #12, #209 ) ;
#361 = APPROVAL_PERSON_ORGANIZATION ( #62, #144, #344 ) ;
#362 = PERSON_AND_ORGANIZATION ( #320, #220 ) ;
#363 = ORIENTED_EDGE ( 'NONE', *, *, #206, .F. ) ;
#364 = FACE_OUTER_BOUND ( 'NONE', #203, .T. ) ;
#365 = CARTESIAN_POINT ( 'NONE',  ( 1.000000000000000000, 0.0000000000000000000, 0.0000000000000000000 ) ) ;
ENDSEC;
END-ISO-10303-21;
