ISO-10303-21;
HEADER;
FILE_DESCRIPTION (( 'STEP AP203' ),
    '1' );
FILE_NAME ('03-3192.STEP',
    '2023-07-31T00:17:57',
    ( 'USER' ),
    ( 'Hewlett-Packard Company' ),
    'SwSTEP 2.0',
    'SolidWorks 2014',
    '' );
FILE_SCHEMA (( 'CONFIG_CONTROL_DESIGN' ));
ENDSEC;

DATA;
#1 = CARTESIAN_POINT ( 'NONE',  ( -58.50000000000000000, -2.999999999999999600, 3.673940397442054900E-016 ) ) ;
#2 = CYLINDRICAL_SURFACE ( 'NONE', #29, 3.000000000000000000 ) ;
#3 = DIRECTION ( 'NONE',  ( 1.000000000000000000, 6.123233995736766000E-017, -0.0000000000000000000 ) ) ;
#4 = DIRECTION ( 'NONE',  ( 1.000000000000000000, 0.0000000000000000000, 0.0000000000000000000 ) ) ;
#5 = SECURITY_CLASSIFICATION_LEVEL ( 'unclassified' ) ;
#6 = FACE_OUTER_BOUND ( 'NONE', #334, .T. ) ;
#7 = DIRECTION ( 'NONE',  ( 0.0000000000000000000, 1.000000000000000000, 0.0000000000000000000 ) ) ;
#8 = CARTESIAN_POINT ( 'NONE',  ( 17.00000000000000000, 0.0000000000000000000, 2.600000000000000100 ) ) ;
#9 = ADVANCED_FACE ( 'NONE', ( #226 ), #216, .T. ) ;
#10 = EDGE_CURVE ( 'NONE', #40, #305, #293, .T. ) ;
#11 = CLOSED_SHELL ( 'NONE', ( #349, #205, #136, #276, #118, #150 ) ) ;
#12 =( GEOMETRIC_REPRESENTATION_CONTEXT ( 3 ) GLOBAL_UNCERTAINTY_ASSIGNED_CONTEXT ( ( #350 ) ) GLOBAL_UNIT_ASSIGNED_CONTEXT ( ( #342, #91, #286 ) ) REPRESENTATION_CONTEXT ( 'NONE', 'WORKASPACE' ) );
#13 = APPROVAL ( #227, 'UNSPECIFIED' ) ;
#14 = ORIENTED_EDGE ( 'NONE', *, *, #101, .T. ) ;
#15 = AXIS2_PLACEMENT_3D ( 'NONE', #328, #161, #360 ) ;
#16 = ORIENTED_EDGE ( 'NONE', *, *, #125, .F. ) ;
#17 = FACE_OUTER_BOUND ( 'NONE', #109, .T. ) ;
#18 = CALENDAR_DATE ( 2023, 31, 7 ) ;
#19 = CARTESIAN_POINT ( 'NONE',  ( 0.9999999999999997800, 3.673940397442059900E-016, -3.000000000000000000 ) ) ;
#20 = DIRECTION ( 'NONE',  ( 0.0000000000000000000, 0.0000000000000000000, 1.000000000000000000 ) ) ;
#21 = ORIENTED_EDGE ( 'NONE', *, *, #90, .T. ) ;
#22 = DIRECTION ( 'NONE',  ( -0.0000000000000000000, 0.0000000000000000000, 1.000000000000000000 ) ) ;
#23 = ADVANCED_FACE ( 'NONE', ( #6 ), #209, .T. ) ;
#24 = EDGE_LOOP ( 'NONE', ( #80, #237, #326, #324 ) ) ;
#25 = CIRCLE ( 'NONE', #165, 0.4000000000000006300 ) ;
#26 = CARTESIAN_POINT ( 'NONE',  ( 0.0000000000000000000, 0.0000000000000000000, 0.0000000000000000000 ) ) ;
#27 = EDGE_CURVE ( 'NONE', #355, #157, #288, .T. ) ;
#28 = VERTEX_POINT ( 'NONE', #146 ) ;
#29 = AXIS2_PLACEMENT_3D ( 'NONE', #115, #222, #310 ) ;
#30 = EDGE_LOOP ( 'NONE', ( #121, #151 ) ) ;
#31 = DATE_AND_TIME ( #103, #180 ) ;
#32 = CC_DESIGN_APPROVAL ( #13, ( #323 ) ) ;
#33 = CARTESIAN_POINT ( 'NONE',  ( -58.50000000000000000, 2.999999999999992900, 0.0000000000000000000 ) ) ;
#34 = PERSON_AND_ORGANIZATION_ROLE ( 'design_owner' ) ;
#35 = CARTESIAN_POINT ( 'NONE',  ( -58.50000000000000000, -3.582091887506007800E-015, 0.0000000000000000000 ) ) ;
#36 = DATE_TIME_ROLE ( 'classification_date' ) ;
#37 = PRODUCT_DEFINITION_SHAPE ( 'NONE', 'NONE',  #124 ) ;
#38 = CARTESIAN_POINT ( 'NONE',  ( 0.0000000000000000000, 3.673940397442059900E-016, -3.000000000000000000 ) ) ;
#39 = AXIS2_PLACEMENT_3D ( 'NONE', #330, #162, #361 ) ;
#40 = VERTEX_POINT ( 'NONE', #201 ) ;
#41 = TOROIDAL_SURFACE ( 'NONE', #153, 2.600000000000000100, 0.4000000000000006300 ) ;
#42 = DIRECTION ( 'NONE',  ( 1.000000000000000000, 6.123233995736766000E-017, -0.0000000000000000000 ) ) ;
#43 = VERTEX_POINT ( 'NONE', #8 ) ;
#44 = PERSON_AND_ORGANIZATION ( #229, #218 ) ;
#45 = MANIFOLD_SOLID_BREP ( 'È¸Àü3', #11 ) ;
#46 = FACE_OUTER_BOUND ( 'NONE', #270, .T. ) ;
#47 = ORIENTED_EDGE ( 'NONE', *, *, #85, .F. ) ;
#48 = EDGE_CURVE ( 'NONE', #40, #355, #155, .T. ) ;
#49 = LOCAL_TIME ( 9, 17, 57.00000000000000000, #122 ) ;
#50 = CC_DESIGN_SECURITY_CLASSIFICATION ( #323, ( #221 ) ) ;
#51 = DIRECTION ( 'NONE',  ( -1.000000000000000000, -0.0000000000000000000, -0.0000000000000000000 ) ) ;
#52 = CARTESIAN_POINT ( 'NONE',  ( 16.60000000000000100, 0.0000000000000000000, 0.0000000000000000000 ) ) ;
#53 = FACE_OUTER_BOUND ( 'NONE', #112, .T. ) ;
#54 = AXIS2_PLACEMENT_3D ( 'NONE', #331, #163, #363 ) ;
#55 = DIRECTION ( 'NONE',  ( 1.000000000000000000, 6.123233995736766000E-017, -0.0000000000000000000 ) ) ;
#56 = ORIENTED_EDGE ( 'NONE', *, *, #104, .T. ) ;
#57 = CALENDAR_DATE ( 2023, 31, 7 ) ;
#58 = DIRECTION ( 'NONE',  ( -1.000000000000000000, -0.0000000000000000000, -0.0000000000000000000 ) ) ;
#59 = CARTESIAN_POINT ( 'NONE',  ( 0.9999999999999997800, 0.0000000000000000000, 0.0000000000000000000 ) ) ;
#60 = EDGE_LOOP ( 'NONE', ( #179, #177, #228, #186 ) ) ;
#61 = DIRECTION ( 'NONE',  ( 0.7071067811865531200, 0.7071067811865420200, 0.0000000000000000000 ) ) ;
#62 = APPLICATION_PROTOCOL_DEFINITION ( 'international standard', 'config_control_design', 1994, #225 ) ;
#63 = DIRECTION ( 'NONE',  ( 1.000000000000000000, 6.123233995736766000E-017, -0.0000000000000000000 ) ) ;
#64 = APPROVAL_ROLE ( '' ) ;
#65 = FACE_OUTER_BOUND ( 'NONE', #351, .T. ) ;
#66 = ORIENTED_EDGE ( 'NONE', *, *, #358, .F. ) ;
#67 = DIRECTION ( 'NONE',  ( 1.000000000000000000, 6.123233995736766000E-017, -0.0000000000000000000 ) ) ;
#69 = DIRECTION ( 'NONE',  ( 1.000000000000000000, 6.123233995736766000E-017, -0.0000000000000000000 ) ) ;
#68 = DATE_AND_TIME ( #138, #212 ) ;
#70 = EDGE_CURVE ( 'NONE', #183, #129, #362, .T. ) ;
#71 = EDGE_CURVE ( 'NONE', #188, #40, #78, .T. ) ;
#72 = PRODUCT_RELATED_PRODUCT_CATEGORY ( 'detail', '', ( #194 ) ) ;
#73 = CIRCLE ( 'NONE', #235, 2.499999999999996400 ) ;
#74 = AXIS2_PLACEMENT_3D ( 'NONE', #52, #132, #20 ) ;
#75 = PERSON_AND_ORGANIZATION ( #229, #218 ) ;
#76 = PLANE ( 'NONE',  #15 ) ;
#77 = DIRECTION ( 'NONE',  ( -1.000000000000000000, -0.0000000000000000000, -0.0000000000000000000 ) ) ;
#78 = LINE ( 'NONE', #33, #354 ) ;
#79 = CARTESIAN_POINT ( 'NONE',  ( -58.50000000000000000, -2.999999999999999600, 3.673940397442054900E-016 ) ) ;
#80 = ORIENTED_EDGE ( 'NONE', *, *, #123, .T. ) ;
#81 = CARTESIAN_POINT ( 'NONE',  ( -59.00000000000000700, 2.499999999999992900, 0.0000000000000000000 ) ) ;
#82 = CARTESIAN_POINT ( 'NONE',  ( 16.60000000000000100, 0.0000000000000000000, 2.600000000000000100 ) ) ;
#83 = CARTESIAN_POINT ( 'NONE',  ( -59.00000000000000700, -2.500000000000000000, 3.367778697655216600E-016 ) ) ;
#84 = ORIENTED_EDGE ( 'NONE', *, *, #236, .T. ) ;
#85 = EDGE_CURVE ( 'NONE', #188, #268, #73, .T. ) ;
#86 = LINE ( 'NONE', #143, #291 ) ;
#87 = AXIS2_PLACEMENT_3D ( 'NONE', #224, #172, #4 ) ;
#88 = DIRECTION ( 'NONE',  ( -1.000000000000000000, -0.0000000000000000000, -0.0000000000000000000 ) ) ;
#89 = DIRECTION ( 'NONE',  ( 0.0000000000000000000, 0.0000000000000000000, 1.000000000000000000 ) ) ;
#90 = EDGE_CURVE ( 'NONE', #157, #355, #273, .T. ) ;
#91 =( NAMED_UNIT ( * ) PLANE_ANGLE_UNIT ( ) SI_UNIT ( $, .RADIAN. ) );
#92 = APPROVAL_ROLE ( '' ) ;
#93 = CLOSED_SHELL ( 'NONE', ( #9, #256, #94, #247, #23, #230 ) ) ;
#94 = ADVANCED_FACE ( 'NONE', ( #65 ), #145, .T. ) ;
#95 = ORIENTED_EDGE ( 'NONE', *, *, #27, .F. ) ;
#96 = LINE ( 'NONE', #249, #298 ) ;
#97 = LOCAL_TIME ( 9, 17, 57.00000000000000000, #169 ) ;
#98 = ORIENTED_EDGE ( 'NONE', *, *, #48, .T. ) ;
#99 = FACE_OUTER_BOUND ( 'NONE', #315, .T. ) ;
#100 = ORIENTED_EDGE ( 'NONE', *, *, #125, .T. ) ;
#101 = EDGE_CURVE ( 'NONE', #43, #28, #126, .T. ) ;
#102 = CC_DESIGN_PERSON_AND_ORGANIZATION_ASSIGNMENT ( #152, #34, ( #194 ) ) ;
#103 = CALENDAR_DATE ( 2023, 31, 7 ) ;
#104 = EDGE_CURVE ( 'NONE', #268, #188, #348, .T. ) ;
#105 = CARTESIAN_POINT ( 'NONE',  ( -59.00000000000000700, -3.612708057484692400E-015, 0.0000000000000000000 ) ) ;
#106 = CARTESIAN_POINT ( 'NONE',  ( 16.60000000000000100, 3.673940397442060400E-016, -3.000000000000000000 ) ) ;
#107 = PLANE ( 'NONE',  #128 ) ;
#108 = CARTESIAN_POINT ( 'NONE',  ( 16.60000000000000100, 0.0000000000000000000, 0.0000000000000000000 ) ) ;
#109 = EDGE_LOOP ( 'NONE', ( #321, #166, #210, #250 ) ) ;
#110 = CIRCLE ( 'NONE', #336, 3.000000000000000000 ) ;
#111 = DIRECTION ( 'NONE',  ( 0.0000000000000000000, 0.0000000000000000000, -1.000000000000000000 ) ) ;
#112 = EDGE_LOOP ( 'NONE', ( #246, #302 ) ) ;
#113 = DIRECTION ( 'NONE',  ( -1.000000000000000000, -0.0000000000000000000, -0.0000000000000000000 ) ) ;
#114 = PERSON_AND_ORGANIZATION ( #229, #218 ) ;
#115 = CARTESIAN_POINT ( 'NONE',  ( 0.0000000000000000000, 0.0000000000000000000, 0.0000000000000000000 ) ) ;
#116 = DATE_TIME_ROLE ( 'creation_date' ) ;
#117 = DIRECTION ( 'NONE',  ( 0.0000000000000000000, 1.000000000000000000, 0.0000000000000000000 ) ) ;
#118 = ADVANCED_FACE ( 'NONE', ( #53 ), #76, .F. ) ;
#119 = CIRCLE ( 'NONE', #39, 2.999999999999996000 ) ;
#120 = CARTESIAN_POINT ( 'NONE',  ( 0.0000000000000000000, 0.0000000000000000000, 0.0000000000000000000 ) ) ;
#121 = ORIENTED_EDGE ( 'NONE', *, *, #101, .F. ) ;
#122 = COORDINATED_UNIVERSAL_TIME_OFFSET ( 9, 0, .AHEAD. ) ;
#123 = EDGE_CURVE ( 'NONE', #314, #183, #191, .T. ) ;
#124 = PRODUCT_DEFINITION ( 'UNKNOWN', '', #221, #190 ) ;
#125 = EDGE_CURVE ( 'NONE', #305, #40, #119, .T. ) ;
#126 = CIRCLE ( 'NONE', #292, 2.600000000000000100 ) ;
#127 = ORIENTED_EDGE ( 'NONE', *, *, #10, .T. ) ;
#128 = AXIS2_PLACEMENT_3D ( 'NONE', #215, #189, #22 ) ;
#129 = VERTEX_POINT ( 'NONE', #19 ) ;
#130 = LOCAL_TIME ( 9, 17, 57.00000000000000000, #207 ) ;
#131 = DIRECTION ( 'NONE',  ( 0.0000000000000000000, 1.000000000000000000, 0.0000000000000000000 ) ) ;
#132 = DIRECTION ( 'NONE',  ( -1.000000000000000000, -0.0000000000000000000, -0.0000000000000000000 ) ) ;
#133 = VECTOR ( 'NONE', #345, 1000.000000000000000 ) ;
#134 = DIRECTION ( 'NONE',  ( -6.123233995736766000E-017, 1.000000000000000000, 0.0000000000000000000 ) ) ;
#135 = ORIENTED_EDGE ( 'NONE', *, *, #48, .F. ) ;
#136 = ADVANCED_FACE ( 'NONE', ( #46 ), #202, .T. ) ;
#137 = DIRECTION ( 'NONE',  ( 6.123233995736766000E-017, -1.000000000000000000, 0.0000000000000000000 ) ) ;
#138 = CALENDAR_DATE ( 2023, 31, 7 ) ;
#139 = DIRECTION ( 'NONE',  ( -1.000000000000000000, -0.0000000000000000000, -0.0000000000000000000 ) ) ;
#140 = EDGE_CURVE ( 'NONE', #268, #305, #258, .T. ) ;
#141 = APPROVAL ( #255, 'UNSPECIFIED' ) ;
#142 = CARTESIAN_POINT ( 'NONE',  ( 0.9999999999999997800, 0.0000000000000000000, 0.0000000000000000000 ) ) ;
#143 = CARTESIAN_POINT ( 'NONE',  ( 1.836970198721029900E-016, -3.000000000000000000, 3.673940397442059900E-016 ) ) ;
#144 = EDGE_CURVE ( 'NONE', #28, #183, #332, .T. ) ;
#145 = PLANE ( 'NONE',  #312 ) ;
#146 = CARTESIAN_POINT ( 'NONE',  ( 17.00000000000000000, 3.429011037612588800E-016, -2.600000000000000100 ) ) ;
#147 = APPROVAL_ROLE ( '' ) ;
#148 = VECTOR ( 'NONE', #3, 1000.000000000000000 ) ;
#149 = CARTESIAN_POINT ( 'NONE',  ( 0.9999999999999993300, 6.123233995736762300E-017, 0.0000000000000000000 ) ) ;
#150 = ADVANCED_FACE ( 'NONE', ( #266 ), #107, .F. ) ;
#151 = ORIENTED_EDGE ( 'NONE', *, *, #259, .F. ) ;
#152 = PERSON_AND_ORGANIZATION ( #229, #218 ) ;
#153 = AXIS2_PLACEMENT_3D ( 'NONE', #108, #274, #303 ) ;
#154 = FACE_OUTER_BOUND ( 'NONE', #24, .T. ) ;
#155 = LINE ( 'NONE', #203, #148 ) ;
#156 = ORIENTED_EDGE ( 'NONE', *, *, #90, .F. ) ;
#157 = VERTEX_POINT ( 'NONE', #244 ) ;
#158 = CYLINDRICAL_SURFACE ( 'NONE', #319, 3.000000000000000000 ) ;
#159 = CC_DESIGN_APPROVAL ( #141, ( #124 ) ) ;
#160 = AXIS2_PLACEMENT_3D ( 'NONE', #35, #63, #117 ) ;
#161 = DIRECTION ( 'NONE',  ( 1.000000000000000000, 0.0000000000000000000, 0.0000000000000000000 ) ) ;
#162 = DIRECTION ( 'NONE',  ( 1.000000000000000000, 6.123233995736766000E-017, -0.0000000000000000000 ) ) ;
#163 = DIRECTION ( 'NONE',  ( -0.0000000000000000000, 1.000000000000000000, 1.224646799147353200E-016 ) ) ;
#164 = DIRECTION ( 'NONE',  ( 1.000000000000000000, 6.123233995736766000E-017, -0.0000000000000000000 ) ) ;
#165 = AXIS2_PLACEMENT_3D ( 'NONE', #82, #278, #111 ) ;
#166 = ORIENTED_EDGE ( 'NONE', *, *, #279, .T. ) ;
#167 = CIRCLE ( 'NONE', #281, 3.000000000000000000 ) ;
#168 = DIRECTION ( 'NONE',  ( 0.0000000000000000000, 0.0000000000000000000, 1.000000000000000000 ) ) ;
#169 = COORDINATED_UNIVERSAL_TIME_OFFSET ( 9, 0, .AHEAD. ) ;
#170 = CARTESIAN_POINT ( 'NONE',  ( 0.9999999999999991100, 3.000000000000000000, 0.0000000000000000000 ) ) ;
#171 = DIRECTION ( 'NONE',  ( 1.000000000000000000, 6.123233995736766000E-017, -0.0000000000000000000 ) ) ;
#172 = DIRECTION ( 'NONE',  ( 0.0000000000000000000, 0.0000000000000000000, 1.000000000000000000 ) ) ;
#173 = CARTESIAN_POINT ( 'NONE',  ( -58.50000000000000000, -3.582091887506007800E-015, 0.0000000000000000000 ) ) ;
#174 = PERSON_AND_ORGANIZATION_ROLE ( 'design_supplier' ) ;
#175 = DIRECTION ( 'NONE',  ( 1.000000000000000000, 6.123233995736766000E-017, -0.0000000000000000000 ) ) ;
#176 = DIRECTION ( 'NONE',  ( -7.228014483236695800E-017, 1.000000000000000000, 0.0000000000000000000 ) ) ;
#177 = ORIENTED_EDGE ( 'NONE', *, *, #140, .T. ) ;
#178 = FACE_OUTER_BOUND ( 'NONE', #60, .T. ) ;
#179 = ORIENTED_EDGE ( 'NONE', *, *, #85, .T. ) ;
#180 = LOCAL_TIME ( 9, 17, 57.00000000000000000, #252 ) ;
#181 = CC_DESIGN_PERSON_AND_ORGANIZATION_ASSIGNMENT ( #280, #287, ( #124 ) ) ;
#182 = AXIS2_PLACEMENT_3D ( 'NONE', #173, #175, #7 ) ;
#183 = VERTEX_POINT ( 'NONE', #106 ) ;
#184 = VECTOR ( 'NONE', #272, 999.9999999999998900 ) ;
#185 = AXIS2_PLACEMENT_3D ( 'NONE', #301, #164, #134 ) ;
#186 = ORIENTED_EDGE ( 'NONE', *, *, #71, .F. ) ;
#187 = APPROVAL_DATE_TIME ( #263, #240 ) ;
#188 = VERTEX_POINT ( 'NONE', #81 ) ;
#189 = DIRECTION ( 'NONE',  ( -1.000000000000000000, 0.0000000000000000000, -0.0000000000000000000 ) ) ;
#190 = DESIGN_CONTEXT ( 'detailed design', #225, 'design' ) ;
#191 = CIRCLE ( 'NONE', #364, 3.000000000000000000 ) ;
#192 = PLANE ( 'NONE',  #219 ) ;
#193 = ORIENTED_EDGE ( 'NONE', *, *, #144, .F. ) ;
#194 = PRODUCT ( '03-3192', '03-3192', '', ( #199 ) ) ;
#195 = ORIENTED_EDGE ( 'NONE', *, *, #71, .T. ) ;
#196 = APPROVAL_PERSON_ORGANIZATION ( #269, #240, #147 ) ;
#197 = CARTESIAN_POINT ( 'NONE',  ( -59.00000000000000700, -3.612708057484692400E-015, 0.0000000000000000000 ) ) ;
#198 = AXIS2_PLACEMENT_3D ( 'NONE', #120, #67, #318 ) ;
#199 = MECHANICAL_CONTEXT ( 'NONE', #344, 'mechanical' ) ;
#200 = PERSON_AND_ORGANIZATION_ROLE ( 'classification_officer' ) ;
#201 = CARTESIAN_POINT ( 'NONE',  ( -58.50000000000000000, 2.999999999999992900, 0.0000000000000000000 ) ) ;
#202 = TOROIDAL_SURFACE ( 'NONE', #74, 2.600000000000000100, 0.4000000000000006300 ) ;
#203 = CARTESIAN_POINT ( 'NONE',  ( -1.836970198721029900E-016, 3.000000000000000000, 0.0000000000000000000 ) ) ;
#204 = ORIENTED_EDGE ( 'NONE', *, *, #279, .F. ) ;
#205 = ADVANCED_FACE ( 'NONE', ( #248 ), #41, .T. ) ;
#206 = AXIS2_PLACEMENT_3D ( 'NONE', #333, #55, #245 ) ;
#207 = COORDINATED_UNIVERSAL_TIME_OFFSET ( 9, 0, .AHEAD. ) ;
#208 = CC_DESIGN_DATE_AND_TIME_ASSIGNMENT ( #353, #116, ( #124 ) ) ;
#209 = CONICAL_SURFACE ( 'NONE', #160, 2.999999999999996000, 0.7853981633974405100 ) ;
#210 = ORIENTED_EDGE ( 'NONE', *, *, #335, .T. ) ;
#211 = ADVANCED_BREP_SHAPE_REPRESENTATION ( '03-3192', ( #45, #277, #87 ), #12 ) ;
#212 = LOCAL_TIME ( 9, 17, 57.00000000000000000, #290 ) ;
#213 = CARTESIAN_POINT ( 'NONE',  ( 17.00000000000000000, 0.0000000000000000000, 0.0000000000000000000 ) ) ;
#214 = AXIS2_PLACEMENT_3D ( 'NONE', #149, #347, #176 ) ;
#215 = CARTESIAN_POINT ( 'NONE',  ( 17.00000000000000000, 0.0000000000000000000, 0.0000000000000000000 ) ) ;
#216 = CYLINDRICAL_SURFACE ( 'NONE', #198, 3.000000000000000000 ) ;
#217 = CARTESIAN_POINT ( 'NONE',  ( -59.00000000000000000, -3.612708057484691600E-015, 0.0000000000000000000 ) ) ;
#218 = ORGANIZATION ( 'UNSPECIFIED', 'UNSPECIFIED', '' ) ;
#219 = AXIS2_PLACEMENT_3D ( 'NONE', #217, #304, #137 ) ;
#220 = CARTESIAN_POINT ( 'NONE',  ( 0.9999999999999997800, 0.0000000000000000000, 3.000000000000000000 ) ) ;
#221 = PRODUCT_DEFINITION_FORMATION_WITH_SPECIFIED_SOURCE ( 'ANY', '', #194, .NOT_KNOWN. ) ;
#222 = DIRECTION ( 'NONE',  ( -1.000000000000000000, -0.0000000000000000000, -0.0000000000000000000 ) ) ;
#223 = CARTESIAN_POINT ( 'NONE',  ( 0.9999999999999995600, 3.000000000000000000, 0.0000000000000000000 ) ) ;
#224 = CARTESIAN_POINT ( 'NONE',  ( 0.0000000000000000000, 0.0000000000000000000, 0.0000000000000000000 ) ) ;
#225 = APPLICATION_CONTEXT ( 'configuration controlled 3d designs of mechanical parts and assemblies' ) ;
#226 = FACE_OUTER_BOUND ( 'NONE', #232, .T. ) ;
#227 = APPROVAL_STATUS ( 'not_yet_approved' ) ;
#228 = ORIENTED_EDGE ( 'NONE', *, *, #10, .F. ) ;
#229 = PERSON ( 'UNSPECIFIED', 'UNSPECIFIED', 'UNSPECIFIED', ('UNSPECIFIED'), ('UNSPECIFIED'), ('UNSPECIFIED') ) ;
#230 = ADVANCED_FACE ( 'NONE', ( #325 ), #317, .T. ) ;
#231 = DIRECTION ( 'NONE',  ( -7.228014483236695800E-017, 1.000000000000000000, 0.0000000000000000000 ) ) ;
#232 = EDGE_LOOP ( 'NONE', ( #127, #262, #95, #135 ) ) ;
#233 = CONICAL_SURFACE ( 'NONE', #206, 2.999999999999996000, 0.7853981633974405100 ) ;
#234 = APPROVAL_DATE_TIME ( #309, #13 ) ;
#235 = AXIS2_PLACEMENT_3D ( 'NONE', #197, #171, #343 ) ;
#236 = EDGE_CURVE ( 'NONE', #43, #314, #25, .T. ) ;
#237 = ORIENTED_EDGE ( 'NONE', *, *, #70, .T. ) ;
#238 = AXIS2_PLACEMENT_3D ( 'NONE', #282, #113, #307 ) ;
#239 = CIRCLE ( 'NONE', #296, 3.000000000000000000 ) ;
#240 = APPROVAL ( #313, 'UNSPECIFIED' ) ;
#241 = APPROVAL_PERSON_ORGANIZATION ( #322, #13, #64 ) ;
#242 = DIRECTION ( 'NONE',  ( 0.0000000000000000000, 0.0000000000000000000, 1.000000000000000000 ) ) ;
#243 = CARTESIAN_POINT ( 'NONE',  ( 16.60000000000000100, 0.0000000000000000000, 0.0000000000000000000 ) ) ;
#244 = CARTESIAN_POINT ( 'NONE',  ( 0.9999999999999995600, -3.000000000000000000, 3.673940397442059900E-016 ) ) ;
#245 = DIRECTION ( 'NONE',  ( 0.0000000000000000000, 1.000000000000000000, 0.0000000000000000000 ) ) ;
#246 = ORIENTED_EDGE ( 'NONE', *, *, #295, .T. ) ;
#247 = ADVANCED_FACE ( 'NONE', ( #99 ), #192, .T. ) ;
#248 = FACE_OUTER_BOUND ( 'NONE', #275, .T. ) ;
#249 = CARTESIAN_POINT ( 'NONE',  ( 0.0000000000000000000, 0.0000000000000000000, 3.000000000000000000 ) ) ;
#250 = ORIENTED_EDGE ( 'NONE', *, *, #316, .F. ) ;
#251 = CARTESIAN_POINT ( 'NONE',  ( 16.60000000000000100, 0.0000000000000000000, 0.0000000000000000000 ) ) ;
#252 = COORDINATED_UNIVERSAL_TIME_OFFSET ( 9, 0, .AHEAD. ) ;
#253 = DIRECTION ( 'NONE',  ( -1.000000000000000000, -0.0000000000000000000, -0.0000000000000000000 ) ) ;
#254 = AXIS2_PLACEMENT_3D ( 'NONE', #261, #69, #231 ) ;
#255 = APPROVAL_STATUS ( 'not_yet_approved' ) ;
#256 = ADVANCED_FACE ( 'NONE', ( #178 ), #233, .T. ) ;
#257 = ORIENTED_EDGE ( 'NONE', *, *, #27, .T. ) ;
#258 = LINE ( 'NONE', #79, #184 ) ;
#259 = EDGE_CURVE ( 'NONE', #28, #43, #306, .T. ) ;
#260 = ORIENTED_EDGE ( 'NONE', *, *, #144, .T. ) ;
#261 = CARTESIAN_POINT ( 'NONE',  ( 0.9999999999999993300, 6.123233995736762300E-017, 0.0000000000000000000 ) ) ;
#262 = ORIENTED_EDGE ( 'NONE', *, *, #358, .T. ) ;
#263 = DATE_AND_TIME ( #338, #49 ) ;
#264 = CC_DESIGN_APPROVAL ( #240, ( #221 ) ) ;
#265 = ORIENTED_EDGE ( 'NONE', *, *, #236, .F. ) ;
#266 = FACE_OUTER_BOUND ( 'NONE', #30, .T. ) ;
#267 = VERTEX_POINT ( 'NONE', #220 ) ;
#268 = VERTEX_POINT ( 'NONE', #83 ) ;
#269 = PERSON_AND_ORGANIZATION ( #229, #218 ) ;
#270 = EDGE_LOOP ( 'NONE', ( #193, #289, #84, #204 ) ) ;
#271 = DIRECTION ( 'NONE',  ( 0.0000000000000000000, 0.0000000000000000000, 1.000000000000000000 ) ) ;
#272 = DIRECTION ( 'NONE',  ( 0.7071067811865531200, -0.7071067811865420200, 8.659560562354866300E-017 ) ) ;
#273 = CIRCLE ( 'NONE', #254, 3.000000000000000000 ) ;
#274 = DIRECTION ( 'NONE',  ( -1.000000000000000000, -0.0000000000000000000, -0.0000000000000000000 ) ) ;
#275 = EDGE_LOOP ( 'NONE', ( #14, #260, #320, #265 ) ) ;
#276 = ADVANCED_FACE ( 'NONE', ( #17 ), #158, .T. ) ;
#277 = MANIFOLD_SOLID_BREP ( 'È¸Àü4', #93 ) ;
#278 = DIRECTION ( 'NONE',  ( 0.0000000000000000000, -1.000000000000000000, 0.0000000000000000000 ) ) ;
#279 = EDGE_CURVE ( 'NONE', #183, #314, #239, .T. ) ;
#280 = PERSON_AND_ORGANIZATION ( #229, #218 ) ;
#281 = AXIS2_PLACEMENT_3D ( 'NONE', #142, #339, #168 ) ;
#282 = CARTESIAN_POINT ( 'NONE',  ( 17.00000000000000000, 0.0000000000000000000, 0.0000000000000000000 ) ) ;
#283 = DIRECTION ( 'NONE',  ( 0.0000000000000000000, 0.0000000000000000000, 1.000000000000000000 ) ) ;
#284 = CC_DESIGN_PERSON_AND_ORGANIZATION_ASSIGNMENT ( #114, #346, ( #221 ) ) ;
#285 = DIRECTION ( 'NONE',  ( 1.000000000000000000, 6.123233995736766000E-017, -0.0000000000000000000 ) ) ;
#286 =( NAMED_UNIT ( * ) SI_UNIT ( $, .STERADIAN. ) SOLID_ANGLE_UNIT ( ) );
#287 = PERSON_AND_ORGANIZATION_ROLE ( 'creator' ) ;
#288 = CIRCLE ( 'NONE', #214, 3.000000000000000000 ) ;
#289 = ORIENTED_EDGE ( 'NONE', *, *, #259, .T. ) ;
#290 = COORDINATED_UNIVERSAL_TIME_OFFSET ( 9, 0, .AHEAD. ) ;
#291 = VECTOR ( 'NONE', #285, 1000.000000000000000 ) ;
#292 = AXIS2_PLACEMENT_3D ( 'NONE', #213, #51, #242 ) ;
#293 = CIRCLE ( 'NONE', #182, 2.999999999999996000 ) ;
#294 = SHAPE_DEFINITION_REPRESENTATION ( #37, #211 ) ;
#295 = EDGE_CURVE ( 'NONE', #267, #129, #167, .T. ) ;
#296 = AXIS2_PLACEMENT_3D ( 'NONE', #251, #88, #283 ) ;
#297 = ORIENTED_EDGE ( 'NONE', *, *, #140, .F. ) ;
#298 = VECTOR ( 'NONE', #58, 1000.000000000000000 ) ;
#299 = CC_DESIGN_PERSON_AND_ORGANIZATION_ASSIGNMENT ( #44, #174, ( #221 ) ) ;
#300 = DIRECTION ( 'NONE',  ( 1.000000000000000000, 6.123233995736766000E-017, -0.0000000000000000000 ) ) ;
#301 = CARTESIAN_POINT ( 'NONE',  ( 0.0000000000000000000, 0.0000000000000000000, 0.0000000000000000000 ) ) ;
#302 = ORIENTED_EDGE ( 'NONE', *, *, #316, .T. ) ;
#303 = DIRECTION ( 'NONE',  ( 0.0000000000000000000, 0.0000000000000000000, 1.000000000000000000 ) ) ;
#304 = DIRECTION ( 'NONE',  ( -1.000000000000000000, -6.123233995736766000E-017, 0.0000000000000000000 ) ) ;
#305 = VERTEX_POINT ( 'NONE', #1 ) ;
#306 = CIRCLE ( 'NONE', #238, 2.600000000000000100 ) ;
#307 = DIRECTION ( 'NONE',  ( 0.0000000000000000000, 0.0000000000000000000, 1.000000000000000000 ) ) ;
#308 = CARTESIAN_POINT ( 'NONE',  ( 16.60000000000000100, 0.0000000000000000000, 3.000000000000000000 ) ) ;
#309 = DATE_AND_TIME ( #18, #97 ) ;
#310 = DIRECTION ( 'NONE',  ( 0.0000000000000000000, 0.0000000000000000000, 1.000000000000000000 ) ) ;
#311 = APPLICATION_PROTOCOL_DEFINITION ( 'international standard', 'config_control_design', 1994, #344 ) ;
#312 = AXIS2_PLACEMENT_3D ( 'NONE', #223, #42, #340 ) ;
#313 = APPROVAL_STATUS ( 'not_yet_approved' ) ;
#314 = VERTEX_POINT ( 'NONE', #308 ) ;
#315 = EDGE_LOOP ( 'NONE', ( #47, #352 ) ) ;
#316 = EDGE_CURVE ( 'NONE', #129, #267, #110, .T. ) ;
#317 = CYLINDRICAL_SURFACE ( 'NONE', #185, 3.000000000000000000 ) ;
#318 = DIRECTION ( 'NONE',  ( -6.123233995736766000E-017, 1.000000000000000000, 0.0000000000000000000 ) ) ;
#319 = AXIS2_PLACEMENT_3D ( 'NONE', #26, #139, #337 ) ;
#320 = ORIENTED_EDGE ( 'NONE', *, *, #123, .F. ) ;
#321 = ORIENTED_EDGE ( 'NONE', *, *, #70, .F. ) ;
#322 = PERSON_AND_ORGANIZATION ( #229, #218 ) ;
#323 = SECURITY_CLASSIFICATION ( '', '', #5 ) ;
#324 = ORIENTED_EDGE ( 'NONE', *, *, #335, .F. ) ;
#325 = FACE_OUTER_BOUND ( 'NONE', #356, .T. ) ;
#326 = ORIENTED_EDGE ( 'NONE', *, *, #295, .F. ) ;
#327 = PERSON_AND_ORGANIZATION ( #229, #218 ) ;
#328 = CARTESIAN_POINT ( 'NONE',  ( 1.000000000000000400, 3.614007241618351200E-016, 0.0000000000000000000 ) ) ;
#329 = AXIS2_PLACEMENT_3D ( 'NONE', #105, #300, #131 ) ;
#330 = CARTESIAN_POINT ( 'NONE',  ( -58.50000000000000000, -3.582091887506007800E-015, 0.0000000000000000000 ) ) ;
#331 = CARTESIAN_POINT ( 'NONE',  ( 16.60000000000000100, 3.184081677783118200E-016, -2.600000000000000100 ) ) ;
#332 = CIRCLE ( 'NONE', #54, 0.4000000000000006300 ) ;
#333 = CARTESIAN_POINT ( 'NONE',  ( -58.50000000000000000, -3.582091887506007800E-015, 0.0000000000000000000 ) ) ;
#334 = EDGE_LOOP ( 'NONE', ( #297, #56, #195, #16 ) ) ;
#335 = EDGE_CURVE ( 'NONE', #314, #267, #96, .T. ) ;
#336 = AXIS2_PLACEMENT_3D ( 'NONE', #59, #253, #89 ) ;
#337 = DIRECTION ( 'NONE',  ( 0.0000000000000000000, 0.0000000000000000000, 1.000000000000000000 ) ) ;
#338 = CALENDAR_DATE ( 2023, 31, 7 ) ;
#339 = DIRECTION ( 'NONE',  ( -1.000000000000000000, -0.0000000000000000000, -0.0000000000000000000 ) ) ;
#340 = DIRECTION ( 'NONE',  ( -6.123233995736766000E-017, 1.000000000000000000, 0.0000000000000000000 ) ) ;
#341 = CC_DESIGN_PERSON_AND_ORGANIZATION_ASSIGNMENT ( #327, #200, ( #323 ) ) ;
#342 =( LENGTH_UNIT ( ) NAMED_UNIT ( * ) SI_UNIT ( .MILLI., .METRE. ) );
#343 = DIRECTION ( 'NONE',  ( 0.0000000000000000000, 1.000000000000000000, 0.0000000000000000000 ) ) ;
#344 = APPLICATION_CONTEXT ( 'configuration controlled 3d designs of mechanical parts and assemblies' ) ;
#345 = DIRECTION ( 'NONE',  ( -1.000000000000000000, -0.0000000000000000000, -0.0000000000000000000 ) ) ;
#346 = PERSON_AND_ORGANIZATION_ROLE ( 'creator' ) ;
#347 = DIRECTION ( 'NONE',  ( 1.000000000000000000, 6.123233995736766000E-017, -0.0000000000000000000 ) ) ;
#348 = CIRCLE ( 'NONE', #329, 2.499999999999996400 ) ;
#349 = ADVANCED_FACE ( 'NONE', ( #154 ), #2, .T. ) ;
#350 = UNCERTAINTY_MEASURE_WITH_UNIT (LENGTH_MEASURE( 1.000000000000000100E-005 ), #342, 'distance_accuracy_value', 'NONE');
#351 = EDGE_LOOP ( 'NONE', ( #257, #21 ) ) ;
#352 = ORIENTED_EDGE ( 'NONE', *, *, #104, .F. ) ;
#353 = DATE_AND_TIME ( #57, #130 ) ;
#354 = VECTOR ( 'NONE', #61, 999.9999999999998900 ) ;
#355 = VERTEX_POINT ( 'NONE', #170 ) ;
#356 = EDGE_LOOP ( 'NONE', ( #66, #100, #98, #156 ) ) ;
#357 = APPROVAL_DATE_TIME ( #68, #141 ) ;
#358 = EDGE_CURVE ( 'NONE', #305, #157, #86, .T. ) ;
#359 = CC_DESIGN_DATE_AND_TIME_ASSIGNMENT ( #31, #36, ( #323 ) ) ;
#360 = DIRECTION ( 'NONE',  ( 0.0000000000000000000, 0.0000000000000000000, -1.000000000000000000 ) ) ;
#361 = DIRECTION ( 'NONE',  ( 0.0000000000000000000, 1.000000000000000000, 0.0000000000000000000 ) ) ;
#362 = LINE ( 'NONE', #38, #133 ) ;
#363 = DIRECTION ( 'NONE',  ( 0.0000000000000000000, -1.224646799147353200E-016, 1.000000000000000000 ) ) ;
#364 = AXIS2_PLACEMENT_3D ( 'NONE', #243, #77, #271 ) ;
#365 = APPROVAL_PERSON_ORGANIZATION ( #75, #141, #92 ) ;
ENDSEC;
END-ISO-10303-21;
