ISO-10303-21;
HEADER;
FILE_DESCRIPTION (( 'STEP AP203' ),
    '1' );
FILE_NAME ('03-3193.STEP',
    '2023-07-31T00:18:21',
    ( 'USER' ),
    ( 'Hewlett-Packard Company' ),
    'SwSTEP 2.0',
    'SolidWorks 2014',
    '' );
FILE_SCHEMA (( 'CONFIG_CONTROL_DESIGN' ));
ENDSEC;

DATA;
#1 = DIRECTION ( 'NONE',  ( 1.000000000000000000, 6.123233995736766000E-017, -0.0000000000000000000 ) ) ;
#2 = LOCAL_TIME ( 9, 18, 21.00000000000000000, #76 ) ;
#3 = UNCERTAINTY_MEASURE_WITH_UNIT (LENGTH_MEASURE( 1.000000000000000100E-005 ), #341, 'distance_accuracy_value', 'NONE');
#4 = DIRECTION ( 'NONE',  ( 0.0000000000000000000, 1.000000000000000000, 0.0000000000000000000 ) ) ;
#5 = ORIENTED_EDGE ( 'NONE', *, *, #65, .T. ) ;
#6 = DIRECTION ( 'NONE',  ( 1.000000000000000000, 6.123233995736766000E-017, -0.0000000000000000000 ) ) ;
#7 = DIRECTION ( 'NONE',  ( -1.000000000000000000, -0.0000000000000000000, -0.0000000000000000000 ) ) ;
#8 = TOROIDAL_SURFACE ( 'NONE', #118, 2.200000000000000200, 0.7999999999999994900 ) ;
#9 =( GEOMETRIC_REPRESENTATION_CONTEXT ( 3 ) GLOBAL_UNCERTAINTY_ASSIGNED_CONTEXT ( ( #3 ) ) GLOBAL_UNIT_ASSIGNED_CONTEXT ( ( #341, #63, #252 ) ) REPRESENTATION_CONTEXT ( 'NONE', 'WORKASPACE' ) );
#10 = DIRECTION ( 'NONE',  ( -1.000000000000000000, -0.0000000000000000000, -0.0000000000000000000 ) ) ;
#11 = EDGE_LOOP ( 'NONE', ( #353, #156, #201, #71 ) ) ;
#12 = MECHANICAL_CONTEXT ( 'NONE', #313, 'mechanical' ) ;
#13 = DIRECTION ( 'NONE',  ( 1.000000000000000000, 6.123233995736766000E-017, -0.0000000000000000000 ) ) ;
#14 = EDGE_LOOP ( 'NONE', ( #340, #249, #226, #352 ) ) ;
#15 = EDGE_CURVE ( 'NONE', #66, #94, #334, .T. ) ;
#16 = PERSON_AND_ORGANIZATION_ROLE ( 'classification_officer' ) ;
#17 = CARTESIAN_POINT ( 'NONE',  ( 16.20000000000000300, 2.694222958124177000E-016, -2.200000000000000200 ) ) ;
#18 = AXIS2_PLACEMENT_3D ( 'NONE', #29, #219, #58 ) ;
#19 = FACE_OUTER_BOUND ( 'NONE', #363, .T. ) ;
#20 = VERTEX_POINT ( 'NONE', #23 ) ;
#21 = CC_DESIGN_APPROVAL ( #364, ( #303 ) ) ;
#22 = VECTOR ( 'NONE', #28, 999.9999999999998900 ) ;
#23 = CARTESIAN_POINT ( 'NONE',  ( 16.20000000000000300, 3.673940397442059400E-016, -3.000000000000000000 ) ) ;
#24 = ORIENTED_EDGE ( 'NONE', *, *, #151, .F. ) ;
#25 = DIRECTION ( 'NONE',  ( 1.000000000000000000, 0.0000000000000000000, 0.0000000000000000000 ) ) ;
#26 = EDGE_CURVE ( 'NONE', #20, #234, #162, .T. ) ;
#27 = DIRECTION ( 'NONE',  ( 0.0000000000000000000, 0.0000000000000000000, 1.000000000000000000 ) ) ;
#28 = DIRECTION ( 'NONE',  ( 0.7071067811865531200, -0.7071067811865420200, 8.659560562354866300E-017 ) ) ;
#29 = CARTESIAN_POINT ( 'NONE',  ( 0.9999999999999993300, 6.123233995736762300E-017, 0.0000000000000000000 ) ) ;
#30 = AXIS2_PLACEMENT_3D ( 'NONE', #218, #105, #243 ) ;
#31 = CONICAL_SURFACE ( 'NONE', #311, 2.999999999999996000, 0.7853981633974405100 ) ;
#32 = DIRECTION ( 'NONE',  ( 0.0000000000000000000, 0.0000000000000000000, 1.000000000000000000 ) ) ;
#33 = ADVANCED_FACE ( 'NONE', ( #174 ), #31, .T. ) ;
#34 = ORIENTED_EDGE ( 'NONE', *, *, #209, .F. ) ;
#35 = VERTEX_POINT ( 'NONE', #157 ) ;
#36 = DIRECTION ( 'NONE',  ( -6.123233995736766000E-017, 1.000000000000000000, 0.0000000000000000000 ) ) ;
#37 = APPLICATION_CONTEXT ( 'configuration controlled 3d designs of mechanical parts and assemblies' ) ;
#38 = DIRECTION ( 'NONE',  ( -6.123233995736766000E-017, 1.000000000000000000, 0.0000000000000000000 ) ) ;
#39 = CC_DESIGN_SECURITY_CLASSIFICATION ( #303, ( #207 ) ) ;
#40 = APPROVAL_STATUS ( 'not_yet_approved' ) ;
#41 = DIRECTION ( 'NONE',  ( 0.0000000000000000000, -1.224646799147353200E-016, 1.000000000000000000 ) ) ;
#42 = ADVANCED_FACE ( 'NONE', ( #307 ), #362, .F. ) ;
#43 = LOCAL_TIME ( 9, 18, 21.00000000000000000, #106 ) ;
#44 = ORIENTED_EDGE ( 'NONE', *, *, #189, .T. ) ;
#45 = PERSON ( 'UNSPECIFIED', 'UNSPECIFIED', 'UNSPECIFIED', ('UNSPECIFIED'), ('UNSPECIFIED'), ('UNSPECIFIED') ) ;
#46 = CIRCLE ( 'NONE', #248, 0.7999999999999994900 ) ;
#47 = EDGE_CURVE ( 'NONE', #165, #66, #176, .T. ) ;
#48 = CALENDAR_DATE ( 2023, 31, 7 ) ;
#49 = ORIENTED_EDGE ( 'NONE', *, *, #97, .F. ) ;
#50 = CARTESIAN_POINT ( 'NONE',  ( 1.000000000000000400, 3.614007241618351200E-016, 0.0000000000000000000 ) ) ;
#51 = CYLINDRICAL_SURFACE ( 'NONE', #194, 3.000000000000000000 ) ;
#52 = CARTESIAN_POINT ( 'NONE',  ( -1.836970198721029900E-016, 3.000000000000000000, 0.0000000000000000000 ) ) ;
#53 = PRODUCT_RELATED_PRODUCT_CATEGORY ( 'detail', '', ( #322 ) ) ;
#54 = DIRECTION ( 'NONE',  ( -1.000000000000000000, -6.123233995736766000E-017, 0.0000000000000000000 ) ) ;
#55 = PERSON_AND_ORGANIZATION ( #45, #326 ) ;
#56 = DIRECTION ( 'NONE',  ( 0.7071067811865531200, 0.7071067811865420200, 0.0000000000000000000 ) ) ;
#57 = PERSON_AND_ORGANIZATION ( #45, #326 ) ;
#58 = DIRECTION ( 'NONE',  ( -7.228014483236695800E-017, 1.000000000000000000, 0.0000000000000000000 ) ) ;
#59 = DIRECTION ( 'NONE',  ( -1.000000000000000000, -0.0000000000000000000, -0.0000000000000000000 ) ) ;
#60 = VERTEX_POINT ( 'NONE', #304 ) ;
#61 = CARTESIAN_POINT ( 'NONE',  ( 0.9999999999999997800, 0.0000000000000000000, 0.0000000000000000000 ) ) ;
#62 = VECTOR ( 'NONE', #87, 1000.000000000000000 ) ;
#63 =( NAMED_UNIT ( * ) PLANE_ANGLE_UNIT ( ) SI_UNIT ( $, .RADIAN. ) );
#64 = APPROVAL_STATUS ( 'not_yet_approved' ) ;
#65 = EDGE_CURVE ( 'NONE', #360, #357, #99, .T. ) ;
#66 = VERTEX_POINT ( 'NONE', #127 ) ;
#67 = CARTESIAN_POINT ( 'NONE',  ( 17.00000000000000000, 0.0000000000000000000, 2.200000000000000200 ) ) ;
#68 = PERSON_AND_ORGANIZATION ( #45, #326 ) ;
#69 = ADVANCED_FACE ( 'NONE', ( #164 ), #215, .T. ) ;
#70 = PRODUCT_DEFINITION_SHAPE ( 'NONE', 'NONE',  #111 ) ;
#71 = ORIENTED_EDGE ( 'NONE', *, *, #332, .F. ) ;
#72 = AXIS2_PLACEMENT_3D ( 'NONE', #163, #6, #192 ) ;
#73 = MANIFOLD_SOLID_BREP ( 'È¸Àü3', #146 ) ;
#74 = CIRCLE ( 'NONE', #72, 2.499999999999996400 ) ;
#75 = ORIENTED_EDGE ( 'NONE', *, *, #254, .F. ) ;
#76 = COORDINATED_UNIVERSAL_TIME_OFFSET ( 9, 0, .AHEAD. ) ;
#77 = ORIENTED_EDGE ( 'NONE', *, *, #332, .T. ) ;
#78 = LINE ( 'NONE', #84, #236 ) ;
#79 = AXIS2_PLACEMENT_3D ( 'NONE', #140, #344, #170 ) ;
#80 = CARTESIAN_POINT ( 'NONE',  ( -58.50000000000000000, -3.582091887506007800E-015, 0.0000000000000000000 ) ) ;
#81 = VERTEX_POINT ( 'NONE', #83 ) ;
#82 = EDGE_CURVE ( 'NONE', #60, #324, #308, .T. ) ;
#83 = CARTESIAN_POINT ( 'NONE',  ( 17.00000000000000000, 3.184081677783118200E-016, -2.200000000000000200 ) ) ;
#84 = CARTESIAN_POINT ( 'NONE',  ( -58.50000000000000000, 2.999999999999992900, 0.0000000000000000000 ) ) ;
#85 = DIRECTION ( 'NONE',  ( -0.0000000000000000000, 0.0000000000000000000, 1.000000000000000000 ) ) ;
#86 = AXIS2_PLACEMENT_3D ( 'NONE', #306, #244, #85 ) ;
#87 = DIRECTION ( 'NONE',  ( -1.000000000000000000, -0.0000000000000000000, -0.0000000000000000000 ) ) ;
#88 = CIRCLE ( 'NONE', #336, 2.999999999999996000 ) ;
#89 = DIRECTION ( 'NONE',  ( 0.0000000000000000000, 0.0000000000000000000, 1.000000000000000000 ) ) ;
#90 = ORIENTED_EDGE ( 'NONE', *, *, #82, .T. ) ;
#91 = PERSON_AND_ORGANIZATION_ROLE ( 'creator' ) ;
#92 = CARTESIAN_POINT ( 'NONE',  ( 16.20000000000000300, 0.0000000000000000000, 2.200000000000000200 ) ) ;
#93 = LINE ( 'NONE', #272, #22 ) ;
#94 = VERTEX_POINT ( 'NONE', #305 ) ;
#95 = CC_DESIGN_PERSON_AND_ORGANIZATION_ASSIGNMENT ( #296, #198, ( #322 ) ) ;
#96 = SHAPE_DEFINITION_REPRESENTATION ( #70, #297 ) ;
#97 = EDGE_CURVE ( 'NONE', #35, #94, #232, .T. ) ;
#98 = LOCAL_TIME ( 9, 18, 21.00000000000000000, #318 ) ;
#99 = CIRCLE ( 'NONE', #235, 3.000000000000000000 ) ;
#100 = AXIS2_PLACEMENT_3D ( 'NONE', #107, #309, #137 ) ;
#101 = ORIENTED_EDGE ( 'NONE', *, *, #82, .F. ) ;
#102 = DIRECTION ( 'NONE',  ( -1.000000000000000000, -0.0000000000000000000, -0.0000000000000000000 ) ) ;
#103 = CIRCLE ( 'NONE', #330, 0.7999999999999994900 ) ;
#104 = DIRECTION ( 'NONE',  ( 1.000000000000000000, 6.123233995736766000E-017, -0.0000000000000000000 ) ) ;
#105 = DIRECTION ( 'NONE',  ( -1.000000000000000000, -0.0000000000000000000, -0.0000000000000000000 ) ) ;
#106 = COORDINATED_UNIVERSAL_TIME_OFFSET ( 9, 0, .AHEAD. ) ;
#107 = CARTESIAN_POINT ( 'NONE',  ( -58.50000000000000000, -3.582091887506007800E-015, 0.0000000000000000000 ) ) ;
#108 = ORIENTED_EDGE ( 'NONE', *, *, #130, .T. ) ;
#109 = DIRECTION ( 'NONE',  ( 0.0000000000000000000, 0.0000000000000000000, -1.000000000000000000 ) ) ;
#110 = DIRECTION ( 'NONE',  ( -6.123233995736766000E-017, 1.000000000000000000, 0.0000000000000000000 ) ) ;
#111 = PRODUCT_DEFINITION ( 'UNKNOWN', '', #207, #220 ) ;
#112 = CARTESIAN_POINT ( 'NONE',  ( 16.20000000000000300, 0.0000000000000000000, 0.0000000000000000000 ) ) ;
#113 = FACE_OUTER_BOUND ( 'NONE', #294, .T. ) ;
#114 = APPROVAL_STATUS ( 'not_yet_approved' ) ;
#115 = CARTESIAN_POINT ( 'NONE',  ( 17.00000000000000000, 0.0000000000000000000, 0.0000000000000000000 ) ) ;
#116 = EDGE_CURVE ( 'NONE', #324, #35, #93, .T. ) ;
#117 = LOCAL_TIME ( 9, 18, 21.00000000000000000, #191 ) ;
#118 = AXIS2_PLACEMENT_3D ( 'NONE', #277, #161, #32 ) ;
#119 = ORIENTED_EDGE ( 'NONE', *, *, #47, .F. ) ;
#120 = LINE ( 'NONE', #281, #269 ) ;
#121 = DATE_AND_TIME ( #202, #276 ) ;
#122 = APPROVAL_DATE_TIME ( #203, #227 ) ;
#123 = ORIENTED_EDGE ( 'NONE', *, *, #172, .F. ) ;
#124 = DIRECTION ( 'NONE',  ( 0.0000000000000000000, 1.000000000000000000, 0.0000000000000000000 ) ) ;
#125 = CIRCLE ( 'NONE', #153, 3.000000000000000400 ) ;
#126 = APPROVAL ( #64, 'UNSPECIFIED' ) ;
#127 = CARTESIAN_POINT ( 'NONE',  ( 0.9999999999999991100, 3.000000000000000000, 0.0000000000000000000 ) ) ;
#128 = CARTESIAN_POINT ( 'NONE',  ( -59.00000000000000000, -3.612708057484691600E-015, 0.0000000000000000000 ) ) ;
#129 = ORIENTED_EDGE ( 'NONE', *, *, #356, .T. ) ;
#130 = EDGE_CURVE ( 'NONE', #165, #35, #88, .T. ) ;
#131 = APPROVAL_DATE_TIME ( #210, #126 ) ;
#132 = CARTESIAN_POINT ( 'NONE',  ( -58.50000000000000000, -3.582091887506007800E-015, 0.0000000000000000000 ) ) ;
#133 = PLANE ( 'NONE',  #86 ) ;
#134 = ORIENTED_EDGE ( 'NONE', *, *, #172, .T. ) ;
#135 = AXIS2_PLACEMENT_3D ( 'NONE', #61, #250, #89 ) ;
#136 = ADVANCED_FACE ( 'NONE', ( #19 ), #292, .T. ) ;
#137 = DIRECTION ( 'NONE',  ( 0.0000000000000000000, 1.000000000000000000, 0.0000000000000000000 ) ) ;
#138 = FACE_OUTER_BOUND ( 'NONE', #168, .T. ) ;
#139 = CARTESIAN_POINT ( 'NONE',  ( 0.9999999999999997800, 3.673940397442059900E-016, -3.000000000000000000 ) ) ;
#140 = CARTESIAN_POINT ( 'NONE',  ( 0.0000000000000000000, 0.0000000000000000000, 0.0000000000000000000 ) ) ;
#141 = DIRECTION ( 'NONE',  ( 0.0000000000000000000, 0.0000000000000000000, 1.000000000000000000 ) ) ;
#142 = ORIENTED_EDGE ( 'NONE', *, *, #151, .T. ) ;
#143 = PERSON_AND_ORGANIZATION_ROLE ( 'creator' ) ;
#144 = DIRECTION ( 'NONE',  ( 0.0000000000000000000, 0.0000000000000000000, 1.000000000000000000 ) ) ;
#145 = APPROVAL_PERSON_ORGANIZATION ( #216, #126, #256 ) ;
#146 = CLOSED_SHELL ( 'NONE', ( #279, #147, #204, #247, #42, #175 ) ) ;
#147 = ADVANCED_FACE ( 'NONE', ( #222 ), #299, .T. ) ;
#148 = CIRCLE ( 'NONE', #18, 3.000000000000000000 ) ;
#149 = CC_DESIGN_APPROVAL ( #126, ( #111 ) ) ;
#150 = ORIENTED_EDGE ( 'NONE', *, *, #65, .F. ) ;
#151 = EDGE_CURVE ( 'NONE', #60, #165, #78, .T. ) ;
#152 = CARTESIAN_POINT ( 'NONE',  ( 0.9999999999999997800, 0.0000000000000000000, 3.000000000000000000 ) ) ;
#153 = AXIS2_PLACEMENT_3D ( 'NONE', #112, #314, #141 ) ;
#154 = VECTOR ( 'NONE', #217, 1000.000000000000000 ) ;
#155 = DIRECTION ( 'NONE',  ( 1.000000000000000000, 6.123233995736766000E-017, -0.0000000000000000000 ) ) ;
#156 = ORIENTED_EDGE ( 'NONE', *, *, #315, .T. ) ;
#157 = CARTESIAN_POINT ( 'NONE',  ( -58.50000000000000000, -2.999999999999999600, 3.673940397442054900E-016 ) ) ;
#158 = CARTESIAN_POINT ( 'NONE',  ( -59.00000000000000700, -3.612708057484692400E-015, 0.0000000000000000000 ) ) ;
#159 = DIRECTION ( 'NONE',  ( 1.000000000000000000, 6.123233995736766000E-017, -0.0000000000000000000 ) ) ;
#160 = EDGE_LOOP ( 'NONE', ( #101, #208 ) ) ;
#161 = DIRECTION ( 'NONE',  ( -1.000000000000000000, -0.0000000000000000000, -0.0000000000000000000 ) ) ;
#162 = CIRCLE ( 'NONE', #291, 3.000000000000000400 ) ;
#163 = CARTESIAN_POINT ( 'NONE',  ( -59.00000000000000700, -3.612708057484692400E-015, 0.0000000000000000000 ) ) ;
#164 = FACE_OUTER_BOUND ( 'NONE', #160, .T. ) ;
#165 = VERTEX_POINT ( 'NONE', #335 ) ;
#166 = CARTESIAN_POINT ( 'NONE',  ( 17.00000000000000000, 0.0000000000000000000, 0.0000000000000000000 ) ) ;
#167 = CARTESIAN_POINT ( 'NONE',  ( 0.9999999999999995600, 3.000000000000000000, 0.0000000000000000000 ) ) ;
#168 = EDGE_LOOP ( 'NONE', ( #237, #129, #77, #329 ) ) ;
#169 = CC_DESIGN_PERSON_AND_ORGANIZATION_ASSIGNMENT ( #68, #91, ( #111 ) ) ;
#170 = DIRECTION ( 'NONE',  ( 1.000000000000000000, 0.0000000000000000000, 0.0000000000000000000 ) ) ;
#171 = SECURITY_CLASSIFICATION_LEVEL ( 'unclassified' ) ;
#172 = EDGE_CURVE ( 'NONE', #94, #66, #148, .T. ) ;
#173 = EDGE_LOOP ( 'NONE', ( #49, #302, #225, #123 ) ) ;
#174 = FACE_OUTER_BOUND ( 'NONE', #183, .T. ) ;
#175 = ADVANCED_FACE ( 'NONE', ( #212 ), #133, .F. ) ;
#176 = LINE ( 'NONE', #52, #321 ) ;
#177 = APPROVAL_DATE_TIME ( #245, #364 ) ;
#178 = ORIENTED_EDGE ( 'NONE', *, *, #293, .F. ) ;
#179 = CYLINDRICAL_SURFACE ( 'NONE', #290, 3.000000000000000000 ) ;
#180 = CALENDAR_DATE ( 2023, 31, 7 ) ;
#181 = APPROVAL_PERSON_ORGANIZATION ( #259, #364, #230 ) ;
#182 = DIRECTION ( 'NONE',  ( -7.228014483236695800E-017, 1.000000000000000000, 0.0000000000000000000 ) ) ;
#183 = EDGE_LOOP ( 'NONE', ( #327, #44, #142, #34 ) ) ;
#184 = CARTESIAN_POINT ( 'NONE',  ( 0.9999999999999993300, 6.123233995736762300E-017, 0.0000000000000000000 ) ) ;
#185 = CC_DESIGN_DATE_AND_TIME_ASSIGNMENT ( #121, #286, ( #111 ) ) ;
#186 = FACE_OUTER_BOUND ( 'NONE', #14, .T. ) ;
#187 = DIRECTION ( 'NONE',  ( 1.000000000000000000, 6.123233995736766000E-017, -0.0000000000000000000 ) ) ;
#188 = DIRECTION ( 'NONE',  ( -1.000000000000000000, -0.0000000000000000000, -0.0000000000000000000 ) ) ;
#189 = EDGE_CURVE ( 'NONE', #324, #60, #74, .T. ) ;
#190 = DIRECTION ( 'NONE',  ( 0.0000000000000000000, 1.000000000000000000, 0.0000000000000000000 ) ) ;
#191 = COORDINATED_UNIVERSAL_TIME_OFFSET ( 9, 0, .AHEAD. ) ;
#192 = DIRECTION ( 'NONE',  ( 0.0000000000000000000, 1.000000000000000000, 0.0000000000000000000 ) ) ;
#193 = EDGE_LOOP ( 'NONE', ( #273, #134 ) ) ;
#194 = AXIS2_PLACEMENT_3D ( 'NONE', #223, #59, #339 ) ;
#195 = DIRECTION ( 'NONE',  ( 0.0000000000000000000, 0.0000000000000000000, 1.000000000000000000 ) ) ;
#196 = DIRECTION ( 'NONE',  ( 1.000000000000000000, 6.123233995736766000E-017, -0.0000000000000000000 ) ) ;
#197 = FACE_OUTER_BOUND ( 'NONE', #193, .T. ) ;
#198 = PERSON_AND_ORGANIZATION_ROLE ( 'design_owner' ) ;
#199 = DATE_TIME_ROLE ( 'classification_date' ) ;
#200 = DIRECTION ( 'NONE',  ( -0.0000000000000000000, 1.000000000000000000, 1.224646799147353200E-016 ) ) ;
#201 = ORIENTED_EDGE ( 'NONE', *, *, #271, .F. ) ;
#202 = CALENDAR_DATE ( 2023, 31, 7 ) ;
#203 = DATE_AND_TIME ( #180, #98 ) ;
#204 = ADVANCED_FACE ( 'NONE', ( #138 ), #8, .T. ) ;
#205 = ORIENTED_EDGE ( 'NONE', *, *, #130, .F. ) ;
#206 = LINE ( 'NONE', #221, #62 ) ;
#207 = PRODUCT_DEFINITION_FORMATION_WITH_SPECIFIED_SOURCE ( 'ANY', '', #322, .NOT_KNOWN. ) ;
#208 = ORIENTED_EDGE ( 'NONE', *, *, #189, .F. ) ;
#209 = EDGE_CURVE ( 'NONE', #35, #165, #361, .T. ) ;
#210 = DATE_AND_TIME ( #288, #2 ) ;
#211 = AXIS2_PLACEMENT_3D ( 'NONE', #167, #196, #36 ) ;
#212 = FACE_OUTER_BOUND ( 'NONE', #251, .T. ) ;
#213 = DIRECTION ( 'NONE',  ( 0.0000000000000000000, 0.0000000000000000000, -1.000000000000000000 ) ) ;
#214 = ORIENTED_EDGE ( 'NONE', *, *, #97, .T. ) ;
#215 = PLANE ( 'NONE',  #320 ) ;
#216 = PERSON_AND_ORGANIZATION ( #45, #326 ) ;
#217 = DIRECTION ( 'NONE',  ( 1.000000000000000000, 6.123233995736766000E-017, -0.0000000000000000000 ) ) ;
#218 = CARTESIAN_POINT ( 'NONE',  ( 16.20000000000000300, 0.0000000000000000000, 0.0000000000000000000 ) ) ;
#219 = DIRECTION ( 'NONE',  ( 1.000000000000000000, 6.123233995736766000E-017, -0.0000000000000000000 ) ) ;
#220 = DESIGN_CONTEXT ( 'detailed design', #37, 'design' ) ;
#221 = CARTESIAN_POINT ( 'NONE',  ( 0.0000000000000000000, 0.0000000000000000000, 3.000000000000000000 ) ) ;
#222 = FACE_OUTER_BOUND ( 'NONE', #11, .T. ) ;
#223 = CARTESIAN_POINT ( 'NONE',  ( 0.0000000000000000000, 0.0000000000000000000, 0.0000000000000000000 ) ) ;
#224 = DIRECTION ( 'NONE',  ( -1.000000000000000000, -0.0000000000000000000, -0.0000000000000000000 ) ) ;
#225 = ORIENTED_EDGE ( 'NONE', *, *, #47, .T. ) ;
#226 = ORIENTED_EDGE ( 'NONE', *, *, #241, .F. ) ;
#227 = APPROVAL ( #114, 'UNSPECIFIED' ) ;
#228 = APPLICATION_PROTOCOL_DEFINITION ( 'international standard', 'config_control_design', 1994, #37 ) ;
#229 = CARTESIAN_POINT ( 'NONE',  ( 0.0000000000000000000, 0.0000000000000000000, 0.0000000000000000000 ) ) ;
#230 = APPROVAL_ROLE ( '' ) ;
#231 = EDGE_CURVE ( 'NONE', #234, #357, #206, .T. ) ;
#232 = LINE ( 'NONE', #274, #154 ) ;
#233 = AXIS2_PLACEMENT_3D ( 'NONE', #115, #317, #144 ) ;
#234 = VERTEX_POINT ( 'NONE', #246 ) ;
#235 = AXIS2_PLACEMENT_3D ( 'NONE', #365, #188, #27 ) ;
#236 = VECTOR ( 'NONE', #56, 999.9999999999998900 ) ;
#237 = ORIENTED_EDGE ( 'NONE', *, *, #315, .F. ) ;
#238 = CC_DESIGN_APPROVAL ( #227, ( #207 ) ) ;
#239 = CYLINDRICAL_SURFACE ( 'NONE', #354, 3.000000000000000000 ) ;
#240 = DIRECTION ( 'NONE',  ( 6.123233995736766000E-017, -1.000000000000000000, 0.0000000000000000000 ) ) ;
#241 = EDGE_CURVE ( 'NONE', #357, #360, #282, .T. ) ;
#242 = ORIENTED_EDGE ( 'NONE', *, *, #15, .F. ) ;
#243 = DIRECTION ( 'NONE',  ( 0.0000000000000000000, 0.0000000000000000000, 1.000000000000000000 ) ) ;
#244 = DIRECTION ( 'NONE',  ( -1.000000000000000000, 0.0000000000000000000, -0.0000000000000000000 ) ) ;
#245 = DATE_AND_TIME ( #328, #43 ) ;
#246 = CARTESIAN_POINT ( 'NONE',  ( 16.20000000000000300, 0.0000000000000000000, 3.000000000000000000 ) ) ;
#247 = ADVANCED_FACE ( 'NONE', ( #355 ), #51, .T. ) ;
#248 = AXIS2_PLACEMENT_3D ( 'NONE', #17, #200, #41 ) ;
#249 = ORIENTED_EDGE ( 'NONE', *, *, #254, .T. ) ;
#250 = DIRECTION ( 'NONE',  ( -1.000000000000000000, -0.0000000000000000000, -0.0000000000000000000 ) ) ;
#251 = EDGE_LOOP ( 'NONE', ( #178, #287 ) ) ;
#252 =( NAMED_UNIT ( * ) SI_UNIT ( $, .STERADIAN. ) SOLID_ANGLE_UNIT ( ) );
#253 = DIRECTION ( 'NONE',  ( 0.0000000000000000000, 0.0000000000000000000, 1.000000000000000000 ) ) ;
#254 = EDGE_CURVE ( 'NONE', #20, #360, #120, .T. ) ;
#255 = CIRCLE ( 'NONE', #233, 2.200000000000000200 ) ;
#256 = APPROVAL_ROLE ( '' ) ;
#257 = CARTESIAN_POINT ( 'NONE',  ( -59.00000000000000700, -2.500000000000000000, 3.367778697655216600E-016 ) ) ;
#258 = AXIS2_PLACEMENT_3D ( 'NONE', #50, #25, #213 ) ;
#259 = PERSON_AND_ORGANIZATION ( #45, #326 ) ;
#260 = ADVANCED_FACE ( 'NONE', ( #197 ), #342, .T. ) ;
#261 = ORIENTED_EDGE ( 'NONE', *, *, #116, .T. ) ;
#262 = ORIENTED_EDGE ( 'NONE', *, *, #231, .T. ) ;
#263 = FACE_OUTER_BOUND ( 'NONE', #173, .T. ) ;
#264 = CC_DESIGN_PERSON_AND_ORGANIZATION_ASSIGNMENT ( #57, #143, ( #207 ) ) ;
#265 = PERSON_AND_ORGANIZATION ( #45, #326 ) ;
#266 = EDGE_LOOP ( 'NONE', ( #75, #349, #262, #150 ) ) ;
#267 = AXIS2_PLACEMENT_3D ( 'NONE', #284, #224, #253 ) ;
#268 = AXIS2_PLACEMENT_3D ( 'NONE', #184, #300, #182 ) ;
#269 = VECTOR ( 'NONE', #7, 1000.000000000000000 ) ;
#270 = CARTESIAN_POINT ( 'NONE',  ( 16.20000000000000300, 0.0000000000000000000, 0.0000000000000000000 ) ) ;
#271 = EDGE_CURVE ( 'NONE', #234, #20, #125, .T. ) ;
#272 = CARTESIAN_POINT ( 'NONE',  ( -58.50000000000000000, -2.999999999999999600, 3.673940397442054900E-016 ) ) ;
#273 = ORIENTED_EDGE ( 'NONE', *, *, #15, .T. ) ;
#274 = CARTESIAN_POINT ( 'NONE',  ( 1.836970198721029900E-016, -3.000000000000000000, 3.673940397442059900E-016 ) ) ;
#275 = DIRECTION ( 'NONE',  ( 0.0000000000000000000, 1.000000000000000000, 0.0000000000000000000 ) ) ;
#276 = LOCAL_TIME ( 9, 18, 21.00000000000000000, #358 ) ;
#277 = CARTESIAN_POINT ( 'NONE',  ( 16.20000000000000300, 0.0000000000000000000, 0.0000000000000000000 ) ) ;
#278 = EDGE_LOOP ( 'NONE', ( #338, #5 ) ) ;
#279 = ADVANCED_FACE ( 'NONE', ( #186 ), #331, .T. ) ;
#280 = DIRECTION ( 'NONE',  ( 0.0000000000000000000, -1.000000000000000000, 0.0000000000000000000 ) ) ;
#281 = CARTESIAN_POINT ( 'NONE',  ( 0.0000000000000000000, 3.673940397442059900E-016, -3.000000000000000000 ) ) ;
#282 = CIRCLE ( 'NONE', #135, 3.000000000000000000 ) ;
#283 = APPLICATION_PROTOCOL_DEFINITION ( 'international standard', 'config_control_design', 1994, #313 ) ;
#284 = CARTESIAN_POINT ( 'NONE',  ( 0.0000000000000000000, 0.0000000000000000000, 0.0000000000000000000 ) ) ;
#285 = CC_DESIGN_PERSON_AND_ORGANIZATION_ASSIGNMENT ( #351, #347, ( #207 ) ) ;
#286 = DATE_TIME_ROLE ( 'creation_date' ) ;
#287 = ORIENTED_EDGE ( 'NONE', *, *, #356, .F. ) ;
#288 = CALENDAR_DATE ( 2023, 31, 7 ) ;
#289 = ADVANCED_FACE ( 'NONE', ( #263 ), #179, .T. ) ;
#290 = AXIS2_PLACEMENT_3D ( 'NONE', #345, #13, #110 ) ;
#291 = AXIS2_PLACEMENT_3D ( 'NONE', #270, #102, #301 ) ;
#292 = CONICAL_SURFACE ( 'NONE', #359, 2.999999999999996000, 0.7853981633974405100 ) ;
#293 = EDGE_CURVE ( 'NONE', #323, #81, #255, .T. ) ;
#294 = EDGE_LOOP ( 'NONE', ( #108, #214, #242, #119 ) ) ;
#295 = MANIFOLD_SOLID_BREP ( 'È¸Àü4', #312 ) ;
#296 = PERSON_AND_ORGANIZATION ( #45, #326 ) ;
#297 = ADVANCED_BREP_SHAPE_REPRESENTATION ( '03-3193', ( #73, #295, #79 ), #9 ) ;
#298 = AXIS2_PLACEMENT_3D ( 'NONE', #158, #1, #190 ) ;
#299 = TOROIDAL_SURFACE ( 'NONE', #30, 2.200000000000000200, 0.7999999999999994900 ) ;
#300 = DIRECTION ( 'NONE',  ( 1.000000000000000000, 6.123233995736766000E-017, -0.0000000000000000000 ) ) ;
#301 = DIRECTION ( 'NONE',  ( 0.0000000000000000000, 0.0000000000000000000, 1.000000000000000000 ) ) ;
#302 = ORIENTED_EDGE ( 'NONE', *, *, #209, .T. ) ;
#303 = SECURITY_CLASSIFICATION ( '', '', #171 ) ;
#304 = CARTESIAN_POINT ( 'NONE',  ( -59.00000000000000700, 2.499999999999992900, 0.0000000000000000000 ) ) ;
#305 = CARTESIAN_POINT ( 'NONE',  ( 0.9999999999999995600, -3.000000000000000000, 3.673940397442059900E-016 ) ) ;
#306 = CARTESIAN_POINT ( 'NONE',  ( 17.00000000000000000, 0.0000000000000000000, 0.0000000000000000000 ) ) ;
#307 = FACE_OUTER_BOUND ( 'NONE', #278, .T. ) ;
#308 = CIRCLE ( 'NONE', #298, 2.499999999999996400 ) ;
#309 = DIRECTION ( 'NONE',  ( 1.000000000000000000, 6.123233995736766000E-017, -0.0000000000000000000 ) ) ;
#310 = AXIS2_PLACEMENT_3D ( 'NONE', #166, #10, #195 ) ;
#311 = AXIS2_PLACEMENT_3D ( 'NONE', #80, #155, #124 ) ;
#312 = CLOSED_SHELL ( 'NONE', ( #319, #136, #260, #69, #33, #289 ) ) ;
#313 = APPLICATION_CONTEXT ( 'configuration controlled 3d designs of mechanical parts and assemblies' ) ;
#314 = DIRECTION ( 'NONE',  ( -1.000000000000000000, -0.0000000000000000000, -0.0000000000000000000 ) ) ;
#315 = EDGE_CURVE ( 'NONE', #81, #20, #46, .T. ) ;
#316 = APPROVAL_ROLE ( '' ) ;
#317 = DIRECTION ( 'NONE',  ( -1.000000000000000000, -0.0000000000000000000, -0.0000000000000000000 ) ) ;
#318 = COORDINATED_UNIVERSAL_TIME_OFFSET ( 9, 0, .AHEAD. ) ;
#319 = ADVANCED_FACE ( 'NONE', ( #113 ), #239, .T. ) ;
#320 = AXIS2_PLACEMENT_3D ( 'NONE', #128, #54, #240 ) ;
#321 = VECTOR ( 'NONE', #187, 1000.000000000000000 ) ;
#322 = PRODUCT ( '03-3193', '03-3193', '', ( #12 ) ) ;
#323 = VERTEX_POINT ( 'NONE', #67 ) ;
#324 = VERTEX_POINT ( 'NONE', #257 ) ;
#325 = CC_DESIGN_PERSON_AND_ORGANIZATION_ASSIGNMENT ( #265, #16, ( #303 ) ) ;
#326 = ORGANIZATION ( 'UNSPECIFIED', 'UNSPECIFIED', '' ) ;
#327 = ORIENTED_EDGE ( 'NONE', *, *, #116, .F. ) ;
#328 = CALENDAR_DATE ( 2023, 31, 7 ) ;
#329 = ORIENTED_EDGE ( 'NONE', *, *, #26, .F. ) ;
#330 = AXIS2_PLACEMENT_3D ( 'NONE', #92, #280, #109 ) ;
#331 = CYLINDRICAL_SURFACE ( 'NONE', #267, 3.000000000000000000 ) ;
#332 = EDGE_CURVE ( 'NONE', #323, #234, #103, .T. ) ;
#333 = CARTESIAN_POINT ( 'NONE',  ( -58.50000000000000000, -3.582091887506007800E-015, 0.0000000000000000000 ) ) ;
#334 = CIRCLE ( 'NONE', #268, 3.000000000000000000 ) ;
#335 = CARTESIAN_POINT ( 'NONE',  ( -58.50000000000000000, 2.999999999999992900, 0.0000000000000000000 ) ) ;
#336 = AXIS2_PLACEMENT_3D ( 'NONE', #333, #159, #4 ) ;
#337 = DATE_AND_TIME ( #48, #117 ) ;
#338 = ORIENTED_EDGE ( 'NONE', *, *, #241, .T. ) ;
#339 = DIRECTION ( 'NONE',  ( 0.0000000000000000000, 0.0000000000000000000, 1.000000000000000000 ) ) ;
#340 = ORIENTED_EDGE ( 'NONE', *, *, #271, .T. ) ;
#341 =( LENGTH_UNIT ( ) NAMED_UNIT ( * ) SI_UNIT ( .MILLI., .METRE. ) );
#342 = PLANE ( 'NONE',  #211 ) ;
#343 = CIRCLE ( 'NONE', #310, 2.200000000000000200 ) ;
#344 = DIRECTION ( 'NONE',  ( 0.0000000000000000000, 0.0000000000000000000, 1.000000000000000000 ) ) ;
#345 = CARTESIAN_POINT ( 'NONE',  ( 0.0000000000000000000, 0.0000000000000000000, 0.0000000000000000000 ) ) ;
#346 = CC_DESIGN_DATE_AND_TIME_ASSIGNMENT ( #337, #199, ( #303 ) ) ;
#347 = PERSON_AND_ORGANIZATION_ROLE ( 'design_supplier' ) ;
#348 = DIRECTION ( 'NONE',  ( 1.000000000000000000, 6.123233995736766000E-017, -0.0000000000000000000 ) ) ;
#349 = ORIENTED_EDGE ( 'NONE', *, *, #26, .T. ) ;
#350 = APPROVAL_PERSON_ORGANIZATION ( #55, #227, #316 ) ;
#351 = PERSON_AND_ORGANIZATION ( #45, #326 ) ;
#352 = ORIENTED_EDGE ( 'NONE', *, *, #231, .F. ) ;
#353 = ORIENTED_EDGE ( 'NONE', *, *, #293, .T. ) ;
#354 = AXIS2_PLACEMENT_3D ( 'NONE', #229, #348, #38 ) ;
#355 = FACE_OUTER_BOUND ( 'NONE', #266, .T. ) ;
#356 = EDGE_CURVE ( 'NONE', #81, #323, #343, .T. ) ;
#357 = VERTEX_POINT ( 'NONE', #152 ) ;
#358 = COORDINATED_UNIVERSAL_TIME_OFFSET ( 9, 0, .AHEAD. ) ;
#359 = AXIS2_PLACEMENT_3D ( 'NONE', #132, #104, #275 ) ;
#360 = VERTEX_POINT ( 'NONE', #139 ) ;
#361 = CIRCLE ( 'NONE', #100, 2.999999999999996000 ) ;
#362 = PLANE ( 'NONE',  #258 ) ;
#363 = EDGE_LOOP ( 'NONE', ( #90, #261, #205, #24 ) ) ;
#364 = APPROVAL ( #40, 'UNSPECIFIED' ) ;
#365 = CARTESIAN_POINT ( 'NONE',  ( 0.9999999999999997800, 0.0000000000000000000, 0.0000000000000000000 ) ) ;
ENDSEC;
END-ISO-10303-21;
