ISO-10303-21;
HEADER;
FILE_DESCRIPTION (( 'STEP AP203' ),
    '1' );
FILE_NAME ('03-3195.STEP',
    '2023-07-31T00:19:10',
    ( 'USER' ),
    ( 'Hewlett-Packard Company' ),
    'SwSTEP 2.0',
    'SolidWorks 2014',
    '' );
FILE_SCHEMA (( 'CONFIG_CONTROL_DESIGN' ));
ENDSEC;

DATA;
#1 = ADVANCED_FACE ( 'NONE', ( #57 ), #256, .T. ) ;
#2 = DIRECTION ( 'NONE',  ( 0.0000000000000000000, 0.0000000000000000000, 1.000000000000000000 ) ) ;
#3 = EDGE_LOOP ( 'NONE', ( #229, #79, #338, #153 ) ) ;
#4 = AXIS2_PLACEMENT_3D ( 'NONE', #235, #103, #177 ) ;
#5 = PERSON_AND_ORGANIZATION ( #9, #310 ) ;
#6 = EDGE_LOOP ( 'NONE', ( #135, #260 ) ) ;
#7 = UNCERTAINTY_MEASURE_WITH_UNIT (LENGTH_MEASURE( 1.000000000000000100E-005 ), #302, 'distance_accuracy_value', 'NONE');
#8 = CARTESIAN_POINT ( 'NONE',  ( 0.0000000000000000000, 0.0000000000000000000, 0.0000000000000000000 ) ) ;
#9 = PERSON ( 'UNSPECIFIED', 'UNSPECIFIED', 'UNSPECIFIED', ('UNSPECIFIED'), ('UNSPECIFIED'), ('UNSPECIFIED') ) ;
#10 = FACE_OUTER_BOUND ( 'NONE', #54, .T. ) ;
#11 = CARTESIAN_POINT ( 'NONE',  ( 0.0000000000000000000, 0.0000000000000000000, 0.0000000000000000000 ) ) ;
#12 = EDGE_CURVE ( 'NONE', #301, #204, #341, .T. ) ;
#13 = CARTESIAN_POINT ( 'NONE',  ( 0.0000000000000000000, 0.0000000000000000000, 0.0000000000000000000 ) ) ;
#14 = ORIENTED_EDGE ( 'NONE', *, *, #52, .T. ) ;
#15 = COORDINATED_UNIVERSAL_TIME_OFFSET ( 9, 0, .AHEAD. ) ;
#16 = CARTESIAN_POINT ( 'NONE',  ( -54.99999999999998600, -3.500000000000000400, 4.592425496802570000E-016 ) ) ;
#17 = DIRECTION ( 'NONE',  ( 0.0000000000000000000, -1.000000000000000000, 0.0000000000000000000 ) ) ;
#18 = DIRECTION ( 'NONE',  ( 0.0000000000000000000, 0.0000000000000000000, 1.000000000000000000 ) ) ;
#19 = CC_DESIGN_APPROVAL ( #363, ( #343 ) ) ;
#20 = CIRCLE ( 'NONE', #66, 4.000000000000000000 ) ;
#21 = CARTESIAN_POINT ( 'NONE',  ( 20.20000000000000300, 0.0000000000000000000, 0.0000000000000000000 ) ) ;
#22 = APPLICATION_CONTEXT ( 'configuration controlled 3d designs of mechanical parts and assemblies' ) ;
#23 = CARTESIAN_POINT ( 'NONE',  ( -54.49999999999999300, -3.337162527676537100E-015, 0.0000000000000000000 ) ) ;
#24 = SHAPE_DEFINITION_REPRESENTATION ( #319, #305 ) ;
#25 = CARTESIAN_POINT ( 'NONE',  ( 0.0000000000000000000, 0.0000000000000000000, 0.0000000000000000000 ) ) ;
#26 = AXIS2_PLACEMENT_3D ( 'NONE', #244, #234, #71 ) ;
#27 = AXIS2_PLACEMENT_3D ( 'NONE', #192, #28, #145 ) ;
#28 = DIRECTION ( 'NONE',  ( 1.000000000000000000, 6.123233995736766000E-017, -0.0000000000000000000 ) ) ;
#29 = EDGE_LOOP ( 'NONE', ( #49, #211, #107, #137 ) ) ;
#30 = CIRCLE ( 'NONE', #4, 3.999999999999996400 ) ;
#31 = APPROVAL_ROLE ( '' ) ;
#32 = ORIENTED_EDGE ( 'NONE', *, *, #300, .F. ) ;
#33 = EDGE_CURVE ( 'NONE', #331, #222, #194, .T. ) ;
#34 = ADVANCED_FACE ( 'NONE', ( #129 ), #323, .T. ) ;
#35 = CARTESIAN_POINT ( 'NONE',  ( 0.9999999999999997800, 0.0000000000000000000, 0.0000000000000000000 ) ) ;
#36 = ORIENTED_EDGE ( 'NONE', *, *, #95, .T. ) ;
#37 = DATE_AND_TIME ( #117, #182 ) ;
#38 = CIRCLE ( 'NONE', #291, 4.000000000000000000 ) ;
#39 = DIRECTION ( 'NONE',  ( -6.123233995736766000E-017, 1.000000000000000000, 0.0000000000000000000 ) ) ;
#40 = CC_DESIGN_PERSON_AND_ORGANIZATION_ASSIGNMENT ( #202, #227, ( #343 ) ) ;
#41 = DIRECTION ( 'NONE',  ( 0.0000000000000000000, 1.000000000000000000, 0.0000000000000000000 ) ) ;
#42 = DIRECTION ( 'NONE',  ( 0.0000000000000000000, 1.000000000000000000, 0.0000000000000000000 ) ) ;
#43 = VERTEX_POINT ( 'NONE', #238 ) ;
#44 = CARTESIAN_POINT ( 'NONE',  ( -54.49999999999999300, 3.999999999999993300, 0.0000000000000000000 ) ) ;
#45 = AXIS2_PLACEMENT_3D ( 'NONE', #112, #142, #39 ) ;
#46 = PERSON_AND_ORGANIZATION ( #9, #310 ) ;
#47 = VECTOR ( 'NONE', #178, 1000.000000000000000 ) ;
#48 = CARTESIAN_POINT ( 'NONE',  ( 20.20000000000000300, 3.918869757271530500E-016, -3.200000000000000200 ) ) ;
#49 = ORIENTED_EDGE ( 'NONE', *, *, #12, .F. ) ;
#50 =( NAMED_UNIT ( * ) SI_UNIT ( $, .STERADIAN. ) SOLID_ANGLE_UNIT ( ) );
#51 = CIRCLE ( 'NONE', #128, 3.499999999999996900 ) ;
#52 = EDGE_CURVE ( 'NONE', #201, #203, #38, .T. ) ;
#53 = APPROVAL ( #120, 'UNSPECIFIED' ) ;
#54 = EDGE_LOOP ( 'NONE', ( #254, #362, #158, #261 ) ) ;
#55 = PERSON_AND_ORGANIZATION_ROLE ( 'design_owner' ) ;
#56 = PERSON_AND_ORGANIZATION ( #9, #310 ) ;
#57 = FACE_OUTER_BOUND ( 'NONE', #345, .T. ) ;
#58 = CC_DESIGN_PERSON_AND_ORGANIZATION_ASSIGNMENT ( #136, #60, ( #343 ) ) ;
#59 = APPLICATION_PROTOCOL_DEFINITION ( 'international standard', 'config_control_design', 1994, #250 ) ;
#60 = PERSON_AND_ORGANIZATION_ROLE ( 'design_supplier' ) ;
#61 = ORIENTED_EDGE ( 'NONE', *, *, #221, .F. ) ;
#62 = VECTOR ( 'NONE', #269, 1000.000000000000000 ) ;
#63 = ADVANCED_FACE ( 'NONE', ( #333 ), #118, .T. ) ;
#64 = CARTESIAN_POINT ( 'NONE',  ( 2.449293598294706400E-016, -4.000000000000000000, 4.898587196589412800E-016 ) ) ;
#65 = EDGE_LOOP ( 'NONE', ( #76, #36, #213, #86 ) ) ;
#66 = AXIS2_PLACEMENT_3D ( 'NONE', #99, #286, #131 ) ;
#67 = CALENDAR_DATE ( 2023, 31, 7 ) ;
#68 = EDGE_LOOP ( 'NONE', ( #272, #198 ) ) ;
#69 =( GEOMETRIC_REPRESENTATION_CONTEXT ( 3 ) GLOBAL_UNCERTAINTY_ASSIGNED_CONTEXT ( ( #7 ) ) GLOBAL_UNIT_ASSIGNED_CONTEXT ( ( #302, #327, #50 ) ) REPRESENTATION_CONTEXT ( 'NONE', 'WORKASPACE' ) );
#70 = APPLICATION_PROTOCOL_DEFINITION ( 'international standard', 'config_control_design', 1994, #22 ) ;
#71 = DIRECTION ( 'NONE',  ( 6.123233995736766000E-017, -1.000000000000000000, 0.0000000000000000000 ) ) ;
#72 = VECTOR ( 'NONE', #239, 1000.000000000000000 ) ;
#73 = EDGE_CURVE ( 'NONE', #301, #331, #249, .T. ) ;
#74 = CARTESIAN_POINT ( 'NONE',  ( 0.9999999999999997800, 0.0000000000000000000, 4.000000000000000000 ) ) ;
#75 = CARTESIAN_POINT ( 'NONE',  ( -54.49999999999999300, 3.999999999999993300, 0.0000000000000000000 ) ) ;
#76 = ORIENTED_EDGE ( 'NONE', *, *, #280, .F. ) ;
#77 = CC_DESIGN_APPROVAL ( #53, ( #83 ) ) ;
#78 = DATE_AND_TIME ( #152, #223 ) ;
#79 = ORIENTED_EDGE ( 'NONE', *, *, #150, .T. ) ;
#80 = CARTESIAN_POINT ( 'NONE',  ( 20.20000000000000300, 0.0000000000000000000, 3.200000000000000200 ) ) ;
#81 = DIRECTION ( 'NONE',  ( 1.000000000000000000, 6.123233995736766000E-017, -0.0000000000000000000 ) ) ;
#82 = DIRECTION ( 'NONE',  ( 0.0000000000000000000, -1.224646799147353500E-016, 1.000000000000000000 ) ) ;
#83 = SECURITY_CLASSIFICATION ( '', '', #251 ) ;
#84 = CIRCLE ( 'NONE', #191, 0.7999999999999990500 ) ;
#85 = CARTESIAN_POINT ( 'NONE',  ( 0.0000000000000000000, 4.898587196589412800E-016, -4.000000000000000000 ) ) ;
#86 = ORIENTED_EDGE ( 'NONE', *, *, #52, .F. ) ;
#87 = APPROVAL_DATE_TIME ( #159, #265 ) ;
#88 = AXIS2_PLACEMENT_3D ( 'NONE', #13, #210, #209 ) ;
#89 = DIRECTION ( 'NONE',  ( 1.000000000000000000, 0.0000000000000000000, 0.0000000000000000000 ) ) ;
#90 = AXIS2_PLACEMENT_3D ( 'NONE', #91, #277, #116 ) ;
#91 = CARTESIAN_POINT ( 'NONE',  ( 0.9999999999999988900, 6.123233995736759900E-017, 0.0000000000000000000 ) ) ;
#92 = FACE_OUTER_BOUND ( 'NONE', #339, .T. ) ;
#93 = PERSON_AND_ORGANIZATION_ROLE ( 'classification_officer' ) ;
#94 = ADVANCED_FACE ( 'NONE', ( #108 ), #179, .T. ) ;
#95 = EDGE_CURVE ( 'NONE', #204, #222, #30, .T. ) ;
#96 = APPROVAL_PERSON_ORGANIZATION ( #169, #265, #220 ) ;
#97 = CC_DESIGN_SECURITY_CLASSIFICATION ( #83, ( #343 ) ) ;
#98 = FACE_OUTER_BOUND ( 'NONE', #126, .T. ) ;
#99 = CARTESIAN_POINT ( 'NONE',  ( 0.9999999999999997800, 0.0000000000000000000, 0.0000000000000000000 ) ) ;
#100 = CC_DESIGN_PERSON_AND_ORGANIZATION_ASSIGNMENT ( #56, #93, ( #83 ) ) ;
#101 = CARTESIAN_POINT ( 'NONE',  ( -54.99999999999998600, -3.367778697655220500E-015, 0.0000000000000000000 ) ) ;
#102 = APPROVAL_STATUS ( 'not_yet_approved' ) ;
#103 = DIRECTION ( 'NONE',  ( 1.000000000000000000, 6.123233995736766000E-017, -0.0000000000000000000 ) ) ;
#104 = DIRECTION ( 'NONE',  ( -1.000000000000000000, -0.0000000000000000000, -0.0000000000000000000 ) ) ;
#105 = AXIS2_PLACEMENT_3D ( 'NONE', #21, #185, #18 ) ;
#106 = AXIS2_PLACEMENT_3D ( 'NONE', #8, #225, #304 ) ;
#107 = ORIENTED_EDGE ( 'NONE', *, *, #33, .T. ) ;
#108 = FACE_OUTER_BOUND ( 'NONE', #6, .T. ) ;
#109 = PLANE ( 'NONE',  #214 ) ;
#110 = VERTEX_POINT ( 'NONE', #315 ) ;
#111 = EDGE_CURVE ( 'NONE', #110, #141, #240, .T. ) ;
#112 = CARTESIAN_POINT ( 'NONE',  ( 0.9999999999999991100, 4.000000000000000000, 0.0000000000000000000 ) ) ;
#113 = PRODUCT_RELATED_PRODUCT_CATEGORY ( 'detail', '', ( #205 ) ) ;
#114 = DIRECTION ( 'NONE',  ( 0.0000000000000000000, 0.0000000000000000000, 1.000000000000000000 ) ) ;
#115 = EDGE_LOOP ( 'NONE', ( #224, #14 ) ) ;
#116 = DIRECTION ( 'NONE',  ( -5.421010862427522200E-017, 1.000000000000000000, 0.0000000000000000000 ) ) ;
#117 = CALENDAR_DATE ( 2023, 31, 7 ) ;
#118 = TOROIDAL_SURFACE ( 'NONE', #329, 3.200000000000000200, 0.7999999999999992700 ) ;
#119 = CC_DESIGN_DATE_AND_TIME_ASSIGNMENT ( #127, #278, ( #83 ) ) ;
#120 = APPROVAL_STATUS ( 'not_yet_approved' ) ;
#121 = CLOSED_SHELL ( 'NONE', ( #34, #63, #173, #335, #149, #196 ) ) ;
#122 = VERTEX_POINT ( 'NONE', #154 ) ;
#123 = ADVANCED_FACE ( 'NONE', ( #314 ), #307, .T. ) ;
#124 = AXIS2_PLACEMENT_3D ( 'NONE', #232, #356, #186 ) ;
#125 = DESIGN_CONTEXT ( 'detailed design', #250, 'design' ) ;
#126 = EDGE_LOOP ( 'NONE', ( #293, #243 ) ) ;
#127 = DATE_AND_TIME ( #193, #262 ) ;
#128 = AXIS2_PLACEMENT_3D ( 'NONE', #328, #168, #358 ) ;
#129 = FACE_OUTER_BOUND ( 'NONE', #3, .T. ) ;
#130 = CARTESIAN_POINT ( 'NONE',  ( -54.49999999999999300, -4.000000000000000000, 4.898587196589408900E-016 ) ) ;
#131 = DIRECTION ( 'NONE',  ( 0.0000000000000000000, 0.0000000000000000000, 1.000000000000000000 ) ) ;
#132 = CYLINDRICAL_SURFACE ( 'NONE', #106, 4.000000000000000000 ) ;
#133 = EDGE_CURVE ( 'NONE', #141, #311, #20, .T. ) ;
#134 = DIRECTION ( 'NONE',  ( 1.000000000000000000, 6.123233995736766000E-017, -0.0000000000000000000 ) ) ;
#135 = ORIENTED_EDGE ( 'NONE', *, *, #357, .F. ) ;
#136 = PERSON_AND_ORGANIZATION ( #9, #310 ) ;
#137 = ORIENTED_EDGE ( 'NONE', *, *, #95, .F. ) ;
#138 = DIRECTION ( 'NONE',  ( 0.0000000000000000000, 0.0000000000000000000, 1.000000000000000000 ) ) ;
#139 = DIRECTION ( 'NONE',  ( -1.000000000000000000, -0.0000000000000000000, -0.0000000000000000000 ) ) ;
#140 = CONICAL_SURFACE ( 'NONE', #330, 3.999999999999996400, 0.7853981633974543900 ) ;
#141 = VERTEX_POINT ( 'NONE', #74 ) ;
#142 = DIRECTION ( 'NONE',  ( 1.000000000000000000, 6.123233995736766000E-017, -0.0000000000000000000 ) ) ;
#143 = AXIS2_PLACEMENT_3D ( 'NONE', #297, #139, #325 ) ;
#144 = LOCAL_TIME ( 9, 19, 10.00000000000000000, #212 ) ;
#145 = DIRECTION ( 'NONE',  ( 0.0000000000000000000, 1.000000000000000000, 0.0000000000000000000 ) ) ;
#146 = EDGE_LOOP ( 'NONE', ( #317, #349, #337, #61 ) ) ;
#147 = AXIS2_PLACEMENT_3D ( 'NONE', #25, #226, #114 ) ;
#148 = CIRCLE ( 'NONE', #27, 3.999999999999996400 ) ;
#149 = ADVANCED_FACE ( 'NONE', ( #98 ), #166, .F. ) ;
#150 = EDGE_CURVE ( 'NONE', #122, #311, #164, .T. ) ;
#151 = ORIENTED_EDGE ( 'NONE', *, *, #336, .F. ) ;
#152 = CALENDAR_DATE ( 2023, 31, 7 ) ;
#153 = ORIENTED_EDGE ( 'NONE', *, *, #111, .F. ) ;
#154 = CARTESIAN_POINT ( 'NONE',  ( 20.20000000000000300, 4.898587196589411800E-016, -4.000000000000000000 ) ) ;
#155 = FACE_OUTER_BOUND ( 'NONE', #68, .T. ) ;
#156 = DIRECTION ( 'NONE',  ( -1.000000000000000000, -0.0000000000000000000, -0.0000000000000000000 ) ) ;
#157 = DIRECTION ( 'NONE',  ( 0.0000000000000000000, 0.0000000000000000000, 1.000000000000000000 ) ) ;
#158 = ORIENTED_EDGE ( 'NONE', *, *, #111, .T. ) ;
#159 = DATE_AND_TIME ( #230, #303 ) ;
#160 = AXIS2_PLACEMENT_3D ( 'NONE', #354, #257, #217 ) ;
#161 = CARTESIAN_POINT ( 'NONE',  ( -54.49999999999999300, -4.000000000000000000, 4.898587196589408900E-016 ) ) ;
#162 = DIRECTION ( 'NONE',  ( 0.0000000000000000000, 1.000000000000000000, 0.0000000000000000000 ) ) ;
#163 = CARTESIAN_POINT ( 'NONE',  ( 0.9999999999999986700, 4.000000000000000000, 0.0000000000000000000 ) ) ;
#164 = LINE ( 'NONE', #85, #233 ) ;
#165 = DIRECTION ( 'NONE',  ( -1.000000000000000000, 0.0000000000000000000, -0.0000000000000000000 ) ) ;
#166 = PLANE ( 'NONE',  #124 ) ;
#167 = EDGE_CURVE ( 'NONE', #110, #122, #176, .T. ) ;
#168 = DIRECTION ( 'NONE',  ( 1.000000000000000000, 6.123233995736766000E-017, -0.0000000000000000000 ) ) ;
#169 = PERSON_AND_ORGANIZATION ( #9, #310 ) ;
#170 = CARTESIAN_POINT ( 'NONE',  ( 0.0000000000000000000, 0.0000000000000000000, 0.0000000000000000000 ) ) ;
#171 = VECTOR ( 'NONE', #207, 1000.000000000000000 ) ;
#172 = PERSON_AND_ORGANIZATION_ROLE ( 'creator' ) ;
#173 = ADVANCED_FACE ( 'NONE', ( #92 ), #184, .T. ) ;
#174 = PLANE ( 'NONE',  #45 ) ;
#175 = ORIENTED_EDGE ( 'NONE', *, *, #280, .T. ) ;
#176 = CIRCLE ( 'NONE', #105, 4.000000000000000000 ) ;
#177 = DIRECTION ( 'NONE',  ( 0.0000000000000000000, 1.000000000000000000, 0.0000000000000000000 ) ) ;
#178 = DIRECTION ( 'NONE',  ( 0.7071067811865432400, -0.7071067811865517900, 8.659560562354985900E-017 ) ) ;
#179 = PLANE ( 'NONE',  #26 ) ;
#180 = EDGE_CURVE ( 'NONE', #43, #296, #298, .T. ) ;
#181 = ORIENTED_EDGE ( 'NONE', *, *, #357, .T. ) ;
#182 = LOCAL_TIME ( 9, 19, 10.00000000000000000, #255 ) ;
#183 = DIRECTION ( 'NONE',  ( -1.000000000000000000, -0.0000000000000000000, -0.0000000000000000000 ) ) ;
#184 = TOROIDAL_SURFACE ( 'NONE', #160, 3.200000000000000200, 0.7999999999999992700 ) ;
#185 = DIRECTION ( 'NONE',  ( -1.000000000000000000, -0.0000000000000000000, -0.0000000000000000000 ) ) ;
#186 = DIRECTION ( 'NONE',  ( 0.0000000000000000000, 0.0000000000000000000, -1.000000000000000000 ) ) ;
#187 = MANIFOLD_SOLID_BREP ( 'È¸Àü4', #320 ) ;
#188 = DIRECTION ( 'NONE',  ( 0.7071067811865432400, 0.7071067811865517900, 0.0000000000000000000 ) ) ;
#189 = CARTESIAN_POINT ( 'NONE',  ( -54.99999999999998600, 3.499999999999993800, 0.0000000000000000000 ) ) ;
#190 = ORIENTED_EDGE ( 'NONE', *, *, #33, .F. ) ;
#191 = AXIS2_PLACEMENT_3D ( 'NONE', #48, #241, #82 ) ;
#192 = CARTESIAN_POINT ( 'NONE',  ( -54.49999999999999300, -3.337162527676537100E-015, 0.0000000000000000000 ) ) ;
#193 = CALENDAR_DATE ( 2023, 31, 7 ) ;
#194 = LINE ( 'NONE', #75, #263 ) ;
#195 = APPROVAL_STATUS ( 'not_yet_approved' ) ;
#196 = ADVANCED_FACE ( 'NONE', ( #155 ), #109, .F. ) ;
#197 = LINE ( 'NONE', #360, #62 ) ;
#198 = ORIENTED_EDGE ( 'NONE', *, *, #236, .F. ) ;
#199 = DIRECTION ( 'NONE',  ( -1.000000000000000000, -0.0000000000000000000, -0.0000000000000000000 ) ) ;
#200 = EDGE_CURVE ( 'NONE', #296, #122, #84, .T. ) ;
#201 = VERTEX_POINT ( 'NONE', #266 ) ;
#202 = PERSON_AND_ORGANIZATION ( #9, #310 ) ;
#203 = VERTEX_POINT ( 'NONE', #163 ) ;
#204 = VERTEX_POINT ( 'NONE', #161 ) ;
#205 = PRODUCT ( '03-3195', '03-3195', '', ( #245 ) ) ;
#206 = CARTESIAN_POINT ( 'NONE',  ( 21.00000000000000000, 4.408728476930471200E-016, -3.200000000000000200 ) ) ;
#207 = DIRECTION ( 'NONE',  ( -1.000000000000000000, -0.0000000000000000000, -0.0000000000000000000 ) ) ;
#208 = CIRCLE ( 'NONE', #351, 4.000000000000000000 ) ;
#209 = DIRECTION ( 'NONE',  ( -6.123233995736766000E-017, 1.000000000000000000, 0.0000000000000000000 ) ) ;
#210 = DIRECTION ( 'NONE',  ( 1.000000000000000000, 6.123233995736766000E-017, -0.0000000000000000000 ) ) ;
#211 = ORIENTED_EDGE ( 'NONE', *, *, #73, .T. ) ;
#212 = COORDINATED_UNIVERSAL_TIME_OFFSET ( 9, 0, .AHEAD. ) ;
#213 = ORIENTED_EDGE ( 'NONE', *, *, #336, .T. ) ;
#214 = AXIS2_PLACEMENT_3D ( 'NONE', #326, #165, #218 ) ;
#215 = DIRECTION ( 'NONE',  ( 0.0000000000000000000, 0.0000000000000000000, -1.000000000000000000 ) ) ;
#216 = AXIS2_PLACEMENT_3D ( 'NONE', #170, #246, #89 ) ;
#217 = DIRECTION ( 'NONE',  ( 0.0000000000000000000, 0.0000000000000000000, 1.000000000000000000 ) ) ;
#218 = DIRECTION ( 'NONE',  ( -0.0000000000000000000, 0.0000000000000000000, 1.000000000000000000 ) ) ;
#219 = CIRCLE ( 'NONE', #294, 3.200000000000000200 ) ;
#220 = APPROVAL_ROLE ( '' ) ;
#221 = EDGE_CURVE ( 'NONE', #43, #110, #287, .T. ) ;
#222 = VERTEX_POINT ( 'NONE', #44 ) ;
#223 = LOCAL_TIME ( 9, 19, 10.00000000000000000, #292 ) ;
#224 = ORIENTED_EDGE ( 'NONE', *, *, #316, .T. ) ;
#225 = DIRECTION ( 'NONE',  ( 1.000000000000000000, 6.123233995736766000E-017, -0.0000000000000000000 ) ) ;
#226 = DIRECTION ( 'NONE',  ( -1.000000000000000000, -0.0000000000000000000, -0.0000000000000000000 ) ) ;
#227 = PERSON_AND_ORGANIZATION_ROLE ( 'creator' ) ;
#228 = CIRCLE ( 'NONE', #313, 4.000000000000000000 ) ;
#229 = ORIENTED_EDGE ( 'NONE', *, *, #167, .T. ) ;
#230 = CALENDAR_DATE ( 2023, 31, 7 ) ;
#231 = CC_DESIGN_PERSON_AND_ORGANIZATION_ASSIGNMENT ( #237, #55, ( #205 ) ) ;
#232 = CARTESIAN_POINT ( 'NONE',  ( 1.000000000000000400, 2.710505431213763600E-016, 0.0000000000000000000 ) ) ;
#233 = VECTOR ( 'NONE', #267, 1000.000000000000000 ) ;
#234 = DIRECTION ( 'NONE',  ( -1.000000000000000000, -6.123233995736766000E-017, 0.0000000000000000000 ) ) ;
#235 = CARTESIAN_POINT ( 'NONE',  ( -54.49999999999999300, -3.337162527676537100E-015, 0.0000000000000000000 ) ) ;
#236 = EDGE_CURVE ( 'NONE', #296, #43, #219, .T. ) ;
#237 = PERSON_AND_ORGANIZATION ( #9, #310 ) ;
#238 = CARTESIAN_POINT ( 'NONE',  ( 21.00000000000000000, 0.0000000000000000000, 3.200000000000000200 ) ) ;
#239 = DIRECTION ( 'NONE',  ( 1.000000000000000000, 6.123233995736766000E-017, -0.0000000000000000000 ) ) ;
#240 = LINE ( 'NONE', #344, #171 ) ;
#241 = DIRECTION ( 'NONE',  ( -0.0000000000000000000, 1.000000000000000000, 1.224646799147353200E-016 ) ) ;
#242 = EDGE_CURVE ( 'NONE', #122, #110, #228, .T. ) ;
#243 = ORIENTED_EDGE ( 'NONE', *, *, #258, .T. ) ;
#244 = CARTESIAN_POINT ( 'NONE',  ( -54.99999999999999300, -3.367778697655220900E-015, 0.0000000000000000000 ) ) ;
#245 = MECHANICAL_CONTEXT ( 'NONE', #22, 'mechanical' ) ;
#246 = DIRECTION ( 'NONE',  ( 0.0000000000000000000, 0.0000000000000000000, 1.000000000000000000 ) ) ;
#247 = ORIENTED_EDGE ( 'NONE', *, *, #236, .T. ) ;
#248 = PRODUCT_DEFINITION ( 'UNKNOWN', '', #343, #125 ) ;
#249 = CIRCLE ( 'NONE', #270, 3.499999999999996900 ) ;
#250 = APPLICATION_CONTEXT ( 'configuration controlled 3d designs of mechanical parts and assemblies' ) ;
#251 = SECURITY_CLASSIFICATION_LEVEL ( 'unclassified' ) ;
#252 = ADVANCED_FACE ( 'NONE', ( #365 ), #140, .T. ) ;
#253 = AXIS2_PLACEMENT_3D ( 'NONE', #23, #342, #42 ) ;
#254 = ORIENTED_EDGE ( 'NONE', *, *, #150, .F. ) ;
#255 = COORDINATED_UNIVERSAL_TIME_OFFSET ( 9, 0, .AHEAD. ) ;
#256 = CONICAL_SURFACE ( 'NONE', #253, 3.999999999999996400, 0.7853981633974543900 ) ;
#257 = DIRECTION ( 'NONE',  ( -1.000000000000000000, -0.0000000000000000000, -0.0000000000000000000 ) ) ;
#258 = EDGE_CURVE ( 'NONE', #311, #141, #208, .T. ) ;
#259 = CYLINDRICAL_SURFACE ( 'NONE', #147, 4.000000000000000000 ) ;
#260 = ORIENTED_EDGE ( 'NONE', *, *, #73, .F. ) ;
#261 = ORIENTED_EDGE ( 'NONE', *, *, #258, .F. ) ;
#262 = LOCAL_TIME ( 9, 19, 10.00000000000000000, #340 ) ;
#263 = VECTOR ( 'NONE', #188, 1000.000000000000000 ) ;
#264 = CARTESIAN_POINT ( 'NONE',  ( 21.00000000000000000, 0.0000000000000000000, 0.0000000000000000000 ) ) ;
#265 = APPROVAL ( #102, 'UNSPECIFIED' ) ;
#266 = CARTESIAN_POINT ( 'NONE',  ( 0.9999999999999991100, -4.000000000000000000, 4.898587196589412800E-016 ) ) ;
#267 = DIRECTION ( 'NONE',  ( -1.000000000000000000, -0.0000000000000000000, -0.0000000000000000000 ) ) ;
#268 = FACE_OUTER_BOUND ( 'NONE', #65, .T. ) ;
#269 = DIRECTION ( 'NONE',  ( 1.000000000000000000, 6.123233995736766000E-017, -0.0000000000000000000 ) ) ;
#270 = AXIS2_PLACEMENT_3D ( 'NONE', #101, #288, #41 ) ;
#271 = DIRECTION ( 'NONE',  ( 0.0000000000000000000, 0.0000000000000000000, 1.000000000000000000 ) ) ;
#272 = ORIENTED_EDGE ( 'NONE', *, *, #180, .F. ) ;
#273 = AXIS2_PLACEMENT_3D ( 'NONE', #80, #17, #215 ) ;
#274 = CARTESIAN_POINT ( 'NONE',  ( 0.9999999999999997800, 4.898587196589412800E-016, -4.000000000000000000 ) ) ;
#275 = APPROVAL_DATE_TIME ( #350, #363 ) ;
#276 = ORIENTED_EDGE ( 'NONE', *, *, #316, .F. ) ;
#277 = DIRECTION ( 'NONE',  ( 1.000000000000000000, 6.123233995736766000E-017, -0.0000000000000000000 ) ) ;
#278 = DATE_TIME_ROLE ( 'classification_date' ) ;
#279 = LINE ( 'NONE', #64, #72 ) ;
#280 = EDGE_CURVE ( 'NONE', #204, #201, #279, .T. ) ;
#281 = ADVANCED_FACE ( 'NONE', ( #355 ), #174, .T. ) ;
#282 = ORIENTED_EDGE ( 'NONE', *, *, #300, .T. ) ;
#283 = APPROVAL_PERSON_ORGANIZATION ( #361, #363, #31 ) ;
#284 = ORIENTED_EDGE ( 'NONE', *, *, #12, .T. ) ;
#285 = CC_DESIGN_APPROVAL ( #265, ( #248 ) ) ;
#286 = DIRECTION ( 'NONE',  ( -1.000000000000000000, -0.0000000000000000000, -0.0000000000000000000 ) ) ;
#287 = CIRCLE ( 'NONE', #273, 0.7999999999999990500 ) ;
#288 = DIRECTION ( 'NONE',  ( 1.000000000000000000, 6.123233995736766000E-017, -0.0000000000000000000 ) ) ;
#289 = CARTESIAN_POINT ( 'NONE',  ( 0.9999999999999988900, 6.123233995736759900E-017, 0.0000000000000000000 ) ) ;
#290 = ORIENTED_EDGE ( 'NONE', *, *, #242, .F. ) ;
#291 = AXIS2_PLACEMENT_3D ( 'NONE', #289, #134, #318 ) ;
#292 = COORDINATED_UNIVERSAL_TIME_OFFSET ( 9, 0, .AHEAD. ) ;
#293 = ORIENTED_EDGE ( 'NONE', *, *, #133, .T. ) ;
#294 = AXIS2_PLACEMENT_3D ( 'NONE', #264, #295, #138 ) ;
#295 = DIRECTION ( 'NONE',  ( -1.000000000000000000, -0.0000000000000000000, -0.0000000000000000000 ) ) ;
#296 = VERTEX_POINT ( 'NONE', #206 ) ;
#297 = CARTESIAN_POINT ( 'NONE',  ( 21.00000000000000000, 0.0000000000000000000, 0.0000000000000000000 ) ) ;
#298 = CIRCLE ( 'NONE', #143, 3.200000000000000200 ) ;
#299 = MANIFOLD_SOLID_BREP ( 'È¸Àü3', #121 ) ;
#300 = EDGE_CURVE ( 'NONE', #222, #204, #148, .T. ) ;
#301 = VERTEX_POINT ( 'NONE', #16 ) ;
#302 =( LENGTH_UNIT ( ) NAMED_UNIT ( * ) SI_UNIT ( .MILLI., .METRE. ) );
#303 = LOCAL_TIME ( 9, 19, 10.00000000000000000, #15 ) ;
#304 = DIRECTION ( 'NONE',  ( -6.123233995736766000E-017, 1.000000000000000000, 0.0000000000000000000 ) ) ;
#305 = ADVANCED_BREP_SHAPE_REPRESENTATION ( '03-3195', ( #299, #187, #216 ), #69 ) ;
#306 = CC_DESIGN_PERSON_AND_ORGANIZATION_ASSIGNMENT ( #5, #172, ( #248 ) ) ;
#307 = CYLINDRICAL_SURFACE ( 'NONE', #88, 4.000000000000000000 ) ;
#308 = APPROVAL_ROLE ( '' ) ;
#309 = ADVANCED_FACE ( 'NONE', ( #268 ), #132, .T. ) ;
#310 = ORGANIZATION ( 'UNSPECIFIED', 'UNSPECIFIED', '' ) ;
#311 = VERTEX_POINT ( 'NONE', #274 ) ;
#312 = AXIS2_PLACEMENT_3D ( 'NONE', #11, #156, #347 ) ;
#313 = AXIS2_PLACEMENT_3D ( 'NONE', #353, #183, #271 ) ;
#314 = FACE_OUTER_BOUND ( 'NONE', #334, .T. ) ;
#315 = CARTESIAN_POINT ( 'NONE',  ( 20.20000000000000300, 0.0000000000000000000, 4.000000000000000000 ) ) ;
#316 = EDGE_CURVE ( 'NONE', #203, #201, #346, .T. ) ;
#317 = ORIENTED_EDGE ( 'NONE', *, *, #180, .T. ) ;
#318 = DIRECTION ( 'NONE',  ( -5.421010862427522200E-017, 1.000000000000000000, 0.0000000000000000000 ) ) ;
#319 = PRODUCT_DEFINITION_SHAPE ( 'NONE', 'NONE',  #248 ) ;
#320 = CLOSED_SHELL ( 'NONE', ( #123, #1, #281, #94, #252, #309 ) ) ;
#321 = CARTESIAN_POINT ( 'NONE',  ( -54.49999999999999300, -3.337162527676537100E-015, 0.0000000000000000000 ) ) ;
#322 = APPROVAL_DATE_TIME ( #37, #53 ) ;
#323 = CYLINDRICAL_SURFACE ( 'NONE', #312, 4.000000000000000000 ) ;
#324 = CC_DESIGN_DATE_AND_TIME_ASSIGNMENT ( #78, #364, ( #248 ) ) ;
#325 = DIRECTION ( 'NONE',  ( 0.0000000000000000000, 0.0000000000000000000, 1.000000000000000000 ) ) ;
#326 = CARTESIAN_POINT ( 'NONE',  ( 21.00000000000000000, 0.0000000000000000000, 0.0000000000000000000 ) ) ;
#327 =( NAMED_UNIT ( * ) PLANE_ANGLE_UNIT ( ) SI_UNIT ( $, .RADIAN. ) );
#328 = CARTESIAN_POINT ( 'NONE',  ( -54.99999999999998600, -3.367778697655220500E-015, 0.0000000000000000000 ) ) ;
#329 = AXIS2_PLACEMENT_3D ( 'NONE', #348, #104, #157 ) ;
#330 = AXIS2_PLACEMENT_3D ( 'NONE', #321, #81, #162 ) ;
#331 = VERTEX_POINT ( 'NONE', #189 ) ;
#332 = APPROVAL_PERSON_ORGANIZATION ( #46, #53, #308 ) ;
#333 = FACE_OUTER_BOUND ( 'NONE', #146, .T. ) ;
#334 = EDGE_LOOP ( 'NONE', ( #282, #175, #276, #151 ) ) ;
#335 = ADVANCED_FACE ( 'NONE', ( #10 ), #259, .T. ) ;
#336 = EDGE_CURVE ( 'NONE', #222, #203, #197, .T. ) ;
#337 = ORIENTED_EDGE ( 'NONE', *, *, #167, .F. ) ;
#338 = ORIENTED_EDGE ( 'NONE', *, *, #133, .F. ) ;
#339 = EDGE_LOOP ( 'NONE', ( #359, #247, #352, #290 ) ) ;
#340 = COORDINATED_UNIVERSAL_TIME_OFFSET ( 9, 0, .AHEAD. ) ;
#341 = LINE ( 'NONE', #130, #47 ) ;
#342 = DIRECTION ( 'NONE',  ( 1.000000000000000000, 6.123233995736766000E-017, -0.0000000000000000000 ) ) ;
#343 = PRODUCT_DEFINITION_FORMATION_WITH_SPECIFIED_SOURCE ( 'ANY', '', #205, .NOT_KNOWN. ) ;
#344 = CARTESIAN_POINT ( 'NONE',  ( 0.0000000000000000000, 0.0000000000000000000, 4.000000000000000000 ) ) ;
#345 = EDGE_LOOP ( 'NONE', ( #181, #284, #32, #190 ) ) ;
#346 = CIRCLE ( 'NONE', #90, 4.000000000000000000 ) ;
#347 = DIRECTION ( 'NONE',  ( 0.0000000000000000000, 0.0000000000000000000, 1.000000000000000000 ) ) ;
#348 = CARTESIAN_POINT ( 'NONE',  ( 20.20000000000000300, 0.0000000000000000000, 0.0000000000000000000 ) ) ;
#349 = ORIENTED_EDGE ( 'NONE', *, *, #200, .T. ) ;
#350 = DATE_AND_TIME ( #67, #144 ) ;
#351 = AXIS2_PLACEMENT_3D ( 'NONE', #35, #199, #2 ) ;
#352 = ORIENTED_EDGE ( 'NONE', *, *, #221, .T. ) ;
#353 = CARTESIAN_POINT ( 'NONE',  ( 20.20000000000000300, 0.0000000000000000000, 0.0000000000000000000 ) ) ;
#354 = CARTESIAN_POINT ( 'NONE',  ( 20.20000000000000300, 0.0000000000000000000, 0.0000000000000000000 ) ) ;
#355 = FACE_OUTER_BOUND ( 'NONE', #115, .T. ) ;
#356 = DIRECTION ( 'NONE',  ( 1.000000000000000000, 0.0000000000000000000, 0.0000000000000000000 ) ) ;
#357 = EDGE_CURVE ( 'NONE', #331, #301, #51, .T. ) ;
#358 = DIRECTION ( 'NONE',  ( 0.0000000000000000000, 1.000000000000000000, 0.0000000000000000000 ) ) ;
#359 = ORIENTED_EDGE ( 'NONE', *, *, #200, .F. ) ;
#360 = CARTESIAN_POINT ( 'NONE',  ( -2.449293598294706400E-016, 4.000000000000000000, 0.0000000000000000000 ) ) ;
#361 = PERSON_AND_ORGANIZATION ( #9, #310 ) ;
#362 = ORIENTED_EDGE ( 'NONE', *, *, #242, .T. ) ;
#363 = APPROVAL ( #195, 'UNSPECIFIED' ) ;
#364 = DATE_TIME_ROLE ( 'creation_date' ) ;
#365 = FACE_OUTER_BOUND ( 'NONE', #29, .T. ) ;
ENDSEC;
END-ISO-10303-21;
