ISO-10303-21;
HEADER;
FILE_DESCRIPTION (( 'STEP AP203' ),
    '1' );
FILE_NAME ('03-3196.STEP',
    '2023-07-31T00:19:38',
    ( 'USER' ),
    ( 'Hewlett-Packard Company' ),
    'SwSTEP 2.0',
    'SolidWorks 2014',
    '' );
FILE_SCHEMA (( 'CONFIG_CONTROL_DESIGN' ));
ENDSEC;

DATA;
#1 =( NAMED_UNIT ( * ) SI_UNIT ( $, .STERADIAN. ) SOLID_ANGLE_UNIT ( ) );
#2 = VECTOR ( 'NONE', #135, 1000.000000000000000 ) ;
#3 = PERSON_AND_ORGANIZATION ( #13, #158 ) ;
#4 = DIRECTION ( 'NONE',  ( -1.000000000000000000, -6.123233995736766000E-017, 0.0000000000000000000 ) ) ;
#5 = DATE_TIME_ROLE ( 'classification_date' ) ;
#6 = EDGE_CURVE ( 'NONE', #285, #57, #195, .T. ) ;
#7 = ORIENTED_EDGE ( 'NONE', *, *, #106, .T. ) ;
#8 = ADVANCED_FACE ( 'NONE', ( #264 ), #63, .F. ) ;
#9 = EDGE_CURVE ( 'NONE', #156, #31, #41, .T. ) ;
#10 = ORIENTED_EDGE ( 'NONE', *, *, #251, .T. ) ;
#11 = CC_DESIGN_DATE_AND_TIME_ASSIGNMENT ( #278, #302, ( #304 ) ) ;
#12 = EDGE_CURVE ( 'NONE', #216, #100, #118, .T. ) ;
#13 = PERSON ( 'UNSPECIFIED', 'UNSPECIFIED', 'UNSPECIFIED', ('UNSPECIFIED'), ('UNSPECIFIED'), ('UNSPECIFIED') ) ;
#14 = ORIENTED_EDGE ( 'NONE', *, *, #9, .T. ) ;
#15 = CARTESIAN_POINT ( 'NONE',  ( -50.00000000000000700, -3.061616997868383400E-015, 0.0000000000000000000 ) ) ;
#16 = AXIS2_PLACEMENT_3D ( 'NONE', #260, #70, #232 ) ;
#17 = ORIENTED_EDGE ( 'NONE', *, *, #251, .F. ) ;
#18 = AXIS2_PLACEMENT_3D ( 'NONE', #188, #253, #95 ) ;
#19 = CARTESIAN_POINT ( 'NONE',  ( 26.00000000000000400, 0.0000000000000000000, 4.599999999999999600 ) ) ;
#20 = CARTESIAN_POINT ( 'NONE',  ( -49.50000000000000000, -4.999999999999999100, 6.123233995736762300E-016 ) ) ;
#21 = CARTESIAN_POINT ( 'NONE',  ( 0.0000000000000000000, 0.0000000000000000000, 0.0000000000000000000 ) ) ;
#22 = PLANE ( 'NONE',  #80 ) ;
#23 = LOCAL_TIME ( 9, 19, 38.00000000000000000, #103 ) ;
#24 = DIRECTION ( 'NONE',  ( -1.000000000000000000, -0.0000000000000000000, -0.0000000000000000000 ) ) ;
#25 = EDGE_CURVE ( 'NONE', #57, #100, #339, .T. ) ;
#26 = ORIENTED_EDGE ( 'NONE', *, *, #200, .F. ) ;
#27 = DIRECTION ( 'NONE',  ( -1.000000000000000000, -0.0000000000000000000, -0.0000000000000000000 ) ) ;
#28 = PRODUCT_DEFINITION_FORMATION_WITH_SPECIFIED_SOURCE ( 'ANY', '', #130, .NOT_KNOWN. ) ;
#29 = APPLICATION_PROTOCOL_DEFINITION ( 'international standard', 'config_control_design', 1994, #226 ) ;
#30 = APPLICATION_PROTOCOL_DEFINITION ( 'international standard', 'config_control_design', 1994, #99 ) ;
#31 = VERTEX_POINT ( 'NONE', #164 ) ;
#32 = CARTESIAN_POINT ( 'NONE',  ( 26.00000000000000400, 0.0000000000000000000, 0.0000000000000000000 ) ) ;
#33 = CARTESIAN_POINT ( 'NONE',  ( 0.0000000000000000000, 0.0000000000000000000, 0.0000000000000000000 ) ) ;
#34 = CALENDAR_DATE ( 2023, 31, 7 ) ;
#35 = DIRECTION ( 'NONE',  ( 1.000000000000000000, 6.123233995736766000E-017, -0.0000000000000000000 ) ) ;
#36 = ADVANCED_FACE ( 'NONE', ( #351 ), #194, .F. ) ;
#37 = DIRECTION ( 'NONE',  ( 1.000000000000000000, 0.0000000000000000000, 0.0000000000000000000 ) ) ;
#38 = EDGE_LOOP ( 'NONE', ( #356, #159, #182, #364 ) ) ;
#39 = AXIS2_PLACEMENT_3D ( 'NONE', #52, #243, #330 ) ;
#40 = FACE_OUTER_BOUND ( 'NONE', #109, .T. ) ;
#41 = CIRCLE ( 'NONE', #365, 5.000000000000000000 ) ;
#42 = ADVANCED_BREP_SHAPE_REPRESENTATION ( '03-3196', ( #306, #56, #263 ), #191 ) ;
#43 = CIRCLE ( 'NONE', #115, 5.000000000000000900 ) ;
#44 = PERSON_AND_ORGANIZATION ( #13, #158 ) ;
#45 = DIRECTION ( 'NONE',  ( 1.000000000000000000, 6.123233995736766000E-017, -0.0000000000000000000 ) ) ;
#46 = VERTEX_POINT ( 'NONE', #19 ) ;
#47 = EDGE_CURVE ( 'NONE', #285, #216, #254, .T. ) ;
#48 = DIRECTION ( 'NONE',  ( 1.000000000000000000, 6.123233995736766000E-017, -0.0000000000000000000 ) ) ;
#49 = APPROVAL ( #142, 'UNSPECIFIED' ) ;
#50 = CARTESIAN_POINT ( 'NONE',  ( 0.9999999999999997800, 0.0000000000000000000, 0.0000000000000000000 ) ) ;
#51 = ORIENTED_EDGE ( 'NONE', *, *, #25, .T. ) ;
#52 = CARTESIAN_POINT ( 'NONE',  ( -49.50000000000000000, -3.031000827889699300E-015, 0.0000000000000000000 ) ) ;
#53 = FACE_OUTER_BOUND ( 'NONE', #75, .T. ) ;
#54 = COORDINATED_UNIVERSAL_TIME_OFFSET ( 9, 0, .AHEAD. ) ;
#55 = CARTESIAN_POINT ( 'NONE',  ( 0.0000000000000000000, 6.123233995736767300E-016, -5.000000000000000900 ) ) ;
#56 = MANIFOLD_SOLID_BREP ( 'È¸Àü4', #146 ) ;
#57 = VERTEX_POINT ( 'NONE', #117 ) ;
#58 = DIRECTION ( 'NONE',  ( 1.000000000000000000, 6.123233995736766000E-017, -0.0000000000000000000 ) ) ;
#59 = AXIS2_PLACEMENT_3D ( 'NONE', #32, #229, #340 ) ;
#60 = CARTESIAN_POINT ( 'NONE',  ( 0.9999999999999997800, 0.0000000000000000000, 5.000000000000000000 ) ) ;
#61 = CARTESIAN_POINT ( 'NONE',  ( 25.60000000000000500, 0.0000000000000000000, 0.0000000000000000000 ) ) ;
#62 = EDGE_LOOP ( 'NONE', ( #335, #10, #102, #344 ) ) ;
#63 = PLANE ( 'NONE',  #18 ) ;
#64 = DIRECTION ( 'NONE',  ( 0.0000000000000000000, 0.0000000000000000000, -1.000000000000000000 ) ) ;
#65 = FACE_OUTER_BOUND ( 'NONE', #38, .T. ) ;
#66 = LOCAL_TIME ( 9, 19, 38.00000000000000000, #141 ) ;
#67 = VECTOR ( 'NONE', #161, 999.9999999999998900 ) ;
#68 = ADVANCED_FACE ( 'NONE', ( #78 ), #175, .T. ) ;
#69 = ORIENTED_EDGE ( 'NONE', *, *, #236, .T. ) ;
#70 = DIRECTION ( 'NONE',  ( -0.0000000000000000000, 1.000000000000000000, 1.224646799147353200E-016 ) ) ;
#71 = DESIGN_CONTEXT ( 'detailed design', #226, 'design' ) ;
#72 = PERSON_AND_ORGANIZATION_ROLE ( 'design_owner' ) ;
#73 = EDGE_CURVE ( 'NONE', #301, #156, #151, .T. ) ;
#74 = CC_DESIGN_APPROVAL ( #49, ( #28 ) ) ;
#75 = EDGE_LOOP ( 'NONE', ( #309, #113 ) ) ;
#76 = CIRCLE ( 'NONE', #193, 4.999999999999996400 ) ;
#77 = CALENDAR_DATE ( 2023, 31, 7 ) ;
#78 = FACE_OUTER_BOUND ( 'NONE', #208, .T. ) ;
#79 = CARTESIAN_POINT ( 'NONE',  ( 25.60000000000000500, 0.0000000000000000000, 5.000000000000000000 ) ) ;
#80 = AXIS2_PLACEMENT_3D ( 'NONE', #97, #35, #148 ) ;
#81 = CARTESIAN_POINT ( 'NONE',  ( -50.00000000000000700, -3.061616997868383400E-015, 0.0000000000000000000 ) ) ;
#82 = ORIENTED_EDGE ( 'NONE', *, *, #9, .F. ) ;
#83 = AXIS2_PLACEMENT_3D ( 'NONE', #274, #325, #354 ) ;
#84 = DIRECTION ( 'NONE',  ( 0.0000000000000000000, 1.000000000000000000, 0.0000000000000000000 ) ) ;
#85 = CYLINDRICAL_SURFACE ( 'NONE', #173, 5.000000000000000000 ) ;
#86 = PERSON_AND_ORGANIZATION ( #13, #158 ) ;
#87 = DIRECTION ( 'NONE',  ( -1.000000000000000000, -0.0000000000000000000, -0.0000000000000000000 ) ) ;
#88 = ORIENTED_EDGE ( 'NONE', *, *, #47, .T. ) ;
#89 = DIRECTION ( 'NONE',  ( -1.000000000000000000, -0.0000000000000000000, -0.0000000000000000000 ) ) ;
#90 = DIRECTION ( 'NONE',  ( 0.0000000000000000000, 0.0000000000000000000, 1.000000000000000000 ) ) ;
#91 = EDGE_CURVE ( 'NONE', #57, #285, #290, .T. ) ;
#92 = DIRECTION ( 'NONE',  ( 0.0000000000000000000, 0.0000000000000000000, 1.000000000000000000 ) ) ;
#93 = VERTEX_POINT ( 'NONE', #214 ) ;
#94 = CC_DESIGN_PERSON_AND_ORGANIZATION_ASSIGNMENT ( #44, #120, ( #28 ) ) ;
#95 = DIRECTION ( 'NONE',  ( 0.0000000000000000000, 0.0000000000000000000, -1.000000000000000000 ) ) ;
#96 = CARTESIAN_POINT ( 'NONE',  ( -50.00000000000000700, -4.500000000000000900, 5.817072295949924500E-016 ) ) ;
#97 = CARTESIAN_POINT ( 'NONE',  ( 0.9999999999999991100, 5.000000000000000000, 0.0000000000000000000 ) ) ;
#98 = ADVANCED_FACE ( 'NONE', ( #40 ), #85, .T. ) ;
#99 = APPLICATION_CONTEXT ( 'configuration controlled 3d designs of mechanical parts and assemblies' ) ;
#100 = VERTEX_POINT ( 'NONE', #307 ) ;
#101 = AXIS2_PLACEMENT_3D ( 'NONE', #357, #219, #286 ) ;
#102 = ORIENTED_EDGE ( 'NONE', *, *, #296, .F. ) ;
#103 = COORDINATED_UNIVERSAL_TIME_OFFSET ( 9, 0, .AHEAD. ) ;
#104 = PERSON_AND_ORGANIZATION_ROLE ( 'creator' ) ;
#105 = ORIENTED_EDGE ( 'NONE', *, *, #144, .F. ) ;
#106 = EDGE_CURVE ( 'NONE', #100, #134, #222, .T. ) ;
#107 = CARTESIAN_POINT ( 'NONE',  ( 0.0000000000000000000, 0.0000000000000000000, 0.0000000000000000000 ) ) ;
#108 = CC_DESIGN_PERSON_AND_ORGANIZATION_ASSIGNMENT ( #333, #316, ( #28 ) ) ;
#109 = EDGE_LOOP ( 'NONE', ( #312, #204, #352, #320 ) ) ;
#110 = DIRECTION ( 'NONE',  ( 0.7071067811865531200, 0.7071067811865420200, 0.0000000000000000000 ) ) ;
#111 = FACE_OUTER_BOUND ( 'NONE', #185, .T. ) ;
#112 = LOCAL_TIME ( 9, 19, 38.00000000000000000, #187 ) ;
#113 = ORIENTED_EDGE ( 'NONE', *, *, #353, .T. ) ;
#114 = DIRECTION ( 'NONE',  ( 0.0000000000000000000, 0.0000000000000000000, 1.000000000000000000 ) ) ;
#115 = AXIS2_PLACEMENT_3D ( 'NONE', #291, #123, #317 ) ;
#116 = AXIS2_PLACEMENT_3D ( 'NONE', #81, #242, #84 ) ;
#117 = CARTESIAN_POINT ( 'NONE',  ( -50.00000000000000700, 4.499999999999993800, 0.0000000000000000000 ) ) ;
#118 = CIRCLE ( 'NONE', #39, 4.999999999999996400 ) ;
#119 = SECURITY_CLASSIFICATION_LEVEL ( 'unclassified' ) ;
#120 = PERSON_AND_ORGANIZATION_ROLE ( 'creator' ) ;
#121 = CIRCLE ( 'NONE', #59, 4.599999999999999600 ) ;
#122 = APPROVAL_DATE_TIME ( #197, #49 ) ;
#123 = DIRECTION ( 'NONE',  ( -1.000000000000000000, -0.0000000000000000000, -0.0000000000000000000 ) ) ;
#124 =( NAMED_UNIT ( * ) PLANE_ANGLE_UNIT ( ) SI_UNIT ( $, .RADIAN. ) );
#125 = ADVANCED_FACE ( 'NONE', ( #300 ), #298, .T. ) ;
#126 = EDGE_LOOP ( 'NONE', ( #305, #177 ) ) ;
#127 = EDGE_CURVE ( 'NONE', #134, #171, #149, .T. ) ;
#128 = SECURITY_CLASSIFICATION ( '', '', #119 ) ;
#129 = EDGE_LOOP ( 'NONE', ( #249, #230, #82, #238 ) ) ;
#130 = PRODUCT ( '03-3196', '03-3196', '', ( #234 ) ) ;
#131 = CYLINDRICAL_SURFACE ( 'NONE', #293, 5.000000000000000900 ) ;
#132 = APPROVAL_PERSON_ORGANIZATION ( #206, #49, #252 ) ;
#133 = VECTOR ( 'NONE', #110, 999.9999999999998900 ) ;
#134 = VERTEX_POINT ( 'NONE', #172 ) ;
#135 = DIRECTION ( 'NONE',  ( 1.000000000000000000, 6.123233995736766000E-017, -0.0000000000000000000 ) ) ;
#136 = AXIS2_PLACEMENT_3D ( 'NONE', #174, #4, #271 ) ;
#137 = ORIENTED_EDGE ( 'NONE', *, *, #12, .T. ) ;
#138 = AXIS2_PLACEMENT_3D ( 'NONE', #327, #303, #315 ) ;
#139 = CARTESIAN_POINT ( 'NONE',  ( -3.061616997868383100E-016, 5.000000000000000000, 0.0000000000000000000 ) ) ;
#140 = CIRCLE ( 'NONE', #231, 5.000000000000000900 ) ;
#141 = COORDINATED_UNIVERSAL_TIME_OFFSET ( 9, 0, .AHEAD. ) ;
#142 = APPROVAL_STATUS ( 'not_yet_approved' ) ;
#143 = DIRECTION ( 'NONE',  ( -1.000000000000000000, -0.0000000000000000000, -0.0000000000000000000 ) ) ;
#144 = EDGE_CURVE ( 'NONE', #100, #216, #76, .T. ) ;
#145 = DIRECTION ( 'NONE',  ( -4.336808689942017700E-017, 1.000000000000000000, 0.0000000000000000000 ) ) ;
#146 = CLOSED_SHELL ( 'NONE', ( #98, #347, #261, #292, #233, #68 ) ) ;
#147 = CC_DESIGN_PERSON_AND_ORGANIZATION_ASSIGNMENT ( #258, #289, ( #128 ) ) ;
#148 = DIRECTION ( 'NONE',  ( -6.123233995736766000E-017, 1.000000000000000000, 0.0000000000000000000 ) ) ;
#149 = CIRCLE ( 'NONE', #157, 5.000000000000000000 ) ;
#150 = LOCAL_TIME ( 9, 19, 38.00000000000000000, #221 ) ;
#151 = LINE ( 'NONE', #190, #331 ) ;
#152 = DIRECTION ( 'NONE',  ( -4.336808689942017700E-017, 1.000000000000000000, 0.0000000000000000000 ) ) ;
#153 = ADVANCED_FACE ( 'NONE', ( #358 ), #287, .T. ) ;
#154 = CARTESIAN_POINT ( 'NONE',  ( 0.9999999999999988900, 6.123233995736759900E-017, 0.0000000000000000000 ) ) ;
#155 = AXIS2_PLACEMENT_3D ( 'NONE', #207, #45, #259 ) ;
#156 = VERTEX_POINT ( 'NONE', #60 ) ;
#157 = AXIS2_PLACEMENT_3D ( 'NONE', #201, #313, #145 ) ;
#158 = ORGANIZATION ( 'UNSPECIFIED', 'UNSPECIFIED', '' ) ;
#159 = ORIENTED_EDGE ( 'NONE', *, *, #200, .T. ) ;
#160 = EDGE_CURVE ( 'NONE', #216, #171, #220, .T. ) ;
#161 = DIRECTION ( 'NONE',  ( 0.7071067811865531200, -0.7071067811865420200, 8.659560562354866300E-017 ) ) ;
#162 = EDGE_LOOP ( 'NONE', ( #198, #235, #51, #280 ) ) ;
#163 = CC_DESIGN_DATE_AND_TIME_ASSIGNMENT ( #323, #5, ( #128 ) ) ;
#164 = CARTESIAN_POINT ( 'NONE',  ( 0.9999999999999997800, 6.123233995736766300E-016, -5.000000000000000000 ) ) ;
#165 = DIRECTION ( 'NONE',  ( 0.0000000000000000000, 0.0000000000000000000, 1.000000000000000000 ) ) ;
#166 = CONICAL_SURFACE ( 'NONE', #155, 4.999999999999996400, 0.7853981633974405100 ) ;
#167 = APPROVAL_DATE_TIME ( #239, #184 ) ;
#168 = CARTESIAN_POINT ( 'NONE',  ( 0.0000000000000000000, 0.0000000000000000000, 0.0000000000000000000 ) ) ;
#169 = DIRECTION ( 'NONE',  ( 0.0000000000000000000, 0.0000000000000000000, 1.000000000000000000 ) ) ;
#170 = AXIS2_PLACEMENT_3D ( 'NONE', #154, #346, #152 ) ;
#171 = VERTEX_POINT ( 'NONE', #362 ) ;
#172 = CARTESIAN_POINT ( 'NONE',  ( 0.9999999999999986700, 5.000000000000000000, 0.0000000000000000000 ) ) ;
#173 = AXIS2_PLACEMENT_3D ( 'NONE', #107, #48, #329 ) ;
#174 = CARTESIAN_POINT ( 'NONE',  ( -50.00000000000000000, -3.061616997868383000E-015, 0.0000000000000000000 ) ) ;
#175 = CYLINDRICAL_SURFACE ( 'NONE', #138, 5.000000000000000000 ) ;
#176 = PLANE ( 'NONE',  #136 ) ;
#177 = ORIENTED_EDGE ( 'NONE', *, *, #215, .F. ) ;
#178 = APPROVAL_STATUS ( 'not_yet_approved' ) ;
#179 = FACE_OUTER_BOUND ( 'NONE', #262, .T. ) ;
#180 = APPROVAL_PERSON_ORGANIZATION ( #245, #184, #343 ) ;
#181 = ADVANCED_FACE ( 'NONE', ( #212 ), #131, .T. ) ;
#182 = ORIENTED_EDGE ( 'NONE', *, *, #73, .T. ) ;
#183 = EDGE_CURVE ( 'NONE', #31, #156, #205, .T. ) ;
#184 = APPROVAL ( #178, 'UNSPECIFIED' ) ;
#185 = EDGE_LOOP ( 'NONE', ( #225, #322 ) ) ;
#186 = CONICAL_SURFACE ( 'NONE', #311, 4.999999999999996400, 0.7853981633974405100 ) ;
#187 = COORDINATED_UNIVERSAL_TIME_OFFSET ( 9, 0, .AHEAD. ) ;
#188 = CARTESIAN_POINT ( 'NONE',  ( 1.000000000000000400, 2.168404344971010800E-016, 0.0000000000000000000 ) ) ;
#189 = ORIENTED_EDGE ( 'NONE', *, *, #183, .T. ) ;
#190 = CARTESIAN_POINT ( 'NONE',  ( 0.0000000000000000000, 0.0000000000000000000, 5.000000000000000900 ) ) ;
#191 =( GEOMETRIC_REPRESENTATION_CONTEXT ( 3 ) GLOBAL_UNCERTAINTY_ASSIGNED_CONTEXT ( ( #192 ) ) GLOBAL_UNIT_ASSIGNED_CONTEXT ( ( #209, #124, #1 ) ) REPRESENTATION_CONTEXT ( 'NONE', 'WORKASPACE' ) );
#192 = UNCERTAINTY_MEASURE_WITH_UNIT (LENGTH_MEASURE( 1.000000000000000100E-005 ), #209, 'distance_accuracy_value', 'NONE');
#193 = AXIS2_PLACEMENT_3D ( 'NONE', #250, #58, #248 ) ;
#194 = PLANE ( 'NONE',  #101 ) ;
#195 = CIRCLE ( 'NONE', #328, 4.499999999999997300 ) ;
#196 = CYLINDRICAL_SURFACE ( 'NONE', #345, 5.000000000000000900 ) ;
#197 = DATE_AND_TIME ( #267, #342 ) ;
#198 = ORIENTED_EDGE ( 'NONE', *, *, #47, .F. ) ;
#199 = CARTESIAN_POINT ( 'NONE',  ( -49.50000000000000000, -4.999999999999999100, 6.123233995736762300E-016 ) ) ;
#200 = EDGE_CURVE ( 'NONE', #93, #301, #140, .T. ) ;
#201 = CARTESIAN_POINT ( 'NONE',  ( 0.9999999999999988900, 6.123233995736759900E-017, 0.0000000000000000000 ) ) ;
#202 = APPROVAL_STATUS ( 'not_yet_approved' ) ;
#203 = CC_DESIGN_APPROVAL ( #184, ( #128 ) ) ;
#204 = ORIENTED_EDGE ( 'NONE', *, *, #160, .T. ) ;
#205 = CIRCLE ( 'NONE', #268, 5.000000000000000000 ) ;
#206 = PERSON_AND_ORGANIZATION ( #13, #158 ) ;
#207 = CARTESIAN_POINT ( 'NONE',  ( -49.50000000000000000, -3.031000827889699300E-015, 0.0000000000000000000 ) ) ;
#208 = EDGE_LOOP ( 'NONE', ( #241, #137, #7, #256 ) ) ;
#209 =( LENGTH_UNIT ( ) NAMED_UNIT ( * ) SI_UNIT ( .MILLI., .METRE. ) );
#210 = ADVANCED_FACE ( 'NONE', ( #65 ), #196, .T. ) ;
#211 = ORIENTED_EDGE ( 'NONE', *, *, #91, .T. ) ;
#212 = FACE_OUTER_BOUND ( 'NONE', #129, .T. ) ;
#213 = PERSON_AND_ORGANIZATION ( #13, #158 ) ;
#214 = CARTESIAN_POINT ( 'NONE',  ( 25.60000000000000500, 6.123233995736766300E-016, -5.000000000000000000 ) ) ;
#215 = EDGE_CURVE ( 'NONE', #265, #46, #266, .T. ) ;
#216 = VERTEX_POINT ( 'NONE', #199 ) ;
#217 = CARTESIAN_POINT ( 'NONE',  ( -49.50000000000000000, 4.999999999999993800, 0.0000000000000000000 ) ) ;
#218 = CC_DESIGN_SECURITY_CLASSIFICATION ( #128, ( #28 ) ) ;
#219 = DIRECTION ( 'NONE',  ( -1.000000000000000000, 0.0000000000000000000, -0.0000000000000000000 ) ) ;
#220 = LINE ( 'NONE', #334, #349 ) ;
#221 = COORDINATED_UNIVERSAL_TIME_OFFSET ( 9, 0, .AHEAD. ) ;
#222 = LINE ( 'NONE', #139, #2 ) ;
#223 = CARTESIAN_POINT ( 'NONE',  ( 25.60000000000000500, 0.0000000000000000000, 0.0000000000000000000 ) ) ;
#224 = CARTESIAN_POINT ( 'NONE',  ( 0.9999999999999997800, 0.0000000000000000000, 0.0000000000000000000 ) ) ;
#225 = ORIENTED_EDGE ( 'NONE', *, *, #91, .F. ) ;
#226 = APPLICATION_CONTEXT ( 'configuration controlled 3d designs of mechanical parts and assemblies' ) ;
#227 = SHAPE_DEFINITION_REPRESENTATION ( #270, #42 ) ;
#228 = CARTESIAN_POINT ( 'NONE',  ( 26.00000000000000400, 5.878304635907294200E-016, -4.599999999999999600 ) ) ;
#229 = DIRECTION ( 'NONE',  ( -1.000000000000000000, -0.0000000000000000000, -0.0000000000000000000 ) ) ;
#230 = ORIENTED_EDGE ( 'NONE', *, *, #314, .T. ) ;
#231 = AXIS2_PLACEMENT_3D ( 'NONE', #223, #89, #279 ) ;
#232 = DIRECTION ( 'NONE',  ( 0.0000000000000000000, -1.224646799147353500E-016, 1.000000000000000000 ) ) ;
#233 = ADVANCED_FACE ( 'NONE', ( #276 ), #186, .T. ) ;
#234 = MECHANICAL_CONTEXT ( 'NONE', #99, 'mechanical' ) ;
#235 = ORIENTED_EDGE ( 'NONE', *, *, #6, .T. ) ;
#236 = EDGE_CURVE ( 'NONE', #46, #301, #257, .T. ) ;
#237 = PRODUCT_RELATED_PRODUCT_CATEGORY ( 'detail', '', ( #130 ) ) ;
#238 = ORIENTED_EDGE ( 'NONE', *, *, #73, .F. ) ;
#239 = DATE_AND_TIME ( #319, #23 ) ;
#240 = DIRECTION ( 'NONE',  ( -1.000000000000000000, -0.0000000000000000000, -0.0000000000000000000 ) ) ;
#241 = ORIENTED_EDGE ( 'NONE', *, *, #160, .F. ) ;
#242 = DIRECTION ( 'NONE',  ( 1.000000000000000000, 6.123233995736766000E-017, -0.0000000000000000000 ) ) ;
#243 = DIRECTION ( 'NONE',  ( 1.000000000000000000, 6.123233995736766000E-017, -0.0000000000000000000 ) ) ;
#244 = VECTOR ( 'NONE', #240, 1000.000000000000000 ) ;
#245 = PERSON_AND_ORGANIZATION ( #13, #158 ) ;
#246 = DIRECTION ( 'NONE',  ( 1.000000000000000000, 6.123233995736766000E-017, -0.0000000000000000000 ) ) ;
#247 = AXIS2_PLACEMENT_3D ( 'NONE', #61, #27, #90 ) ;
#248 = DIRECTION ( 'NONE',  ( 0.0000000000000000000, 1.000000000000000000, 0.0000000000000000000 ) ) ;
#249 = ORIENTED_EDGE ( 'NONE', *, *, #296, .T. ) ;
#250 = CARTESIAN_POINT ( 'NONE',  ( -49.50000000000000000, -3.031000827889699300E-015, 0.0000000000000000000 ) ) ;
#251 = EDGE_CURVE ( 'NONE', #265, #93, #332, .T. ) ;
#252 = APPROVAL_ROLE ( '' ) ;
#253 = DIRECTION ( 'NONE',  ( 1.000000000000000000, 0.0000000000000000000, 0.0000000000000000000 ) ) ;
#254 = LINE ( 'NONE', #20, #67 ) ;
#255 = DIRECTION ( 'NONE',  ( 0.0000000000000000000, -1.000000000000000000, 0.0000000000000000000 ) ) ;
#256 = ORIENTED_EDGE ( 'NONE', *, *, #353, .F. ) ;
#257 = CIRCLE ( 'NONE', #363, 0.3999999999999993000 ) ;
#258 = PERSON_AND_ORGANIZATION ( #13, #158 ) ;
#259 = DIRECTION ( 'NONE',  ( 0.0000000000000000000, 1.000000000000000000, 0.0000000000000000000 ) ) ;
#260 = CARTESIAN_POINT ( 'NONE',  ( 25.60000000000000500, 5.633375276077824100E-016, -4.599999999999999600 ) ) ;
#261 = ADVANCED_FACE ( 'NONE', ( #53 ), #22, .T. ) ;
#262 = EDGE_LOOP ( 'NONE', ( #211, #88, #105, #297 ) ) ;
#263 = AXIS2_PLACEMENT_3D ( 'NONE', #33, #295, #37 ) ;
#264 = FACE_OUTER_BOUND ( 'NONE', #275, .T. ) ;
#265 = VERTEX_POINT ( 'NONE', #228 ) ;
#266 = CIRCLE ( 'NONE', #324, 4.599999999999999600 ) ;
#267 = CALENDAR_DATE ( 2023, 31, 7 ) ;
#268 = AXIS2_PLACEMENT_3D ( 'NONE', #224, #282, #114 ) ;
#269 = CLOSED_SHELL ( 'NONE', ( #181, #125, #153, #210, #8, #36 ) ) ;
#270 = PRODUCT_DEFINITION_SHAPE ( 'NONE', 'NONE',  #304 ) ;
#271 = DIRECTION ( 'NONE',  ( 6.123233995736766000E-017, -1.000000000000000000, 0.0000000000000000000 ) ) ;
#272 = DIRECTION ( 'NONE',  ( -1.000000000000000000, -0.0000000000000000000, -0.0000000000000000000 ) ) ;
#273 = EDGE_CURVE ( 'NONE', #46, #265, #121, .T. ) ;
#274 = CARTESIAN_POINT ( 'NONE',  ( 25.60000000000000500, 0.0000000000000000000, 0.0000000000000000000 ) ) ;
#275 = EDGE_LOOP ( 'NONE', ( #14, #189 ) ) ;
#276 = FACE_OUTER_BOUND ( 'NONE', #162, .T. ) ;
#277 = DIRECTION ( 'NONE',  ( 0.0000000000000000000, 0.0000000000000000000, 1.000000000000000000 ) ) ;
#278 = DATE_AND_TIME ( #350, #66 ) ;
#279 = DIRECTION ( 'NONE',  ( 0.0000000000000000000, 0.0000000000000000000, 1.000000000000000000 ) ) ;
#280 = ORIENTED_EDGE ( 'NONE', *, *, #12, .F. ) ;
#281 = DIRECTION ( 'NONE',  ( 0.0000000000000000000, 1.000000000000000000, 0.0000000000000000000 ) ) ;
#282 = DIRECTION ( 'NONE',  ( -1.000000000000000000, -0.0000000000000000000, -0.0000000000000000000 ) ) ;
#283 = CC_DESIGN_PERSON_AND_ORGANIZATION_ASSIGNMENT ( #86, #72, ( #130 ) ) ;
#284 = APPROVAL_ROLE ( '' ) ;
#285 = VERTEX_POINT ( 'NONE', #96 ) ;
#286 = DIRECTION ( 'NONE',  ( -0.0000000000000000000, 0.0000000000000000000, 1.000000000000000000 ) ) ;
#287 = TOROIDAL_SURFACE ( 'NONE', #247, 4.599999999999999600, 0.3999999999999993000 ) ;
#288 = APPROVAL_DATE_TIME ( #360, #321 ) ;
#289 = PERSON_AND_ORGANIZATION_ROLE ( 'classification_officer' ) ;
#290 = CIRCLE ( 'NONE', #116, 4.499999999999997300 ) ;
#291 = CARTESIAN_POINT ( 'NONE',  ( 25.60000000000000500, 0.0000000000000000000, 0.0000000000000000000 ) ) ;
#292 = ADVANCED_FACE ( 'NONE', ( #111 ), #176, .T. ) ;
#293 = AXIS2_PLACEMENT_3D ( 'NONE', #168, #336, #169 ) ;
#294 = CARTESIAN_POINT ( 'NONE',  ( 25.60000000000000500, 0.0000000000000000000, 4.599999999999999600 ) ) ;
#295 = DIRECTION ( 'NONE',  ( 0.0000000000000000000, 0.0000000000000000000, 1.000000000000000000 ) ) ;
#296 = EDGE_CURVE ( 'NONE', #301, #93, #43, .T. ) ;
#297 = ORIENTED_EDGE ( 'NONE', *, *, #25, .F. ) ;
#298 = TOROIDAL_SURFACE ( 'NONE', #83, 4.599999999999999600, 0.3999999999999993000 ) ;
#299 = APPROVAL_PERSON_ORGANIZATION ( #3, #321, #284 ) ;
#300 = FACE_OUTER_BOUND ( 'NONE', #62, .T. ) ;
#301 = VERTEX_POINT ( 'NONE', #79 ) ;
#302 = DATE_TIME_ROLE ( 'creation_date' ) ;
#303 = DIRECTION ( 'NONE',  ( 1.000000000000000000, 6.123233995736766000E-017, -0.0000000000000000000 ) ) ;
#304 = PRODUCT_DEFINITION ( 'UNKNOWN', '', #28, #71 ) ;
#305 = ORIENTED_EDGE ( 'NONE', *, *, #273, .F. ) ;
#306 = MANIFOLD_SOLID_BREP ( 'È¸Àü3', #269 ) ;
#307 = CARTESIAN_POINT ( 'NONE',  ( -49.50000000000000000, 4.999999999999993800, 0.0000000000000000000 ) ) ;
#308 = DIRECTION ( 'NONE',  ( 1.000000000000000000, 6.123233995736766000E-017, -0.0000000000000000000 ) ) ;
#309 = ORIENTED_EDGE ( 'NONE', *, *, #127, .T. ) ;
#310 = CARTESIAN_POINT ( 'NONE',  ( 26.00000000000000400, 0.0000000000000000000, 0.0000000000000000000 ) ) ;
#311 = AXIS2_PLACEMENT_3D ( 'NONE', #361, #246, #281 ) ;
#312 = ORIENTED_EDGE ( 'NONE', *, *, #144, .T. ) ;
#313 = DIRECTION ( 'NONE',  ( 1.000000000000000000, 6.123233995736766000E-017, -0.0000000000000000000 ) ) ;
#314 = EDGE_CURVE ( 'NONE', #93, #31, #341, .T. ) ;
#315 = DIRECTION ( 'NONE',  ( -6.123233995736766000E-017, 1.000000000000000000, 0.0000000000000000000 ) ) ;
#316 = PERSON_AND_ORGANIZATION_ROLE ( 'design_supplier' ) ;
#317 = DIRECTION ( 'NONE',  ( 0.0000000000000000000, 0.0000000000000000000, 1.000000000000000000 ) ) ;
#318 = CIRCLE ( 'NONE', #170, 5.000000000000000000 ) ;
#319 = CALENDAR_DATE ( 2023, 31, 7 ) ;
#320 = ORIENTED_EDGE ( 'NONE', *, *, #106, .F. ) ;
#321 = APPROVAL ( #202, 'UNSPECIFIED' ) ;
#322 = ORIENTED_EDGE ( 'NONE', *, *, #6, .F. ) ;
#323 = DATE_AND_TIME ( #34, #112 ) ;
#324 = AXIS2_PLACEMENT_3D ( 'NONE', #310, #143, #165 ) ;
#325 = DIRECTION ( 'NONE',  ( -1.000000000000000000, -0.0000000000000000000, -0.0000000000000000000 ) ) ;
#326 = EDGE_LOOP ( 'NONE', ( #17, #348, #69, #26 ) ) ;
#327 = CARTESIAN_POINT ( 'NONE',  ( 0.0000000000000000000, 0.0000000000000000000, 0.0000000000000000000 ) ) ;
#328 = AXIS2_PLACEMENT_3D ( 'NONE', #15, #308, #359 ) ;
#329 = DIRECTION ( 'NONE',  ( -6.123233995736766000E-017, 1.000000000000000000, 0.0000000000000000000 ) ) ;
#330 = DIRECTION ( 'NONE',  ( 0.0000000000000000000, 1.000000000000000000, 0.0000000000000000000 ) ) ;
#331 = VECTOR ( 'NONE', #272, 1000.000000000000000 ) ;
#332 = CIRCLE ( 'NONE', #16, 0.3999999999999993000 ) ;
#333 = PERSON_AND_ORGANIZATION ( #13, #158 ) ;
#334 = CARTESIAN_POINT ( 'NONE',  ( 3.061616997868383100E-016, -5.000000000000000000, 6.123233995736766300E-016 ) ) ;
#335 = ORIENTED_EDGE ( 'NONE', *, *, #273, .T. ) ;
#336 = DIRECTION ( 'NONE',  ( -1.000000000000000000, -0.0000000000000000000, -0.0000000000000000000 ) ) ;
#337 = DIRECTION ( 'NONE',  ( 1.000000000000000000, 6.123233995736766000E-017, -0.0000000000000000000 ) ) ;
#338 = CC_DESIGN_APPROVAL ( #321, ( #304 ) ) ;
#339 = LINE ( 'NONE', #217, #133 ) ;
#340 = DIRECTION ( 'NONE',  ( 0.0000000000000000000, 0.0000000000000000000, 1.000000000000000000 ) ) ;
#341 = LINE ( 'NONE', #55, #244 ) ;
#342 = LOCAL_TIME ( 9, 19, 38.00000000000000000, #54 ) ;
#343 = APPROVAL_ROLE ( '' ) ;
#344 = ORIENTED_EDGE ( 'NONE', *, *, #236, .F. ) ;
#345 = AXIS2_PLACEMENT_3D ( 'NONE', #21, #24, #92 ) ;
#346 = DIRECTION ( 'NONE',  ( 1.000000000000000000, 6.123233995736766000E-017, -0.0000000000000000000 ) ) ;
#347 = ADVANCED_FACE ( 'NONE', ( #179 ), #166, .T. ) ;
#348 = ORIENTED_EDGE ( 'NONE', *, *, #215, .T. ) ;
#349 = VECTOR ( 'NONE', #337, 1000.000000000000000 ) ;
#350 = CALENDAR_DATE ( 2023, 31, 7 ) ;
#351 = FACE_OUTER_BOUND ( 'NONE', #126, .T. ) ;
#352 = ORIENTED_EDGE ( 'NONE', *, *, #127, .F. ) ;
#353 = EDGE_CURVE ( 'NONE', #171, #134, #318, .T. ) ;
#354 = DIRECTION ( 'NONE',  ( 0.0000000000000000000, 0.0000000000000000000, 1.000000000000000000 ) ) ;
#355 = CC_DESIGN_PERSON_AND_ORGANIZATION_ASSIGNMENT ( #213, #104, ( #304 ) ) ;
#356 = ORIENTED_EDGE ( 'NONE', *, *, #314, .F. ) ;
#357 = CARTESIAN_POINT ( 'NONE',  ( 26.00000000000000400, 0.0000000000000000000, 0.0000000000000000000 ) ) ;
#358 = FACE_OUTER_BOUND ( 'NONE', #326, .T. ) ;
#359 = DIRECTION ( 'NONE',  ( 0.0000000000000000000, 1.000000000000000000, 0.0000000000000000000 ) ) ;
#360 = DATE_AND_TIME ( #77, #150 ) ;
#361 = CARTESIAN_POINT ( 'NONE',  ( -49.50000000000000000, -3.031000827889699300E-015, 0.0000000000000000000 ) ) ;
#362 = CARTESIAN_POINT ( 'NONE',  ( 0.9999999999999991100, -5.000000000000000000, 6.123233995736766300E-016 ) ) ;
#363 = AXIS2_PLACEMENT_3D ( 'NONE', #294, #255, #64 ) ;
#364 = ORIENTED_EDGE ( 'NONE', *, *, #183, .F. ) ;
#365 = AXIS2_PLACEMENT_3D ( 'NONE', #50, #87, #277 ) ;
ENDSEC;
END-ISO-10303-21;
