ISO-10303-21;
HEADER;
FILE_DESCRIPTION (( 'STEP AP203' ),
    '1' );
FILE_NAME ('03-3197.STEP',
    '2023-07-31T00:20:02',
    ( 'USER' ),
    ( 'Hewlett-Packard Company' ),
    'SwSTEP 2.0',
    'SolidWorks 2014',
    '' );
FILE_SCHEMA (( 'CONFIG_CONTROL_DESIGN' ));
ENDSEC;

DATA;
#1 = DIRECTION ( 'NONE',  ( 0.0000000000000000000, 0.0000000000000000000, 1.000000000000000000 ) ) ;
#2 = CIRCLE ( 'NONE', #279, 5.000000000000000000 ) ;
#3 = DIRECTION ( 'NONE',  ( 0.0000000000000000000, 1.000000000000000000, 0.0000000000000000000 ) ) ;
#4 = CARTESIAN_POINT ( 'NONE',  ( 1.000000000000000400, 2.168404344971010800E-016, 0.0000000000000000000 ) ) ;
#5 = DIRECTION ( 'NONE',  ( 0.0000000000000000000, 0.0000000000000000000, 1.000000000000000000 ) ) ;
#6 = ADVANCED_FACE ( 'NONE', ( #329 ), #323, .T. ) ;
#7 = DIRECTION ( 'NONE',  ( 0.0000000000000000000, 0.0000000000000000000, 1.000000000000000000 ) ) ;
#8 = AXIS2_PLACEMENT_3D ( 'NONE', #171, #233, #70 ) ;
#9 = ORIENTED_EDGE ( 'NONE', *, *, #209, .T. ) ;
#10 =( LENGTH_UNIT ( ) NAMED_UNIT ( * ) SI_UNIT ( .MILLI., .METRE. ) );
#11 = DATE_AND_TIME ( #84, #153 ) ;
#12 = CARTESIAN_POINT ( 'NONE',  ( 0.0000000000000000000, 0.0000000000000000000, 0.0000000000000000000 ) ) ;
#13 = DIRECTION ( 'NONE',  ( 0.0000000000000000000, 0.0000000000000000000, 1.000000000000000000 ) ) ;
#14 = FACE_OUTER_BOUND ( 'NONE', #186, .T. ) ;
#15 = DIRECTION ( 'NONE',  ( 0.7071067811865531200, -0.7071067811865420200, 8.659560562354866300E-017 ) ) ;
#16 = EDGE_CURVE ( 'NONE', #277, #320, #30, .T. ) ;
#17 = EDGE_LOOP ( 'NONE', ( #325, #299, #337, #256 ) ) ;
#18 = APPROVAL_DATE_TIME ( #90, #328 ) ;
#19 =( NAMED_UNIT ( * ) SI_UNIT ( $, .STERADIAN. ) SOLID_ANGLE_UNIT ( ) );
#20 = CC_DESIGN_DATE_AND_TIME_ASSIGNMENT ( #11, #45, ( #312 ) ) ;
#21 = DIRECTION ( 'NONE',  ( 1.000000000000000000, 6.123233995736766000E-017, -0.0000000000000000000 ) ) ;
#22 = CARTESIAN_POINT ( 'NONE',  ( 0.0000000000000000000, 0.0000000000000000000, 5.000000000000000000 ) ) ;
#23 = LINE ( 'NONE', #200, #314 ) ;
#24 = ORIENTED_EDGE ( 'NONE', *, *, #105, .F. ) ;
#25 = DIRECTION ( 'NONE',  ( 0.7071067811865531200, 0.7071067811865420200, 0.0000000000000000000 ) ) ;
#26 = ORIENTED_EDGE ( 'NONE', *, *, #342, .T. ) ;
#27 = AXIS2_PLACEMENT_3D ( 'NONE', #262, #91, #115 ) ;
#28 = APPROVAL_PERSON_ORGANIZATION ( #96, #328, #99 ) ;
#29 = CARTESIAN_POINT ( 'NONE',  ( -50.00000000000000700, -3.061616997868383400E-015, 0.0000000000000000000 ) ) ;
#30 = CIRCLE ( 'NONE', #219, 4.999999999999996400 ) ;
#31 = CARTESIAN_POINT ( 'NONE',  ( 0.9999999999999991100, -5.000000000000000000, 6.123233995736766300E-016 ) ) ;
#32 = PLANE ( 'NONE',  #217 ) ;
#33 = DIRECTION ( 'NONE',  ( -0.0000000000000000000, 1.000000000000000000, 1.224646799147353200E-016 ) ) ;
#34 = ADVANCED_FACE ( 'NONE', ( #172 ), #93, .T. ) ;
#35 = CLOSED_SHELL ( 'NONE', ( #34, #164, #87, #6, #63, #229 ) ) ;
#36 = EDGE_CURVE ( 'NONE', #310, #189, #161, .T. ) ;
#37 = PLANE ( 'NONE',  #82 ) ;
#38 = DIRECTION ( 'NONE',  ( 1.000000000000000000, 6.123233995736766000E-017, -0.0000000000000000000 ) ) ;
#39 = PRODUCT_DEFINITION_FORMATION_WITH_SPECIFIED_SOURCE ( 'ANY', '', #365, .NOT_KNOWN. ) ;
#40 = ORIENTED_EDGE ( 'NONE', *, *, #141, .T. ) ;
#41 = DIRECTION ( 'NONE',  ( -1.000000000000000000, -0.0000000000000000000, -0.0000000000000000000 ) ) ;
#42 = DIRECTION ( 'NONE',  ( 0.0000000000000000000, 0.0000000000000000000, 1.000000000000000000 ) ) ;
#43 = CARTESIAN_POINT ( 'NONE',  ( -49.50000000000000000, -3.031000827889699300E-015, 0.0000000000000000000 ) ) ;
#44 = VERTEX_POINT ( 'NONE', #193 ) ;
#45 = DATE_TIME_ROLE ( 'creation_date' ) ;
#46 = MANIFOLD_SOLID_BREP ( 'È¸Àü4', #345 ) ;
#47 = CARTESIAN_POINT ( 'NONE',  ( -49.50000000000000000, -3.031000827889699300E-015, 0.0000000000000000000 ) ) ;
#48 = VERTEX_POINT ( 'NONE', #230 ) ;
#49 = CALENDAR_DATE ( 2023, 31, 7 ) ;
#50 = DIRECTION ( 'NONE',  ( -6.123233995736766000E-017, 1.000000000000000000, 0.0000000000000000000 ) ) ;
#51 = VECTOR ( 'NONE', #269, 1000.000000000000000 ) ;
#52 = ORIENTED_EDGE ( 'NONE', *, *, #159, .T. ) ;
#53 = EDGE_CURVE ( 'NONE', #317, #189, #23, .T. ) ;
#54 = ORIENTED_EDGE ( 'NONE', *, *, #326, .F. ) ;
#55 = APPROVAL ( #242, 'UNSPECIFIED' ) ;
#56 = DATE_AND_TIME ( #130, #203 ) ;
#57 = DIRECTION ( 'NONE',  ( 0.0000000000000000000, 0.0000000000000000000, 1.000000000000000000 ) ) ;
#58 = VECTOR ( 'NONE', #15, 999.9999999999998900 ) ;
#59 = CARTESIAN_POINT ( 'NONE',  ( 26.00000000000000700, 0.0000000000000000000, 0.0000000000000000000 ) ) ;
#60 = CIRCLE ( 'NONE', #352, 4.999999999999996400 ) ;
#61 = ORIENTED_EDGE ( 'NONE', *, *, #227, .T. ) ;
#62 = DIRECTION ( 'NONE',  ( -1.000000000000000000, -6.123233995736766000E-017, 0.0000000000000000000 ) ) ;
#63 = ADVANCED_FACE ( 'NONE', ( #234 ), #316, .F. ) ;
#64 = CARTESIAN_POINT ( 'NONE',  ( 0.9999999999999997800, 0.0000000000000000000, 0.0000000000000000000 ) ) ;
#65 = AXIS2_PLACEMENT_3D ( 'NONE', #295, #124, #102 ) ;
#66 = CARTESIAN_POINT ( 'NONE',  ( -49.50000000000000000, -3.031000827889699300E-015, 0.0000000000000000000 ) ) ;
#67 = EDGE_LOOP ( 'NONE', ( #24, #40, #111, #231 ) ) ;
#68 = PERSON_AND_ORGANIZATION ( #254, #250 ) ;
#69 = CARTESIAN_POINT ( 'NONE',  ( 26.00000000000000700, 5.633375276077825100E-016, -4.200000000000000200 ) ) ;
#70 = DIRECTION ( 'NONE',  ( -6.123233995736766000E-017, 1.000000000000000000, 0.0000000000000000000 ) ) ;
#71 = CARTESIAN_POINT ( 'NONE',  ( 26.00000000000000700, 0.0000000000000000000, 4.200000000000000200 ) ) ;
#72 = CONICAL_SURFACE ( 'NONE', #238, 4.999999999999996400, 0.7853981633974405100 ) ;
#73 = EDGE_CURVE ( 'NONE', #44, #317, #246, .T. ) ;
#74 = EDGE_LOOP ( 'NONE', ( #61, #26 ) ) ;
#75 = APPROVAL_ROLE ( '' ) ;
#76 = LOCAL_TIME ( 9, 20, 2.000000000000000000, #143 ) ;
#77 = CC_DESIGN_APPROVAL ( #55, ( #39 ) ) ;
#78 = PERSON_AND_ORGANIZATION_ROLE ( 'design_owner' ) ;
#79 = PERSON_AND_ORGANIZATION_ROLE ( 'design_supplier' ) ;
#80 = CIRCLE ( 'NONE', #198, 0.8000000000000012700 ) ;
#81 = ORIENTED_EDGE ( 'NONE', *, *, #360, .F. ) ;
#82 = AXIS2_PLACEMENT_3D ( 'NONE', #343, #322, #144 ) ;
#83 = ORIENTED_EDGE ( 'NONE', *, *, #187, .F. ) ;
#84 = CALENDAR_DATE ( 2023, 31, 7 ) ;
#85 = CIRCLE ( 'NONE', #123, 4.200000000000000200 ) ;
#86 = CARTESIAN_POINT ( 'NONE',  ( -49.50000000000000000, -3.031000827889699300E-015, 0.0000000000000000000 ) ) ;
#87 = ADVANCED_FACE ( 'NONE', ( #155 ), #101, .T. ) ;
#88 = ORIENTED_EDGE ( 'NONE', *, *, #342, .F. ) ;
#89 = EDGE_CURVE ( 'NONE', #218, #236, #85, .T. ) ;
#90 = DATE_AND_TIME ( #158, #240 ) ;
#91 = DIRECTION ( 'NONE',  ( 1.000000000000000000, 6.123233995736766000E-017, -0.0000000000000000000 ) ) ;
#92 = CC_DESIGN_PERSON_AND_ORGANIZATION_ASSIGNMENT ( #136, #245, ( #39 ) ) ;
#93 = CYLINDRICAL_SURFACE ( 'NONE', #280, 5.000000000000000000 ) ;
#94 = DIRECTION ( 'NONE',  ( -1.000000000000000000, -0.0000000000000000000, -0.0000000000000000000 ) ) ;
#95 = ORIENTED_EDGE ( 'NONE', *, *, #177, .T. ) ;
#96 = PERSON_AND_ORGANIZATION ( #254, #250 ) ;
#97 = AXIS2_PLACEMENT_3D ( 'NONE', #47, #21, #179 ) ;
#98 = DIRECTION ( 'NONE',  ( 0.0000000000000000000, 0.0000000000000000000, 1.000000000000000000 ) ) ;
#99 = APPROVAL_ROLE ( '' ) ;
#100 = APPLICATION_PROTOCOL_DEFINITION ( 'international standard', 'config_control_design', 1994, #273 ) ;
#101 = TOROIDAL_SURFACE ( 'NONE', #139, 4.200000000000000200, 0.8000000000000012700 ) ;
#102 = DIRECTION ( 'NONE',  ( 0.0000000000000000000, 1.000000000000000000, 0.0000000000000000000 ) ) ;
#103 = AXIS2_PLACEMENT_3D ( 'NONE', #4, #340, #165 ) ;
#104 = ORIENTED_EDGE ( 'NONE', *, *, #127, .F. ) ;
#105 = EDGE_CURVE ( 'NONE', #236, #317, #251, .T. ) ;
#106 = CC_DESIGN_PERSON_AND_ORGANIZATION_ASSIGNMENT ( #68, #79, ( #39 ) ) ;
#107 = EDGE_LOOP ( 'NONE', ( #9, #185, #331, #151 ) ) ;
#108 = CARTESIAN_POINT ( 'NONE',  ( 25.20000000000000300, 0.0000000000000000000, 0.0000000000000000000 ) ) ;
#109 = CONICAL_SURFACE ( 'NONE', #97, 4.999999999999996400, 0.7853981633974405100 ) ;
#110 = DIRECTION ( 'NONE',  ( -1.000000000000000000, -0.0000000000000000000, -0.0000000000000000000 ) ) ;
#111 = ORIENTED_EDGE ( 'NONE', *, *, #127, .T. ) ;
#112 = ADVANCED_FACE ( 'NONE', ( #306 ), #32, .T. ) ;
#113 = CARTESIAN_POINT ( 'NONE',  ( 0.0000000000000000000, 0.0000000000000000000, 0.0000000000000000000 ) ) ;
#114 = AXIS2_PLACEMENT_3D ( 'NONE', #12, #38, #243 ) ;
#115 = DIRECTION ( 'NONE',  ( -4.336808689942017700E-017, 1.000000000000000000, 0.0000000000000000000 ) ) ;
#116 = VERTEX_POINT ( 'NONE', #31 ) ;
#117 = DIRECTION ( 'NONE',  ( 0.0000000000000000000, 0.0000000000000000000, 1.000000000000000000 ) ) ;
#118 = LOCAL_TIME ( 9, 20, 2.000000000000000000, #191 ) ;
#119 = CARTESIAN_POINT ( 'NONE',  ( 3.061616997868383100E-016, -5.000000000000000000, 6.123233995736766300E-016 ) ) ;
#120 = CYLINDRICAL_SURFACE ( 'NONE', #114, 5.000000000000000000 ) ;
#121 = FACE_OUTER_BOUND ( 'NONE', #107, .T. ) ;
#122 = ORIENTED_EDGE ( 'NONE', *, *, #53, .T. ) ;
#123 = AXIS2_PLACEMENT_3D ( 'NONE', #59, #286, #1 ) ;
#124 = DIRECTION ( 'NONE',  ( 1.000000000000000000, 6.123233995736766000E-017, -0.0000000000000000000 ) ) ;
#125 = CIRCLE ( 'NONE', #134, 4.499999999999997300 ) ;
#126 = DIRECTION ( 'NONE',  ( -4.336808689942017700E-017, 1.000000000000000000, 0.0000000000000000000 ) ) ;
#127 = EDGE_CURVE ( 'NONE', #218, #44, #80, .T. ) ;
#128 = MECHANICAL_CONTEXT ( 'NONE', #353, 'mechanical' ) ;
#129 = ORIENTED_EDGE ( 'NONE', *, *, #177, .F. ) ;
#130 = CALENDAR_DATE ( 2023, 31, 7 ) ;
#131 = SECURITY_CLASSIFICATION ( '', '', #275 ) ;
#132 = FACE_OUTER_BOUND ( 'NONE', #272, .T. ) ;
#133 = ORIENTED_EDGE ( 'NONE', *, *, #36, .T. ) ;
#134 = AXIS2_PLACEMENT_3D ( 'NONE', #29, #190, #364 ) ;
#135 = EDGE_LOOP ( 'NONE', ( #166, #142, #307, #104 ) ) ;
#136 = PERSON_AND_ORGANIZATION ( #254, #250 ) ;
#137 = CIRCLE ( 'NONE', #259, 4.200000000000000200 ) ;
#138 = PRODUCT_DEFINITION_SHAPE ( 'NONE', 'NONE',  #312 ) ;
#139 = AXIS2_PLACEMENT_3D ( 'NONE', #237, #284, #253 ) ;
#140 = ADVANCED_FACE ( 'NONE', ( #14 ), #72, .T. ) ;
#141 = EDGE_CURVE ( 'NONE', #236, #218, #137, .T. ) ;
#142 = ORIENTED_EDGE ( 'NONE', *, *, #105, .T. ) ;
#143 = COORDINATED_UNIVERSAL_TIME_OFFSET ( 9, 0, .AHEAD. ) ;
#144 = DIRECTION ( 'NONE',  ( -0.0000000000000000000, 0.0000000000000000000, 1.000000000000000000 ) ) ;
#145 = CARTESIAN_POINT ( 'NONE',  ( -50.00000000000000700, -4.500000000000000900, 5.817072295949924500E-016 ) ) ;
#146 = CC_DESIGN_PERSON_AND_ORGANIZATION_ASSIGNMENT ( #355, #154, ( #131 ) ) ;
#147 = CARTESIAN_POINT ( 'NONE',  ( 0.9999999999999997800, 0.0000000000000000000, 0.0000000000000000000 ) ) ;
#148 = CIRCLE ( 'NONE', #296, 5.000000000000000000 ) ;
#149 = ORIENTED_EDGE ( 'NONE', *, *, #141, .F. ) ;
#150 = CARTESIAN_POINT ( 'NONE',  ( 0.9999999999999997800, 0.0000000000000000000, 5.000000000000000000 ) ) ;
#151 = ORIENTED_EDGE ( 'NONE', *, *, #248, .F. ) ;
#152 = AXIS2_PLACEMENT_3D ( 'NONE', #176, #297, #126 ) ;
#153 = LOCAL_TIME ( 9, 20, 2.000000000000000000, #232 ) ;
#154 = PERSON_AND_ORGANIZATION_ROLE ( 'classification_officer' ) ;
#155 = FACE_OUTER_BOUND ( 'NONE', #67, .T. ) ;
#156 = AXIS2_PLACEMENT_3D ( 'NONE', #195, #33, #226 ) ;
#157 = ORIENTED_EDGE ( 'NONE', *, *, #209, .F. ) ;
#158 = CALENDAR_DATE ( 2023, 31, 7 ) ;
#159 = EDGE_CURVE ( 'NONE', #317, #44, #2, .T. ) ;
#160 = CC_DESIGN_DATE_AND_TIME_ASSIGNMENT ( #56, #356, ( #131 ) ) ;
#161 = CIRCLE ( 'NONE', #260, 5.000000000000000000 ) ;
#162 = DIRECTION ( 'NONE',  ( 1.000000000000000000, 6.123233995736766000E-017, -0.0000000000000000000 ) ) ;
#163 = ADVANCED_BREP_SHAPE_REPRESENTATION ( '03-3197', ( #305, #46, #270 ), #188 ) ;
#164 = ADVANCED_FACE ( 'NONE', ( #216 ), #294, .T. ) ;
#165 = DIRECTION ( 'NONE',  ( 0.0000000000000000000, 0.0000000000000000000, -1.000000000000000000 ) ) ;
#166 = ORIENTED_EDGE ( 'NONE', *, *, #89, .T. ) ;
#167 = DIRECTION ( 'NONE',  ( -1.000000000000000000, -0.0000000000000000000, -0.0000000000000000000 ) ) ;
#168 = PERSON_AND_ORGANIZATION ( #254, #250 ) ;
#169 = AXIS2_PLACEMENT_3D ( 'NONE', #215, #358, #50 ) ;
#170 = CARTESIAN_POINT ( 'NONE',  ( -3.061616997868383100E-016, 5.000000000000000000, 0.0000000000000000000 ) ) ;
#171 = CARTESIAN_POINT ( 'NONE',  ( 0.9999999999999991100, 5.000000000000000000, 0.0000000000000000000 ) ) ;
#172 = FACE_OUTER_BOUND ( 'NONE', #354, .T. ) ;
#173 = DIRECTION ( 'NONE',  ( -1.000000000000000000, -0.0000000000000000000, -0.0000000000000000000 ) ) ;
#174 = DIRECTION ( 'NONE',  ( 0.0000000000000000000, 0.0000000000000000000, -1.000000000000000000 ) ) ;
#175 = EDGE_LOOP ( 'NONE', ( #332, #52, #239, #129 ) ) ;
#176 = CARTESIAN_POINT ( 'NONE',  ( 0.9999999999999988900, 6.123233995736759900E-017, 0.0000000000000000000 ) ) ;
#177 = EDGE_CURVE ( 'NONE', #189, #310, #148, .T. ) ;
#178 =( NAMED_UNIT ( * ) PLANE_ANGLE_UNIT ( ) SI_UNIT ( $, .RADIAN. ) );
#179 = DIRECTION ( 'NONE',  ( 0.0000000000000000000, 1.000000000000000000, 0.0000000000000000000 ) ) ;
#180 = ORIENTED_EDGE ( 'NONE', *, *, #16, .T. ) ;
#181 = APPROVAL ( #182, 'UNSPECIFIED' ) ;
#182 = APPROVAL_STATUS ( 'not_yet_approved' ) ;
#183 = CARTESIAN_POINT ( 'NONE',  ( -49.50000000000000000, 4.999999999999993800, 0.0000000000000000000 ) ) ;
#184 = UNCERTAINTY_MEASURE_WITH_UNIT (LENGTH_MEASURE( 1.000000000000000100E-005 ), #10, 'distance_accuracy_value', 'NONE');
#185 = ORIENTED_EDGE ( 'NONE', *, *, #187, .T. ) ;
#186 = EDGE_LOOP ( 'NONE', ( #263, #339, #157, #54 ) ) ;
#187 = EDGE_CURVE ( 'NONE', #277, #116, #224, .T. ) ;
#188 =( GEOMETRIC_REPRESENTATION_CONTEXT ( 3 ) GLOBAL_UNCERTAINTY_ASSIGNED_CONTEXT ( ( #184 ) ) GLOBAL_UNIT_ASSIGNED_CONTEXT ( ( #10, #178, #19 ) ) REPRESENTATION_CONTEXT ( 'NONE', 'WORKASPACE' ) );
#189 = VERTEX_POINT ( 'NONE', #235 ) ;
#190 = DIRECTION ( 'NONE',  ( 1.000000000000000000, 6.123233995736766000E-017, -0.0000000000000000000 ) ) ;
#191 = COORDINATED_UNIVERSAL_TIME_OFFSET ( 9, 0, .AHEAD. ) ;
#192 = CIRCLE ( 'NONE', #65, 4.499999999999997300 ) ;
#193 = CARTESIAN_POINT ( 'NONE',  ( 25.20000000000000300, 0.0000000000000000000, 5.000000000000000900 ) ) ;
#194 = VECTOR ( 'NONE', #214, 1000.000000000000000 ) ;
#195 = CARTESIAN_POINT ( 'NONE',  ( 25.20000000000000300, 5.143516556418882900E-016, -4.200000000000000200 ) ) ;
#196 = VERTEX_POINT ( 'NONE', #145 ) ;
#197 = CYLINDRICAL_SURFACE ( 'NONE', #169, 5.000000000000000000 ) ;
#198 = AXIS2_PLACEMENT_3D ( 'NONE', #313, #349, #174 ) ;
#199 = ADVANCED_FACE ( 'NONE', ( #359 ), #347, .T. ) ;
#200 = CARTESIAN_POINT ( 'NONE',  ( 0.0000000000000000000, 6.123233995736766300E-016, -5.000000000000000000 ) ) ;
#201 = EDGE_LOOP ( 'NONE', ( #133, #95 ) ) ;
#202 = DIRECTION ( 'NONE',  ( 0.0000000000000000000, 1.000000000000000000, 0.0000000000000000000 ) ) ;
#203 = LOCAL_TIME ( 9, 20, 2.000000000000000000, #282 ) ;
#204 = CARTESIAN_POINT ( 'NONE',  ( 25.20000000000000300, 0.0000000000000000000, 0.0000000000000000000 ) ) ;
#205 = CC_DESIGN_APPROVAL ( #181, ( #131 ) ) ;
#206 = LINE ( 'NONE', #183, #357 ) ;
#207 = VECTOR ( 'NONE', #324, 1000.000000000000000 ) ;
#208 = ORIENTED_EDGE ( 'NONE', *, *, #268, .F. ) ;
#209 = EDGE_CURVE ( 'NONE', #320, #277, #60, .T. ) ;
#210 = CARTESIAN_POINT ( 'NONE',  ( -49.50000000000000000, -4.999999999999999100, 6.123233995736762300E-016 ) ) ;
#211 = ORIENTED_EDGE ( 'NONE', *, *, #288, .F. ) ;
#212 = APPROVAL_DATE_TIME ( #291, #55 ) ;
#213 = CARTESIAN_POINT ( 'NONE',  ( -49.50000000000000000, -4.999999999999999100, 6.123233995736762300E-016 ) ) ;
#214 = DIRECTION ( 'NONE',  ( -1.000000000000000000, -0.0000000000000000000, -0.0000000000000000000 ) ) ;
#215 = CARTESIAN_POINT ( 'NONE',  ( 0.0000000000000000000, 0.0000000000000000000, 0.0000000000000000000 ) ) ;
#216 = FACE_OUTER_BOUND ( 'NONE', #135, .T. ) ;
#217 = AXIS2_PLACEMENT_3D ( 'NONE', #335, #62, #255 ) ;
#218 = VERTEX_POINT ( 'NONE', #71 ) ;
#219 = AXIS2_PLACEMENT_3D ( 'NONE', #43, #162, #3 ) ;
#220 = APPROVAL_PERSON_ORGANIZATION ( #300, #55, #75 ) ;
#221 = CARTESIAN_POINT ( 'NONE',  ( 0.0000000000000000000, 0.0000000000000000000, 0.0000000000000000000 ) ) ;
#222 = CC_DESIGN_SECURITY_CLASSIFICATION ( #131, ( #39 ) ) ;
#223 = DIRECTION ( 'NONE',  ( -1.000000000000000000, -0.0000000000000000000, -0.0000000000000000000 ) ) ;
#224 = LINE ( 'NONE', #119, #207 ) ;
#225 = ORIENTED_EDGE ( 'NONE', *, *, #73, .T. ) ;
#226 = DIRECTION ( 'NONE',  ( 0.0000000000000000000, -1.224646799147353200E-016, 1.000000000000000000 ) ) ;
#227 = EDGE_CURVE ( 'NONE', #48, #116, #350, .T. ) ;
#228 = DIRECTION ( 'NONE',  ( -1.000000000000000000, -0.0000000000000000000, -0.0000000000000000000 ) ) ;
#229 = ADVANCED_FACE ( 'NONE', ( #132 ), #37, .F. ) ;
#230 = CARTESIAN_POINT ( 'NONE',  ( 0.9999999999999986700, 5.000000000000000000, 0.0000000000000000000 ) ) ;
#231 = ORIENTED_EDGE ( 'NONE', *, *, #159, .F. ) ;
#232 = COORDINATED_UNIVERSAL_TIME_OFFSET ( 9, 0, .AHEAD. ) ;
#233 = DIRECTION ( 'NONE',  ( 1.000000000000000000, 6.123233995736766000E-017, -0.0000000000000000000 ) ) ;
#234 = FACE_OUTER_BOUND ( 'NONE', #201, .T. ) ;
#235 = CARTESIAN_POINT ( 'NONE',  ( 0.9999999999999997800, 6.123233995736766300E-016, -5.000000000000000000 ) ) ;
#236 = VERTEX_POINT ( 'NONE', #69 ) ;
#237 = CARTESIAN_POINT ( 'NONE',  ( 25.20000000000000300, 0.0000000000000000000, 0.0000000000000000000 ) ) ;
#238 = AXIS2_PLACEMENT_3D ( 'NONE', #86, #252, #283 ) ;
#239 = ORIENTED_EDGE ( 'NONE', *, *, #268, .T. ) ;
#240 = LOCAL_TIME ( 9, 20, 2.000000000000000000, #321 ) ;
#241 = AXIS2_PLACEMENT_3D ( 'NONE', #333, #228, #5 ) ;
#242 = APPROVAL_STATUS ( 'not_yet_approved' ) ;
#243 = DIRECTION ( 'NONE',  ( -6.123233995736766000E-017, 1.000000000000000000, 0.0000000000000000000 ) ) ;
#244 = PRODUCT_RELATED_PRODUCT_CATEGORY ( 'detail', '', ( #365 ) ) ;
#245 = PERSON_AND_ORGANIZATION_ROLE ( 'creator' ) ;
#246 = CIRCLE ( 'NONE', #301, 5.000000000000000000 ) ;
#247 = CARTESIAN_POINT ( 'NONE',  ( -50.00000000000000700, 4.499999999999993800, 0.0000000000000000000 ) ) ;
#248 = EDGE_CURVE ( 'NONE', #320, #48, #285, .T. ) ;
#249 = EDGE_LOOP ( 'NONE', ( #211, #81 ) ) ;
#250 = ORGANIZATION ( 'UNSPECIFIED', 'UNSPECIFIED', '' ) ;
#251 = CIRCLE ( 'NONE', #156, 0.8000000000000012700 ) ;
#252 = DIRECTION ( 'NONE',  ( 1.000000000000000000, 6.123233995736766000E-017, -0.0000000000000000000 ) ) ;
#253 = DIRECTION ( 'NONE',  ( 0.0000000000000000000, 0.0000000000000000000, 1.000000000000000000 ) ) ;
#254 = PERSON ( 'UNSPECIFIED', 'UNSPECIFIED', 'UNSPECIFIED', ('UNSPECIFIED'), ('UNSPECIFIED'), ('UNSPECIFIED') ) ;
#255 = DIRECTION ( 'NONE',  ( 6.123233995736766000E-017, -1.000000000000000000, 0.0000000000000000000 ) ) ;
#256 = ORIENTED_EDGE ( 'NONE', *, *, #16, .F. ) ;
#257 = ADVANCED_FACE ( 'NONE', ( #121 ), #120, .T. ) ;
#258 = DIRECTION ( 'NONE',  ( -1.000000000000000000, -0.0000000000000000000, -0.0000000000000000000 ) ) ;
#259 = AXIS2_PLACEMENT_3D ( 'NONE', #293, #173, #13 ) ;
#260 = AXIS2_PLACEMENT_3D ( 'NONE', #64, #167, #7 ) ;
#261 = DIRECTION ( 'NONE',  ( 1.000000000000000000, 6.123233995736766000E-017, -0.0000000000000000000 ) ) ;
#262 = CARTESIAN_POINT ( 'NONE',  ( 0.9999999999999988900, 6.123233995736759900E-017, 0.0000000000000000000 ) ) ;
#263 = ORIENTED_EDGE ( 'NONE', *, *, #288, .T. ) ;
#264 = APPROVAL_DATE_TIME ( #334, #181 ) ;
#265 = CARTESIAN_POINT ( 'NONE',  ( 25.20000000000000300, 0.0000000000000000000, 0.0000000000000000000 ) ) ;
#266 = SHAPE_DEFINITION_REPRESENTATION ( #138, #163 ) ;
#267 = ORIENTED_EDGE ( 'NONE', *, *, #248, .T. ) ;
#268 = EDGE_CURVE ( 'NONE', #44, #310, #276, .T. ) ;
#269 = DIRECTION ( 'NONE',  ( 1.000000000000000000, 6.123233995736766000E-017, -0.0000000000000000000 ) ) ;
#270 = AXIS2_PLACEMENT_3D ( 'NONE', #221, #98, #298 ) ;
#271 = APPROVAL_STATUS ( 'not_yet_approved' ) ;
#272 = EDGE_LOOP ( 'NONE', ( #289, #149 ) ) ;
#273 = APPLICATION_CONTEXT ( 'configuration controlled 3d designs of mechanical parts and assemblies' ) ;
#274 = APPROVAL_PERSON_ORGANIZATION ( #346, #181, #303 ) ;
#275 = SECURITY_CLASSIFICATION_LEVEL ( 'unclassified' ) ;
#276 = LINE ( 'NONE', #22, #194 ) ;
#277 = VERTEX_POINT ( 'NONE', #213 ) ;
#278 = CIRCLE ( 'NONE', #152, 5.000000000000000000 ) ;
#279 = AXIS2_PLACEMENT_3D ( 'NONE', #204, #41, #292 ) ;
#280 = AXIS2_PLACEMENT_3D ( 'NONE', #113, #258, #318 ) ;
#281 = ORIENTED_EDGE ( 'NONE', *, *, #36, .F. ) ;
#282 = COORDINATED_UNIVERSAL_TIME_OFFSET ( 9, 0, .AHEAD. ) ;
#283 = DIRECTION ( 'NONE',  ( 0.0000000000000000000, 1.000000000000000000, 0.0000000000000000000 ) ) ;
#284 = DIRECTION ( 'NONE',  ( -1.000000000000000000, -0.0000000000000000000, -0.0000000000000000000 ) ) ;
#285 = LINE ( 'NONE', #170, #51 ) ;
#286 = DIRECTION ( 'NONE',  ( -1.000000000000000000, -0.0000000000000000000, -0.0000000000000000000 ) ) ;
#287 = ADVANCED_FACE ( 'NONE', ( #338 ), #109, .T. ) ;
#288 = EDGE_CURVE ( 'NONE', #361, #196, #192, .T. ) ;
#289 = ORIENTED_EDGE ( 'NONE', *, *, #89, .F. ) ;
#290 = CC_DESIGN_PERSON_AND_ORGANIZATION_ASSIGNMENT ( #168, #78, ( #365 ) ) ;
#291 = DATE_AND_TIME ( #362, #76 ) ;
#292 = DIRECTION ( 'NONE',  ( 0.0000000000000000000, 0.0000000000000000000, 1.000000000000000000 ) ) ;
#293 = CARTESIAN_POINT ( 'NONE',  ( 26.00000000000000700, 0.0000000000000000000, 0.0000000000000000000 ) ) ;
#294 = TOROIDAL_SURFACE ( 'NONE', #319, 4.200000000000000200, 0.8000000000000012700 ) ;
#295 = CARTESIAN_POINT ( 'NONE',  ( -50.00000000000000700, -3.061616997868383400E-015, 0.0000000000000000000 ) ) ;
#296 = AXIS2_PLACEMENT_3D ( 'NONE', #147, #348, #42 ) ;
#297 = DIRECTION ( 'NONE',  ( 1.000000000000000000, 6.123233995736766000E-017, -0.0000000000000000000 ) ) ;
#298 = DIRECTION ( 'NONE',  ( 1.000000000000000000, 0.0000000000000000000, 0.0000000000000000000 ) ) ;
#299 = ORIENTED_EDGE ( 'NONE', *, *, #360, .T. ) ;
#300 = PERSON_AND_ORGANIZATION ( #254, #250 ) ;
#301 = AXIS2_PLACEMENT_3D ( 'NONE', #108, #223, #57 ) ;
#302 = PERSON_AND_ORGANIZATION_ROLE ( 'creator' ) ;
#303 = APPROVAL_ROLE ( '' ) ;
#304 = CARTESIAN_POINT ( 'NONE',  ( 25.20000000000000300, 6.123233995736766300E-016, -5.000000000000000900 ) ) ;
#305 = MANIFOLD_SOLID_BREP ( 'È¸Àü3', #35 ) ;
#306 = FACE_OUTER_BOUND ( 'NONE', #249, .T. ) ;
#307 = ORIENTED_EDGE ( 'NONE', *, *, #73, .F. ) ;
#308 = DESIGN_CONTEXT ( 'detailed design', #273, 'design' ) ;
#309 = EDGE_CURVE ( 'NONE', #196, #277, #336, .T. ) ;
#310 = VERTEX_POINT ( 'NONE', #150 ) ;
#311 = PERSON_AND_ORGANIZATION ( #254, #250 ) ;
#312 = PRODUCT_DEFINITION ( 'UNKNOWN', '', #39, #308 ) ;
#313 = CARTESIAN_POINT ( 'NONE',  ( 25.20000000000000300, 0.0000000000000000000, 4.200000000000000200 ) ) ;
#314 = VECTOR ( 'NONE', #110, 1000.000000000000000 ) ;
#315 = FACE_OUTER_BOUND ( 'NONE', #351, .T. ) ;
#316 = PLANE ( 'NONE',  #103 ) ;
#317 = VERTEX_POINT ( 'NONE', #304 ) ;
#318 = DIRECTION ( 'NONE',  ( 0.0000000000000000000, 0.0000000000000000000, 1.000000000000000000 ) ) ;
#319 = AXIS2_PLACEMENT_3D ( 'NONE', #265, #94, #117 ) ;
#320 = VERTEX_POINT ( 'NONE', #330 ) ;
#321 = COORDINATED_UNIVERSAL_TIME_OFFSET ( 9, 0, .AHEAD. ) ;
#322 = DIRECTION ( 'NONE',  ( -1.000000000000000000, 0.0000000000000000000, -0.0000000000000000000 ) ) ;
#323 = CYLINDRICAL_SURFACE ( 'NONE', #241, 5.000000000000000000 ) ;
#324 = DIRECTION ( 'NONE',  ( 1.000000000000000000, 6.123233995736766000E-017, -0.0000000000000000000 ) ) ;
#325 = ORIENTED_EDGE ( 'NONE', *, *, #309, .F. ) ;
#326 = EDGE_CURVE ( 'NONE', #361, #320, #206, .T. ) ;
#327 = APPLICATION_PROTOCOL_DEFINITION ( 'international standard', 'config_control_design', 1994, #353 ) ;
#328 = APPROVAL ( #271, 'UNSPECIFIED' ) ;
#329 = FACE_OUTER_BOUND ( 'NONE', #175, .T. ) ;
#330 = CARTESIAN_POINT ( 'NONE',  ( -49.50000000000000000, 4.999999999999993800, 0.0000000000000000000 ) ) ;
#331 = ORIENTED_EDGE ( 'NONE', *, *, #227, .F. ) ;
#332 = ORIENTED_EDGE ( 'NONE', *, *, #53, .F. ) ;
#333 = CARTESIAN_POINT ( 'NONE',  ( 0.0000000000000000000, 0.0000000000000000000, 0.0000000000000000000 ) ) ;
#334 = DATE_AND_TIME ( #49, #118 ) ;
#335 = CARTESIAN_POINT ( 'NONE',  ( -50.00000000000000000, -3.061616997868383000E-015, 0.0000000000000000000 ) ) ;
#336 = LINE ( 'NONE', #210, #58 ) ;
#337 = ORIENTED_EDGE ( 'NONE', *, *, #326, .T. ) ;
#338 = FACE_OUTER_BOUND ( 'NONE', #17, .T. ) ;
#339 = ORIENTED_EDGE ( 'NONE', *, *, #309, .T. ) ;
#340 = DIRECTION ( 'NONE',  ( 1.000000000000000000, 0.0000000000000000000, 0.0000000000000000000 ) ) ;
#341 = ADVANCED_FACE ( 'NONE', ( #315 ), #197, .T. ) ;
#342 = EDGE_CURVE ( 'NONE', #116, #48, #278, .T. ) ;
#343 = CARTESIAN_POINT ( 'NONE',  ( 26.00000000000000400, -2.147752875018906700E-014, 0.0000000000000000000 ) ) ;
#344 = CC_DESIGN_APPROVAL ( #328, ( #312 ) ) ;
#345 = CLOSED_SHELL ( 'NONE', ( #257, #140, #199, #112, #287, #341 ) ) ;
#346 = PERSON_AND_ORGANIZATION ( #254, #250 ) ;
#347 = PLANE ( 'NONE',  #8 ) ;
#348 = DIRECTION ( 'NONE',  ( -1.000000000000000000, -0.0000000000000000000, -0.0000000000000000000 ) ) ;
#349 = DIRECTION ( 'NONE',  ( 0.0000000000000000000, -1.000000000000000000, 0.0000000000000000000 ) ) ;
#350 = CIRCLE ( 'NONE', #27, 5.000000000000000000 ) ;
#351 = EDGE_LOOP ( 'NONE', ( #83, #180, #267, #88 ) ) ;
#352 = AXIS2_PLACEMENT_3D ( 'NONE', #66, #261, #202 ) ;
#353 = APPLICATION_CONTEXT ( 'configuration controlled 3d designs of mechanical parts and assemblies' ) ;
#354 = EDGE_LOOP ( 'NONE', ( #225, #122, #281, #208 ) ) ;
#355 = PERSON_AND_ORGANIZATION ( #254, #250 ) ;
#356 = DATE_TIME_ROLE ( 'classification_date' ) ;
#357 = VECTOR ( 'NONE', #25, 999.9999999999998900 ) ;
#358 = DIRECTION ( 'NONE',  ( 1.000000000000000000, 6.123233995736766000E-017, -0.0000000000000000000 ) ) ;
#359 = FACE_OUTER_BOUND ( 'NONE', #74, .T. ) ;
#360 = EDGE_CURVE ( 'NONE', #196, #361, #125, .T. ) ;
#361 = VERTEX_POINT ( 'NONE', #247 ) ;
#362 = CALENDAR_DATE ( 2023, 31, 7 ) ;
#363 = CC_DESIGN_PERSON_AND_ORGANIZATION_ASSIGNMENT ( #311, #302, ( #312 ) ) ;
#364 = DIRECTION ( 'NONE',  ( 0.0000000000000000000, 1.000000000000000000, 0.0000000000000000000 ) ) ;
#365 = PRODUCT ( '03-3197', '03-3197', '', ( #128 ) ) ;
ENDSEC;
END-ISO-10303-21;
