ISO-10303-21;
HEADER;
FILE_DESCRIPTION (( 'STEP AP203' ),
    '1' );
FILE_NAME ('03-3198.STEP',
    '2023-07-31T00:20:28',
    ( 'USER' ),
    ( 'Hewlett-Packard Company' ),
    'SwSTEP 2.0',
    'SolidWorks 2014',
    '' );
FILE_SCHEMA (( 'CONFIG_CONTROL_DESIGN' ));
ENDSEC;

DATA;
#1 = ORIENTED_EDGE ( 'NONE', *, *, #258, .T. ) ;
#2 = CARTESIAN_POINT ( 'NONE',  ( -49.50000000000000000, -5.999999999999998200, 7.347880794884114800E-016 ) ) ;
#3 = COORDINATED_UNIVERSAL_TIME_OFFSET ( 9, 0, .AHEAD. ) ;
#4 = PERSON_AND_ORGANIZATION ( #120, #46 ) ;
#5 = CYLINDRICAL_SURFACE ( 'NONE', #323, 6.000000000000000000 ) ;
#6 = EDGE_CURVE ( 'NONE', #202, #42, #328, .T. ) ;
#7 = ORIENTED_EDGE ( 'NONE', *, *, #184, .T. ) ;
#8 = ADVANCED_FACE ( 'NONE', ( #41 ), #292, .T. ) ;
#9 = CALENDAR_DATE ( 2023, 31, 7 ) ;
#10 = DIRECTION ( 'NONE',  ( -7.228014483236695800E-017, 1.000000000000000000, 0.0000000000000000000 ) ) ;
#11 = DIRECTION ( 'NONE',  ( 0.0000000000000000000, 0.0000000000000000000, 1.000000000000000000 ) ) ;
#12 = PRODUCT_DEFINITION_SHAPE ( 'NONE', 'NONE',  #319 ) ;
#13 = CC_DESIGN_PERSON_AND_ORGANIZATION_ASSIGNMENT ( #325, #87, ( #319 ) ) ;
#14 = LINE ( 'NONE', #98, #239 ) ;
#15 = CARTESIAN_POINT ( 'NONE',  ( 0.0000000000000000000, 7.347880794884119700E-016, -6.000000000000000000 ) ) ;
#16 = DIRECTION ( 'NONE',  ( 1.000000000000000000, 6.123233995736766000E-017, -0.0000000000000000000 ) ) ;
#17 = DIRECTION ( 'NONE',  ( 0.0000000000000000000, 0.0000000000000000000, 1.000000000000000000 ) ) ;
#18 = VERTEX_POINT ( 'NONE', #28 ) ;
#19 = CARTESIAN_POINT ( 'NONE',  ( 3.673940397442059900E-016, -6.000000000000000000, 7.347880794884119700E-016 ) ) ;
#20 = DIRECTION ( 'NONE',  ( 0.0000000000000000000, 0.0000000000000000000, 1.000000000000000000 ) ) ;
#21 = LINE ( 'NONE', #2, #104 ) ;
#22 = ORIENTED_EDGE ( 'NONE', *, *, #112, .T. ) ;
#23 = EDGE_CURVE ( 'NONE', #270, #173, #110, .T. ) ;
#24 = MANIFOLD_SOLID_BREP ( 'È¸Àü3', #154 ) ;
#25 = DIRECTION ( 'NONE',  ( 0.0000000000000000000, 0.0000000000000000000, 1.000000000000000000 ) ) ;
#26 = DIRECTION ( 'NONE',  ( -1.000000000000000000, -0.0000000000000000000, -0.0000000000000000000 ) ) ;
#27 = VERTEX_POINT ( 'NONE', #61 ) ;
#28 = CARTESIAN_POINT ( 'NONE',  ( 32.60000000000000100, 0.0000000000000000000, 6.000000000000000000 ) ) ;
#29 = CARTESIAN_POINT ( 'NONE',  ( 33.00000000000000000, 0.0000000000000000000, 5.600000000000000500 ) ) ;
#30 = DIRECTION ( 'NONE',  ( 6.123233995736766000E-017, -1.000000000000000000, 0.0000000000000000000 ) ) ;
#31 = CIRCLE ( 'NONE', #251, 0.3999999999999984700 ) ;
#32 = APPROVAL_PERSON_ORGANIZATION ( #90, #338, #253 ) ;
#33 = CC_DESIGN_DATE_AND_TIME_ASSIGNMENT ( #355, #142, ( #319 ) ) ;
#34 = FACE_OUTER_BOUND ( 'NONE', #333, .T. ) ;
#35 = VERTEX_POINT ( 'NONE', #203 ) ;
#36 = AXIS2_PLACEMENT_3D ( 'NONE', #208, #40, #268 ) ;
#37 = DIRECTION ( 'NONE',  ( 1.000000000000000000, 6.123233995736766000E-017, -0.0000000000000000000 ) ) ;
#38 = ADVANCED_FACE ( 'NONE', ( #182 ), #238, .F. ) ;
#39 = DIRECTION ( 'NONE',  ( 0.0000000000000000000, -1.224646799147353700E-016, 1.000000000000000000 ) ) ;
#40 = DIRECTION ( 'NONE',  ( 1.000000000000000000, 6.123233995736766000E-017, -0.0000000000000000000 ) ) ;
#41 = FACE_OUTER_BOUND ( 'NONE', #164, .T. ) ;
#42 = VERTEX_POINT ( 'NONE', #232 ) ;
#43 = CARTESIAN_POINT ( 'NONE',  ( 0.0000000000000000000, 0.0000000000000000000, 0.0000000000000000000 ) ) ;
#44 = EDGE_CURVE ( 'NONE', #27, #202, #123, .T. ) ;
#45 = CARTESIAN_POINT ( 'NONE',  ( 33.00000000000000000, 0.0000000000000000000, 0.0000000000000000000 ) ) ;
#46 = ORGANIZATION ( 'UNSPECIFIED', 'UNSPECIFIED', '' ) ;
#47 = EDGE_LOOP ( 'NONE', ( #302, #198, #352, #235 ) ) ;
#48 = CARTESIAN_POINT ( 'NONE',  ( 32.60000000000000100, 0.0000000000000000000, 0.0000000000000000000 ) ) ;
#49 = CARTESIAN_POINT ( 'NONE',  ( -49.99999999999999300, 5.499999999999992900, 0.0000000000000000000 ) ) ;
#50 = EDGE_LOOP ( 'NONE', ( #254, #88, #1, #191 ) ) ;
#51 = MECHANICAL_CONTEXT ( 'NONE', #82, 'mechanical' ) ;
#52 = DIRECTION ( 'NONE',  ( 0.0000000000000000000, 1.000000000000000000, 0.0000000000000000000 ) ) ;
#53 = PRODUCT_DEFINITION_FORMATION_WITH_SPECIFIED_SOURCE ( 'ANY', '', #178, .NOT_KNOWN. ) ;
#54 = VECTOR ( 'NONE', #26, 1000.000000000000000 ) ;
#55 = DIRECTION ( 'NONE',  ( -1.000000000000000000, -0.0000000000000000000, -0.0000000000000000000 ) ) ;
#56 = ORIENTED_EDGE ( 'NONE', *, *, #151, .F. ) ;
#57 = APPROVAL_STATUS ( 'not_yet_approved' ) ;
#58 = AXIS2_PLACEMENT_3D ( 'NONE', #73, #16, #213 ) ;
#59 = DIRECTION ( 'NONE',  ( 0.0000000000000000000, 0.0000000000000000000, 1.000000000000000000 ) ) ;
#60 = EDGE_LOOP ( 'NONE', ( #56, #280 ) ) ;
#61 = CARTESIAN_POINT ( 'NONE',  ( -49.50000000000000000, 5.999999999999992900, 0.0000000000000000000 ) ) ;
#62 = CALENDAR_DATE ( 2023, 31, 7 ) ;
#63 = EDGE_CURVE ( 'NONE', #356, #197, #257, .T. ) ;
#64 = CIRCLE ( 'NONE', #97, 6.000000000000000000 ) ;
#65 = ORIENTED_EDGE ( 'NONE', *, *, #85, .T. ) ;
#66 = DIRECTION ( 'NONE',  ( 0.0000000000000000000, -1.000000000000000000, 0.0000000000000000000 ) ) ;
#67 = ADVANCED_FACE ( 'NONE', ( #318 ), #169, .T. ) ;
#68 = ORIENTED_EDGE ( 'NONE', *, *, #94, .F. ) ;
#69 = CARTESIAN_POINT ( 'NONE',  ( 1.000000000000000400, 1.807003620809175600E-016, 0.0000000000000000000 ) ) ;
#70 = DATE_AND_TIME ( #150, #218 ) ;
#71 =( NAMED_UNIT ( * ) SI_UNIT ( $, .STERADIAN. ) SOLID_ANGLE_UNIT ( ) );
#72 = APPROVAL ( #329, 'UNSPECIFIED' ) ;
#73 = CARTESIAN_POINT ( 'NONE',  ( 0.9999999999999988900, 6.000000000000000000, 0.0000000000000000000 ) ) ;
#74 = FACE_OUTER_BOUND ( 'NONE', #60, .T. ) ;
#75 = ORIENTED_EDGE ( 'NONE', *, *, #277, .T. ) ;
#76 = DIRECTION ( 'NONE',  ( 0.0000000000000000000, 0.0000000000000000000, 1.000000000000000000 ) ) ;
#77 = CARTESIAN_POINT ( 'NONE',  ( -50.00000000000000000, -3.061616997868383000E-015, 0.0000000000000000000 ) ) ;
#78 = VERTEX_POINT ( 'NONE', #29 ) ;
#79 = DIRECTION ( 'NONE',  ( 1.000000000000000000, 6.123233995736766000E-017, -0.0000000000000000000 ) ) ;
#80 = PERSON_AND_ORGANIZATION ( #120, #46 ) ;
#81 = CARTESIAN_POINT ( 'NONE',  ( -49.50000000000000000, -5.999999999999998200, 7.347880794884114800E-016 ) ) ;
#82 = APPLICATION_CONTEXT ( 'configuration controlled 3d designs of mechanical parts and assemblies' ) ;
#83 = APPROVAL_STATUS ( 'not_yet_approved' ) ;
#84 = CIRCLE ( 'NONE', #271, 6.000000000000000000 ) ;
#85 = EDGE_CURVE ( 'NONE', #197, #363, #21, .T. ) ;
#86 = DIRECTION ( 'NONE',  ( 1.000000000000000000, 6.123233995736766000E-017, -0.0000000000000000000 ) ) ;
#87 = PERSON_AND_ORGANIZATION_ROLE ( 'creator' ) ;
#88 = ORIENTED_EDGE ( 'NONE', *, *, #298, .T. ) ;
#89 = DIRECTION ( 'NONE',  ( 0.0000000000000000000, 1.000000000000000000, 0.0000000000000000000 ) ) ;
#90 = PERSON_AND_ORGANIZATION ( #120, #46 ) ;
#91 = LOCAL_TIME ( 9, 20, 28.00000000000000000, #166 ) ;
#92 = DIRECTION ( 'NONE',  ( 1.000000000000000000, 6.123233995736766000E-017, -0.0000000000000000000 ) ) ;
#93 = DIRECTION ( 'NONE',  ( 0.7071067811865432400, -0.7071067811865517900, 8.659560562354985900E-017 ) ) ;
#94 = EDGE_CURVE ( 'NONE', #78, #18, #31, .T. ) ;
#95 = CIRCLE ( 'NONE', #290, 5.600000000000000500 ) ;
#96 = CC_DESIGN_APPROVAL ( #72, ( #53 ) ) ;
#97 = AXIS2_PLACEMENT_3D ( 'NONE', #320, #346, #183 ) ;
#98 = CARTESIAN_POINT ( 'NONE',  ( -49.50000000000000000, 5.999999999999992900, 0.0000000000000000000 ) ) ;
#99 = ORIENTED_EDGE ( 'NONE', *, *, #258, .F. ) ;
#100 = DIRECTION ( 'NONE',  ( 1.000000000000000000, 6.123233995736766000E-017, -0.0000000000000000000 ) ) ;
#101 = ADVANCED_FACE ( 'NONE', ( #175 ), #307, .T. ) ;
#102 = CARTESIAN_POINT ( 'NONE',  ( 32.60000000000000100, 6.858022075225178600E-016, -5.600000000000000500 ) ) ;
#103 = PLANE ( 'NONE',  #119 ) ;
#104 = VECTOR ( 'NONE', #93, 1000.000000000000000 ) ;
#105 = CARTESIAN_POINT ( 'NONE',  ( 33.00000000000000000, 0.0000000000000000000, 0.0000000000000000000 ) ) ;
#106 = AXIS2_PLACEMENT_3D ( 'NONE', #365, #100, #10 ) ;
#107 = CARTESIAN_POINT ( 'NONE',  ( 0.9999999999999983300, 6.000000000000000000, 0.0000000000000000000 ) ) ;
#108 = ORIENTED_EDGE ( 'NONE', *, *, #132, .F. ) ;
#109 = DIRECTION ( 'NONE',  ( 1.000000000000000000, 6.123233995736766000E-017, -0.0000000000000000000 ) ) ;
#110 = CIRCLE ( 'NONE', #145, 0.3999999999999984700 ) ;
#111 = PERSON_AND_ORGANIZATION_ROLE ( 'classification_officer' ) ;
#112 = EDGE_CURVE ( 'NONE', #356, #27, #14, .T. ) ;
#113 = PERSON_AND_ORGANIZATION_ROLE ( 'design_supplier' ) ;
#114 = CC_DESIGN_PERSON_AND_ORGANIZATION_ASSIGNMENT ( #159, #276, ( #53 ) ) ;
#115 = DIRECTION ( 'NONE',  ( 1.000000000000000000, 6.123233995736766000E-017, -0.0000000000000000000 ) ) ;
#116 = CARTESIAN_POINT ( 'NONE',  ( 0.9999999999999997800, 0.0000000000000000000, 0.0000000000000000000 ) ) ;
#117 = CONICAL_SURFACE ( 'NONE', #174, 5.999999999999995600, 0.7853981633974543900 ) ;
#118 = ORIENTED_EDGE ( 'NONE', *, *, #85, .F. ) ;
#119 = AXIS2_PLACEMENT_3D ( 'NONE', #105, #296, #131 ) ;
#120 = PERSON ( 'UNSPECIFIED', 'UNSPECIFIED', 'UNSPECIFIED', ('UNSPECIFIED'), ('UNSPECIFIED'), ('UNSPECIFIED') ) ;
#121 = DIRECTION ( 'NONE',  ( 1.000000000000000000, 6.123233995736766000E-017, -0.0000000000000000000 ) ) ;
#122 = PERSON_AND_ORGANIZATION ( #120, #46 ) ;
#123 = LINE ( 'NONE', #266, #247 ) ;
#124 = LOCAL_TIME ( 9, 20, 28.00000000000000000, #3 ) ;
#125 = CYLINDRICAL_SURFACE ( 'NONE', #204, 6.000000000000000000 ) ;
#126 = ORIENTED_EDGE ( 'NONE', *, *, #241, .F. ) ;
#127 = DIRECTION ( 'NONE',  ( -6.123233995736766000E-017, 1.000000000000000000, 0.0000000000000000000 ) ) ;
#128 = LOCAL_TIME ( 9, 20, 28.00000000000000000, #337 ) ;
#129 = ADVANCED_FACE ( 'NONE', ( #233 ), #5, .T. ) ;
#130 = EDGE_LOOP ( 'NONE', ( #315, #75, #262, #340 ) ) ;
#131 = DIRECTION ( 'NONE',  ( -0.0000000000000000000, 0.0000000000000000000, 1.000000000000000000 ) ) ;
#132 = EDGE_CURVE ( 'NONE', #18, #173, #84, .T. ) ;
#133 = DIRECTION ( 'NONE',  ( -6.123233995736766000E-017, 1.000000000000000000, 0.0000000000000000000 ) ) ;
#134 = CC_DESIGN_PERSON_AND_ORGANIZATION_ASSIGNMENT ( #80, #113, ( #53 ) ) ;
#135 = CARTESIAN_POINT ( 'NONE',  ( 32.60000000000000100, 0.0000000000000000000, 0.0000000000000000000 ) ) ;
#136 = SHAPE_DEFINITION_REPRESENTATION ( #12, #196 ) ;
#137 = ORIENTED_EDGE ( 'NONE', *, *, #63, .T. ) ;
#138 = AXIS2_PLACEMENT_3D ( 'NONE', #249, #115, #278 ) ;
#139 = DIRECTION ( 'NONE',  ( 0.7071067811865432400, 0.7071067811865517900, 0.0000000000000000000 ) ) ;
#140 = CLOSED_SHELL ( 'NONE', ( #129, #291, #181, #8, #67, #265 ) ) ;
#141 = LOCAL_TIME ( 9, 20, 28.00000000000000000, #207 ) ;
#142 = DATE_TIME_ROLE ( 'creation_date' ) ;
#143 = FACE_OUTER_BOUND ( 'NONE', #130, .T. ) ;
#144 = VERTEX_POINT ( 'NONE', #147 ) ;
#145 = AXIS2_PLACEMENT_3D ( 'NONE', #102, #295, #39 ) ;
#146 = DIRECTION ( 'NONE',  ( 0.0000000000000000000, 0.0000000000000000000, 1.000000000000000000 ) ) ;
#147 = CARTESIAN_POINT ( 'NONE',  ( 0.9999999999999997800, 0.0000000000000000000, 6.000000000000000000 ) ) ;
#148 = ORIENTED_EDGE ( 'NONE', *, *, #221, .T. ) ;
#149 = DIRECTION ( 'NONE',  ( 0.0000000000000000000, 1.000000000000000000, 0.0000000000000000000 ) ) ;
#150 = CALENDAR_DATE ( 2023, 31, 7 ) ;
#151 = EDGE_CURVE ( 'NONE', #78, #270, #95, .T. ) ;
#152 = SECURITY_CLASSIFICATION ( '', '', #308 ) ;
#153 = VECTOR ( 'NONE', #210, 1000.000000000000000 ) ;
#154 = CLOSED_SHELL ( 'NONE', ( #343, #158, #237, #101, #38, #206 ) ) ;
#155 = AXIS2_PLACEMENT_3D ( 'NONE', #135, #297, #11 ) ;
#156 = DIRECTION ( 'NONE',  ( 1.000000000000000000, 0.0000000000000000000, 0.0000000000000000000 ) ) ;
#157 = ORIENTED_EDGE ( 'NONE', *, *, #6, .F. ) ;
#158 = ADVANCED_FACE ( 'NONE', ( #161 ), #299, .T. ) ;
#159 = PERSON_AND_ORGANIZATION ( #120, #46 ) ;
#160 = PLANE ( 'NONE',  #58 ) ;
#161 = FACE_OUTER_BOUND ( 'NONE', #245, .T. ) ;
#162 = DIRECTION ( 'NONE',  ( 1.000000000000000000, 6.123233995736766000E-017, -0.0000000000000000000 ) ) ;
#163 = AXIS2_PLACEMENT_3D ( 'NONE', #77, #272, #30 ) ;
#164 = EDGE_LOOP ( 'NONE', ( #284, #248 ) ) ;
#165 = DIRECTION ( 'NONE',  ( 0.0000000000000000000, 0.0000000000000000000, 1.000000000000000000 ) ) ;
#166 = COORDINATED_UNIVERSAL_TIME_OFFSET ( 9, 0, .AHEAD. ) ;
#167 = PERSON_AND_ORGANIZATION_ROLE ( 'design_owner' ) ;
#168 = EDGE_CURVE ( 'NONE', #42, #202, #222, .T. ) ;
#169 = CONICAL_SURFACE ( 'NONE', #234, 5.999999999999995600, 0.7853981633974543900 ) ;
#170 = APPROVAL_ROLE ( '' ) ;
#171 = CC_DESIGN_PERSON_AND_ORGANIZATION_ASSIGNMENT ( #4, #111, ( #152 ) ) ;
#172 = DIRECTION ( 'NONE',  ( -1.000000000000000000, -0.0000000000000000000, -0.0000000000000000000 ) ) ;
#173 = VERTEX_POINT ( 'NONE', #348 ) ;
#174 = AXIS2_PLACEMENT_3D ( 'NONE', #193, #79, #52 ) ;
#175 = FACE_OUTER_BOUND ( 'NONE', #50, .T. ) ;
#176 = PERSON_AND_ORGANIZATION ( #120, #46 ) ;
#177 = DESIGN_CONTEXT ( 'detailed design', #359, 'design' ) ;
#178 = PRODUCT ( '03-3198', '03-3198', '', ( #51 ) ) ;
#179 = CYLINDRICAL_SURFACE ( 'NONE', #209, 6.000000000000000000 ) ;
#180 = EDGE_LOOP ( 'NONE', ( #300, #336, #157, #267 ) ) ;
#181 = ADVANCED_FACE ( 'NONE', ( #362 ), #160, .T. ) ;
#182 = FACE_OUTER_BOUND ( 'NONE', #344, .T. ) ;
#183 = DIRECTION ( 'NONE',  ( 0.0000000000000000000, 0.0000000000000000000, 1.000000000000000000 ) ) ;
#184 = EDGE_CURVE ( 'NONE', #173, #35, #288, .T. ) ;
#185 = CC_DESIGN_DATE_AND_TIME_ASSIGNMENT ( #70, #305, ( #152 ) ) ;
#186 = DIRECTION ( 'NONE',  ( -1.000000000000000000, -0.0000000000000000000, -0.0000000000000000000 ) ) ;
#187 = CIRCLE ( 'NONE', #227, 6.000000000000000000 ) ;
#188 = EDGE_LOOP ( 'NONE', ( #137, #65, #311, #205 ) ) ;
#189 = AXIS2_PLACEMENT_3D ( 'NONE', #215, #326, #165 ) ;
#190 = DIRECTION ( 'NONE',  ( 1.000000000000000000, 6.123233995736766000E-017, -0.0000000000000000000 ) ) ;
#191 = ORIENTED_EDGE ( 'NONE', *, *, #316, .F. ) ;
#192 = APPLICATION_PROTOCOL_DEFINITION ( 'international standard', 'config_control_design', 1994, #359 ) ;
#193 = CARTESIAN_POINT ( 'NONE',  ( -49.50000000000000000, -3.031000827889699300E-015, 0.0000000000000000000 ) ) ;
#194 = AXIS2_PLACEMENT_3D ( 'NONE', #335, #92, #285 ) ;
#195 = CIRCLE ( 'NONE', #189, 5.600000000000000500 ) ;
#196 = ADVANCED_BREP_SHAPE_REPRESENTATION ( '03-3198', ( #24, #322, #287 ), #264 ) ;
#197 = VERTEX_POINT ( 'NONE', #301 ) ;
#198 = ORIENTED_EDGE ( 'NONE', *, *, #241, .T. ) ;
#199 = EDGE_CURVE ( 'NONE', #197, #356, #314, .T. ) ;
#200 = APPROVAL ( #83, 'UNSPECIFIED' ) ;
#201 = FACE_OUTER_BOUND ( 'NONE', #47, .T. ) ;
#202 = VERTEX_POINT ( 'NONE', #107 ) ;
#203 = CARTESIAN_POINT ( 'NONE',  ( 0.9999999999999997800, 7.347880794884119700E-016, -6.000000000000000000 ) ) ;
#204 = AXIS2_PLACEMENT_3D ( 'NONE', #43, #220, #133 ) ;
#205 = ORIENTED_EDGE ( 'NONE', *, *, #112, .F. ) ;
#206 = ADVANCED_FACE ( 'NONE', ( #74 ), #103, .F. ) ;
#207 = COORDINATED_UNIVERSAL_TIME_OFFSET ( 9, 0, .AHEAD. ) ;
#208 = CARTESIAN_POINT ( 'NONE',  ( -49.99999999999999300, -3.061616997868382600E-015, 0.0000000000000000000 ) ) ;
#209 = AXIS2_PLACEMENT_3D ( 'NONE', #332, #172, #25 ) ;
#210 = DIRECTION ( 'NONE',  ( -1.000000000000000000, -0.0000000000000000000, -0.0000000000000000000 ) ) ;
#211 = LINE ( 'NONE', #327, #54 ) ;
#212 = ORIENTED_EDGE ( 'NONE', *, *, #221, .F. ) ;
#213 = DIRECTION ( 'NONE',  ( -6.123233995736766000E-017, 1.000000000000000000, 0.0000000000000000000 ) ) ;
#214 = AXIS2_PLACEMENT_3D ( 'NONE', #69, #156, #342 ) ;
#215 = CARTESIAN_POINT ( 'NONE',  ( 33.00000000000000000, 0.0000000000000000000, 0.0000000000000000000 ) ) ;
#216 = EDGE_LOOP ( 'NONE', ( #118, #293, #22, #126 ) ) ;
#217 =( LENGTH_UNIT ( ) NAMED_UNIT ( * ) SI_UNIT ( .MILLI., .METRE. ) );
#218 = LOCAL_TIME ( 9, 20, 28.00000000000000000, #294 ) ;
#219 = DIRECTION ( 'NONE',  ( 1.000000000000000000, 0.0000000000000000000, 0.0000000000000000000 ) ) ;
#220 = DIRECTION ( 'NONE',  ( 1.000000000000000000, 6.123233995736766000E-017, -0.0000000000000000000 ) ) ;
#221 = EDGE_CURVE ( 'NONE', #144, #35, #64, .T. ) ;
#222 = CIRCLE ( 'NONE', #341, 6.000000000000000000 ) ;
#223 = ORIENTED_EDGE ( 'NONE', *, *, #23, .T. ) ;
#224 = CC_DESIGN_APPROVAL ( #200, ( #152 ) ) ;
#225 = CARTESIAN_POINT ( 'NONE',  ( 32.60000000000000100, 0.0000000000000000000, 0.0000000000000000000 ) ) ;
#226 = APPLICATION_PROTOCOL_DEFINITION ( 'international standard', 'config_control_design', 1994, #82 ) ;
#227 = AXIS2_PLACEMENT_3D ( 'NONE', #225, #55, #250 ) ;
#228 =( NAMED_UNIT ( * ) PLANE_ANGLE_UNIT ( ) SI_UNIT ( $, .RADIAN. ) );
#229 = EDGE_LOOP ( 'NONE', ( #289, #317 ) ) ;
#230 = CARTESIAN_POINT ( 'NONE',  ( 0.0000000000000000000, 0.0000000000000000000, 0.0000000000000000000 ) ) ;
#231 = APPROVAL_DATE_TIME ( #304, #72 ) ;
#232 = CARTESIAN_POINT ( 'NONE',  ( 0.9999999999999991100, -6.000000000000000000, 7.347880794884119700E-016 ) ) ;
#233 = FACE_OUTER_BOUND ( 'NONE', #180, .T. ) ;
#234 = AXIS2_PLACEMENT_3D ( 'NONE', #313, #37, #149 ) ;
#235 = ORIENTED_EDGE ( 'NONE', *, *, #168, .F. ) ;
#236 = APPROVAL_PERSON_ORGANIZATION ( #122, #72, #170 ) ;
#237 = ADVANCED_FACE ( 'NONE', ( #143 ), #351, .T. ) ;
#238 = PLANE ( 'NONE',  #214 ) ;
#239 = VECTOR ( 'NONE', #139, 1000.000000000000000 ) ;
#240 = ORIENTED_EDGE ( 'NONE', *, *, #151, .T. ) ;
#241 = EDGE_CURVE ( 'NONE', #363, #27, #279, .T. ) ;
#242 = DIRECTION ( 'NONE',  ( 0.0000000000000000000, 0.0000000000000000000, 1.000000000000000000 ) ) ;
#243 = CC_DESIGN_SECURITY_CLASSIFICATION ( #152, ( #53 ) ) ;
#244 = DIRECTION ( 'NONE',  ( -1.000000000000000000, -0.0000000000000000000, -0.0000000000000000000 ) ) ;
#245 = EDGE_LOOP ( 'NONE', ( #240, #223, #108, #68 ) ) ;
#246 = AXIS2_PLACEMENT_3D ( 'NONE', #116, #309, #146 ) ;
#247 = VECTOR ( 'NONE', #109, 1000.000000000000000 ) ;
#248 = ORIENTED_EDGE ( 'NONE', *, *, #199, .F. ) ;
#249 = CARTESIAN_POINT ( 'NONE',  ( -49.50000000000000000, -3.031000827889699300E-015, 0.0000000000000000000 ) ) ;
#250 = DIRECTION ( 'NONE',  ( 0.0000000000000000000, 0.0000000000000000000, 1.000000000000000000 ) ) ;
#251 = AXIS2_PLACEMENT_3D ( 'NONE', #255, #66, #263 ) ;
#252 = CIRCLE ( 'NONE', #282, 5.999999999999995600 ) ;
#253 = APPROVAL_ROLE ( '' ) ;
#254 = ORIENTED_EDGE ( 'NONE', *, *, #184, .F. ) ;
#255 = CARTESIAN_POINT ( 'NONE',  ( 32.60000000000000100, 0.0000000000000000000, 5.600000000000000500 ) ) ;
#256 = DIRECTION ( 'NONE',  ( -1.000000000000000000, -0.0000000000000000000, -0.0000000000000000000 ) ) ;
#257 = CIRCLE ( 'NONE', #194, 5.499999999999996400 ) ;
#258 = EDGE_CURVE ( 'NONE', #18, #144, #211, .T. ) ;
#259 = PRODUCT_RELATED_PRODUCT_CATEGORY ( 'detail', '', ( #178 ) ) ;
#260 = UNCERTAINTY_MEASURE_WITH_UNIT (LENGTH_MEASURE( 1.000000000000000100E-005 ), #217, 'distance_accuracy_value', 'NONE');
#261 = CIRCLE ( 'NONE', #246, 6.000000000000000000 ) ;
#262 = ORIENTED_EDGE ( 'NONE', *, *, #94, .T. ) ;
#263 = DIRECTION ( 'NONE',  ( 0.0000000000000000000, 0.0000000000000000000, -1.000000000000000000 ) ) ;
#264 =( GEOMETRIC_REPRESENTATION_CONTEXT ( 3 ) GLOBAL_UNCERTAINTY_ASSIGNED_CONTEXT ( ( #260 ) ) GLOBAL_UNIT_ASSIGNED_CONTEXT ( ( #217, #228, #71 ) ) REPRESENTATION_CONTEXT ( 'NONE', 'WORKASPACE' ) );
#265 = ADVANCED_FACE ( 'NONE', ( #201 ), #125, .T. ) ;
#266 = CARTESIAN_POINT ( 'NONE',  ( -3.673940397442059900E-016, 6.000000000000000000, 0.0000000000000000000 ) ) ;
#267 = ORIENTED_EDGE ( 'NONE', *, *, #44, .F. ) ;
#268 = DIRECTION ( 'NONE',  ( 0.0000000000000000000, 1.000000000000000000, 0.0000000000000000000 ) ) ;
#269 = FACE_OUTER_BOUND ( 'NONE', #188, .T. ) ;
#270 = VERTEX_POINT ( 'NONE', #360 ) ;
#271 = AXIS2_PLACEMENT_3D ( 'NONE', #354, #186, #17 ) ;
#272 = DIRECTION ( 'NONE',  ( -1.000000000000000000, -6.123233995736766000E-017, 0.0000000000000000000 ) ) ;
#273 = ORIENTED_EDGE ( 'NONE', *, *, #132, .T. ) ;
#274 = APPROVAL_DATE_TIME ( #345, #200 ) ;
#275 = CARTESIAN_POINT ( 'NONE',  ( 0.0000000000000000000, 0.0000000000000000000, 0.0000000000000000000 ) ) ;
#276 = PERSON_AND_ORGANIZATION_ROLE ( 'creator' ) ;
#277 = EDGE_CURVE ( 'NONE', #270, #78, #195, .T. ) ;
#278 = DIRECTION ( 'NONE',  ( 0.0000000000000000000, 1.000000000000000000, 0.0000000000000000000 ) ) ;
#279 = CIRCLE ( 'NONE', #138, 5.999999999999995600 ) ;
#280 = ORIENTED_EDGE ( 'NONE', *, *, #277, .F. ) ;
#281 = APPROVAL_ROLE ( '' ) ;
#282 = AXIS2_PLACEMENT_3D ( 'NONE', #357, #190, #89 ) ;
#283 = CARTESIAN_POINT ( 'NONE',  ( 0.0000000000000000000, 0.0000000000000000000, 0.0000000000000000000 ) ) ;
#284 = ORIENTED_EDGE ( 'NONE', *, *, #63, .F. ) ;
#285 = DIRECTION ( 'NONE',  ( 0.0000000000000000000, 1.000000000000000000, 0.0000000000000000000 ) ) ;
#286 = APPROVAL_PERSON_ORGANIZATION ( #358, #200, #281 ) ;
#287 = AXIS2_PLACEMENT_3D ( 'NONE', #275, #20, #219 ) ;
#288 = LINE ( 'NONE', #15, #153 ) ;
#289 = ORIENTED_EDGE ( 'NONE', *, *, #6, .T. ) ;
#290 = AXIS2_PLACEMENT_3D ( 'NONE', #45, #244, #76 ) ;
#291 = ADVANCED_FACE ( 'NONE', ( #269 ), #117, .T. ) ;
#292 = PLANE ( 'NONE',  #163 ) ;
#293 = ORIENTED_EDGE ( 'NONE', *, *, #199, .T. ) ;
#294 = COORDINATED_UNIVERSAL_TIME_OFFSET ( 9, 0, .AHEAD. ) ;
#295 = DIRECTION ( 'NONE',  ( -0.0000000000000000000, 1.000000000000000000, 1.224646799147353200E-016 ) ) ;
#296 = DIRECTION ( 'NONE',  ( -1.000000000000000000, 0.0000000000000000000, -0.0000000000000000000 ) ) ;
#297 = DIRECTION ( 'NONE',  ( -1.000000000000000000, -0.0000000000000000000, -0.0000000000000000000 ) ) ;
#298 = EDGE_CURVE ( 'NONE', #173, #18, #187, .T. ) ;
#299 = TOROIDAL_SURFACE ( 'NONE', #364, 5.600000000000000500, 0.3999999999999984700 ) ;
#300 = ORIENTED_EDGE ( 'NONE', *, *, #349, .T. ) ;
#301 = CARTESIAN_POINT ( 'NONE',  ( -49.99999999999999300, -5.500000000000000000, 7.041719095097275900E-016 ) ) ;
#302 = ORIENTED_EDGE ( 'NONE', *, *, #330, .F. ) ;
#303 = DATE_AND_TIME ( #312, #124 ) ;
#304 = DATE_AND_TIME ( #9, #91 ) ;
#305 = DATE_TIME_ROLE ( 'classification_date' ) ;
#306 = CC_DESIGN_PERSON_AND_ORGANIZATION_ASSIGNMENT ( #176, #167, ( #178 ) ) ;
#307 = CYLINDRICAL_SURFACE ( 'NONE', #310, 6.000000000000000000 ) ;
#308 = SECURITY_CLASSIFICATION_LEVEL ( 'unclassified' ) ;
#309 = DIRECTION ( 'NONE',  ( -1.000000000000000000, -0.0000000000000000000, -0.0000000000000000000 ) ) ;
#310 = AXIS2_PLACEMENT_3D ( 'NONE', #230, #256, #59 ) ;
#311 = ORIENTED_EDGE ( 'NONE', *, *, #349, .F. ) ;
#312 = CALENDAR_DATE ( 2023, 31, 7 ) ;
#313 = CARTESIAN_POINT ( 'NONE',  ( -49.50000000000000000, -3.031000827889699300E-015, 0.0000000000000000000 ) ) ;
#314 = CIRCLE ( 'NONE', #36, 5.499999999999996400 ) ;
#315 = ORIENTED_EDGE ( 'NONE', *, *, #23, .F. ) ;
#316 = EDGE_CURVE ( 'NONE', #35, #144, #261, .T. ) ;
#317 = ORIENTED_EDGE ( 'NONE', *, *, #168, .T. ) ;
#318 = FACE_OUTER_BOUND ( 'NONE', #216, .T. ) ;
#319 = PRODUCT_DEFINITION ( 'UNKNOWN', '', #53, #177 ) ;
#320 = CARTESIAN_POINT ( 'NONE',  ( 0.9999999999999997800, 0.0000000000000000000, 0.0000000000000000000 ) ) ;
#321 = CARTESIAN_POINT ( 'NONE',  ( 0.9999999999999986700, 6.123233995736758600E-017, 0.0000000000000000000 ) ) ;
#322 = MANIFOLD_SOLID_BREP ( 'È¸Àü4', #140 ) ;
#323 = AXIS2_PLACEMENT_3D ( 'NONE', #283, #121, #127 ) ;
#324 = ORIENTED_EDGE ( 'NONE', *, *, #316, .T. ) ;
#325 = PERSON_AND_ORGANIZATION ( #120, #46 ) ;
#326 = DIRECTION ( 'NONE',  ( -1.000000000000000000, -0.0000000000000000000, -0.0000000000000000000 ) ) ;
#327 = CARTESIAN_POINT ( 'NONE',  ( 0.0000000000000000000, 0.0000000000000000000, 6.000000000000000000 ) ) ;
#328 = CIRCLE ( 'NONE', #106, 6.000000000000000000 ) ;
#329 = APPROVAL_STATUS ( 'not_yet_approved' ) ;
#330 = EDGE_CURVE ( 'NONE', #363, #42, #331, .T. ) ;
#331 = LINE ( 'NONE', #19, #339 ) ;
#332 = CARTESIAN_POINT ( 'NONE',  ( 0.0000000000000000000, 0.0000000000000000000, 0.0000000000000000000 ) ) ;
#333 = EDGE_LOOP ( 'NONE', ( #273, #7, #212, #99 ) ) ;
#334 = DIRECTION ( 'NONE',  ( -1.000000000000000000, -0.0000000000000000000, -0.0000000000000000000 ) ) ;
#335 = CARTESIAN_POINT ( 'NONE',  ( -49.99999999999999300, -3.061616997868382600E-015, 0.0000000000000000000 ) ) ;
#336 = ORIENTED_EDGE ( 'NONE', *, *, #330, .T. ) ;
#337 = COORDINATED_UNIVERSAL_TIME_OFFSET ( 9, 0, .AHEAD. ) ;
#338 = APPROVAL ( #57, 'UNSPECIFIED' ) ;
#339 = VECTOR ( 'NONE', #86, 1000.000000000000000 ) ;
#340 = ORIENTED_EDGE ( 'NONE', *, *, #298, .F. ) ;
#341 = AXIS2_PLACEMENT_3D ( 'NONE', #321, #162, #350 ) ;
#342 = DIRECTION ( 'NONE',  ( 0.0000000000000000000, 0.0000000000000000000, -1.000000000000000000 ) ) ;
#343 = ADVANCED_FACE ( 'NONE', ( #34 ), #179, .T. ) ;
#344 = EDGE_LOOP ( 'NONE', ( #148, #324 ) ) ;
#345 = DATE_AND_TIME ( #62, #141 ) ;
#346 = DIRECTION ( 'NONE',  ( -1.000000000000000000, -0.0000000000000000000, -0.0000000000000000000 ) ) ;
#347 = CALENDAR_DATE ( 2023, 31, 7 ) ;
#348 = CARTESIAN_POINT ( 'NONE',  ( 32.60000000000000100, 7.347880794884118800E-016, -6.000000000000000000 ) ) ;
#349 = EDGE_CURVE ( 'NONE', #27, #363, #252, .T. ) ;
#350 = DIRECTION ( 'NONE',  ( -7.228014483236695800E-017, 1.000000000000000000, 0.0000000000000000000 ) ) ;
#351 = TOROIDAL_SURFACE ( 'NONE', #155, 5.600000000000000500, 0.3999999999999984700 ) ;
#352 = ORIENTED_EDGE ( 'NONE', *, *, #44, .T. ) ;
#353 = APPROVAL_DATE_TIME ( #303, #338 ) ;
#354 = CARTESIAN_POINT ( 'NONE',  ( 32.60000000000000100, 0.0000000000000000000, 0.0000000000000000000 ) ) ;
#355 = DATE_AND_TIME ( #347, #128 ) ;
#356 = VERTEX_POINT ( 'NONE', #49 ) ;
#357 = CARTESIAN_POINT ( 'NONE',  ( -49.50000000000000000, -3.031000827889699300E-015, 0.0000000000000000000 ) ) ;
#358 = PERSON_AND_ORGANIZATION ( #120, #46 ) ;
#359 = APPLICATION_CONTEXT ( 'configuration controlled 3d designs of mechanical parts and assemblies' ) ;
#360 = CARTESIAN_POINT ( 'NONE',  ( 33.00000000000000000, 7.102951435054648700E-016, -5.600000000000000500 ) ) ;
#361 = CC_DESIGN_APPROVAL ( #338, ( #319 ) ) ;
#362 = FACE_OUTER_BOUND ( 'NONE', #229, .T. ) ;
#363 = VERTEX_POINT ( 'NONE', #81 ) ;
#364 = AXIS2_PLACEMENT_3D ( 'NONE', #48, #334, #242 ) ;
#365 = CARTESIAN_POINT ( 'NONE',  ( 0.9999999999999986700, 6.123233995736758600E-017, 0.0000000000000000000 ) ) ;
ENDSEC;
END-ISO-10303-21;
