ISO-10303-21;
HEADER;
FILE_DESCRIPTION (( 'STEP AP203' ),
    '1' );
FILE_NAME ('03-3199.STEP',
    '2023-07-31T00:20:57',
    ( 'USER' ),
    ( 'Hewlett-Packard Company' ),
    'SwSTEP 2.0',
    'SolidWorks 2014',
    '' );
FILE_SCHEMA (( 'CONFIG_CONTROL_DESIGN' ));
ENDSEC;

DATA;
#1 = VERTEX_POINT ( 'NONE', #25 ) ;
#2 = VECTOR ( 'NONE', #365, 1000.000000000000000 ) ;
#3 = CARTESIAN_POINT ( 'NONE',  ( 32.20000000000000300, 6.368163355566236400E-016, -5.200000000000000200 ) ) ;
#4 =( NAMED_UNIT ( * ) SI_UNIT ( $, .STERADIAN. ) SOLID_ANGLE_UNIT ( ) );
#5 = APPLICATION_PROTOCOL_DEFINITION ( 'international standard', 'config_control_design', 1994, #191 ) ;
#6 = EDGE_CURVE ( 'NONE', #102, #259, #70, .T. ) ;
#7 = VERTEX_POINT ( 'NONE', #56 ) ;
#8 = PERSON_AND_ORGANIZATION ( #241, #317 ) ;
#9 = VERTEX_POINT ( 'NONE', #98 ) ;
#10 = CC_DESIGN_PERSON_AND_ORGANIZATION_ASSIGNMENT ( #220, #99, ( #320 ) ) ;
#11 = UNCERTAINTY_MEASURE_WITH_UNIT (LENGTH_MEASURE( 1.000000000000000100E-005 ), #242, 'distance_accuracy_value', 'NONE');
#12 = DIRECTION ( 'NONE',  ( 1.000000000000000000, 6.123233995736766000E-017, -0.0000000000000000000 ) ) ;
#13 = ADVANCED_FACE ( 'NONE', ( #142 ), #212, .T. ) ;
#14 = EDGE_LOOP ( 'NONE', ( #267, #235, #27, #62 ) ) ;
#15 = LINE ( 'NONE', #160, #2 ) ;
#16 = AXIS2_PLACEMENT_3D ( 'NONE', #43, #265, #108 ) ;
#17 = ORIENTED_EDGE ( 'NONE', *, *, #170, .F. ) ;
#18 = COORDINATED_UNIVERSAL_TIME_OFFSET ( 9, 0, .AHEAD. ) ;
#19 = ORIENTED_EDGE ( 'NONE', *, *, #225, .F. ) ;
#20 = AXIS2_PLACEMENT_3D ( 'NONE', #213, #36, #238 ) ;
#21 = DIRECTION ( 'NONE',  ( 1.000000000000000000, 6.123233995736766000E-017, -0.0000000000000000000 ) ) ;
#22 = ORIENTED_EDGE ( 'NONE', *, *, #138, .T. ) ;
#23 = CIRCLE ( 'NONE', #71, 5.499999999999996400 ) ;
#24 = DIRECTION ( 'NONE',  ( -6.123233995736766000E-017, 1.000000000000000000, 0.0000000000000000000 ) ) ;
#25 = CARTESIAN_POINT ( 'NONE',  ( 0.9999999999999983300, 6.000000000000000000, 0.0000000000000000000 ) ) ;
#26 = SHAPE_DEFINITION_REPRESENTATION ( #134, #174 ) ;
#27 = ORIENTED_EDGE ( 'NONE', *, *, #118, .F. ) ;
#28 = EDGE_LOOP ( 'NONE', ( #117, #229 ) ) ;
#29 = EDGE_CURVE ( 'NONE', #110, #9, #345, .T. ) ;
#30 = CARTESIAN_POINT ( 'NONE',  ( 0.9999999999999997800, 0.0000000000000000000, 0.0000000000000000000 ) ) ;
#31 = CC_DESIGN_PERSON_AND_ORGANIZATION_ASSIGNMENT ( #147, #298, ( #320 ) ) ;
#32 = DIRECTION ( 'NONE',  ( 1.000000000000000000, 6.123233995736766000E-017, -0.0000000000000000000 ) ) ;
#33 = CARTESIAN_POINT ( 'NONE',  ( -49.99999999999999300, -3.061616997868382600E-015, 0.0000000000000000000 ) ) ;
#34 = VERTEX_POINT ( 'NONE', #60 ) ;
#35 = FACE_OUTER_BOUND ( 'NONE', #136, .T. ) ;
#36 = DIRECTION ( 'NONE',  ( 1.000000000000000000, 6.123233995736766000E-017, -0.0000000000000000000 ) ) ;
#37 = APPLICATION_PROTOCOL_DEFINITION ( 'international standard', 'config_control_design', 1994, #120 ) ;
#38 = ORIENTED_EDGE ( 'NONE', *, *, #177, .T. ) ;
#39 = AXIS2_PLACEMENT_3D ( 'NONE', #47, #247, #86 ) ;
#40 = ORIENTED_EDGE ( 'NONE', *, *, #177, .F. ) ;
#41 = EDGE_LOOP ( 'NONE', ( #83, #327, #362, #122 ) ) ;
#42 = DIRECTION ( 'NONE',  ( 1.000000000000000000, 0.0000000000000000000, 0.0000000000000000000 ) ) ;
#43 = CARTESIAN_POINT ( 'NONE',  ( -50.00000000000000000, -3.061616997868383000E-015, 0.0000000000000000000 ) ) ;
#44 = AXIS2_PLACEMENT_3D ( 'NONE', #33, #237, #72 ) ;
#45 = DATE_AND_TIME ( #130, #202 ) ;
#46 = EDGE_LOOP ( 'NONE', ( #354, #198 ) ) ;
#47 = CARTESIAN_POINT ( 'NONE',  ( 32.20000000000000300, 0.0000000000000000000, 5.200000000000000200 ) ) ;
#48 = FACE_OUTER_BOUND ( 'NONE', #14, .T. ) ;
#49 = ADVANCED_FACE ( 'NONE', ( #337 ), #281, .F. ) ;
#50 = ORIENTED_EDGE ( 'NONE', *, *, #239, .T. ) ;
#51 = CONICAL_SURFACE ( 'NONE', #89, 5.999999999999995600, 0.7853981633974543900 ) ;
#52 = ORIENTED_EDGE ( 'NONE', *, *, #292, .T. ) ;
#53 = VERTEX_POINT ( 'NONE', #231 ) ;
#54 = EDGE_CURVE ( 'NONE', #91, #7, #59, .T. ) ;
#55 = SECURITY_CLASSIFICATION ( '', '', #139 ) ;
#56 = CARTESIAN_POINT ( 'NONE',  ( 0.9999999999999997800, 0.0000000000000000000, 6.000000000000000000 ) ) ;
#57 = MANIFOLD_SOLID_BREP ( 'È¸Àü4', #96 ) ;
#58 = PERSON_AND_ORGANIZATION ( #241, #317 ) ;
#59 = CIRCLE ( 'NONE', #262, 6.000000000000000000 ) ;
#60 = CARTESIAN_POINT ( 'NONE',  ( 0.9999999999999991100, -6.000000000000000000, 7.347880794884119700E-016 ) ) ;
#61 = DIRECTION ( 'NONE',  ( 1.000000000000000000, 6.123233995736766000E-017, -0.0000000000000000000 ) ) ;
#62 = ORIENTED_EDGE ( 'NONE', *, *, #138, .F. ) ;
#63 = AXIS2_PLACEMENT_3D ( 'NONE', #222, #190, #295 ) ;
#64 = CARTESIAN_POINT ( 'NONE',  ( 0.0000000000000000000, 0.0000000000000000000, 0.0000000000000000000 ) ) ;
#65 = DIRECTION ( 'NONE',  ( 0.0000000000000000000, 0.0000000000000000000, 1.000000000000000000 ) ) ;
#66 = ORIENTED_EDGE ( 'NONE', *, *, #29, .T. ) ;
#67 = DIRECTION ( 'NONE',  ( 1.000000000000000000, 6.123233995736766000E-017, -0.0000000000000000000 ) ) ;
#68 = PERSON_AND_ORGANIZATION ( #241, #317 ) ;
#69 = ORIENTED_EDGE ( 'NONE', *, *, #225, .T. ) ;
#70 = CIRCLE ( 'NONE', #193, 5.200000000000000200 ) ;
#71 = AXIS2_PLACEMENT_3D ( 'NONE', #210, #32, #185 ) ;
#72 = DIRECTION ( 'NONE',  ( 0.0000000000000000000, 1.000000000000000000, 0.0000000000000000000 ) ) ;
#73 = DIRECTION ( 'NONE',  ( -7.228014483236695800E-017, 1.000000000000000000, 0.0000000000000000000 ) ) ;
#74 = PRODUCT ( '03-3199', '03-3199', '', ( #243 ) ) ;
#75 = FACE_OUTER_BOUND ( 'NONE', #28, .T. ) ;
#76 = CARTESIAN_POINT ( 'NONE',  ( 0.0000000000000000000, 0.0000000000000000000, 0.0000000000000000000 ) ) ;
#77 = ORIENTED_EDGE ( 'NONE', *, *, #188, .T. ) ;
#78 = PERSON_AND_ORGANIZATION_ROLE ( 'design_owner' ) ;
#79 = EDGE_CURVE ( 'NONE', #53, #34, #203, .T. ) ;
#80 = DIRECTION ( 'NONE',  ( 0.0000000000000000000, 0.0000000000000000000, 1.000000000000000000 ) ) ;
#81 = CC_DESIGN_PERSON_AND_ORGANIZATION_ASSIGNMENT ( #68, #321, ( #55 ) ) ;
#82 = CALENDAR_DATE ( 2023, 31, 7 ) ;
#83 = ORIENTED_EDGE ( 'NONE', *, *, #257, .T. ) ;
#84 = ORIENTED_EDGE ( 'NONE', *, *, #188, .F. ) ;
#85 = CARTESIAN_POINT ( 'NONE',  ( 32.99999999999999300, 0.0000000000000000000, 5.200000000000000200 ) ) ;
#86 = DIRECTION ( 'NONE',  ( 0.0000000000000000000, 0.0000000000000000000, -1.000000000000000000 ) ) ;
#87 = ADVANCED_FACE ( 'NONE', ( #48 ), #196, .T. ) ;
#88 = CYLINDRICAL_SURFACE ( 'NONE', #186, 6.000000000000000000 ) ;
#89 = AXIS2_PLACEMENT_3D ( 'NONE', #300, #324, #113 ) ;
#90 = DATE_AND_TIME ( #165, #234 ) ;
#91 = VERTEX_POINT ( 'NONE', #330 ) ;
#92 = APPROVAL_STATUS ( 'not_yet_approved' ) ;
#93 = AXIS2_PLACEMENT_3D ( 'NONE', #106, #338, #187 ) ;
#94 = DIRECTION ( 'NONE',  ( 0.0000000000000000000, 1.000000000000000000, 0.0000000000000000000 ) ) ;
#95 = DIRECTION ( 'NONE',  ( 0.0000000000000000000, 0.0000000000000000000, 1.000000000000000000 ) ) ;
#96 = CLOSED_SHELL ( 'NONE', ( #87, #323, #223, #272, #301, #346 ) ) ;
#97 = FACE_OUTER_BOUND ( 'NONE', #149, .T. ) ;
#98 = CARTESIAN_POINT ( 'NONE',  ( 32.20000000000000300, 0.0000000000000000000, 5.999999999999998200 ) ) ;
#99 = PERSON_AND_ORGANIZATION_ROLE ( 'creator' ) ;
#100 = APPROVAL_DATE_TIME ( #175, #252 ) ;
#101 = EDGE_CURVE ( 'NONE', #144, #53, #279, .T. ) ;
#102 = VERTEX_POINT ( 'NONE', #124 ) ;
#103 = DIRECTION ( 'NONE',  ( -6.123233995736766000E-017, 1.000000000000000000, 0.0000000000000000000 ) ) ;
#104 = CC_DESIGN_DATE_AND_TIME_ASSIGNMENT ( #141, #137, ( #55 ) ) ;
#105 = CARTESIAN_POINT ( 'NONE',  ( -49.50000000000000000, 5.999999999999992900, 0.0000000000000000000 ) ) ;
#106 = CARTESIAN_POINT ( 'NONE',  ( 0.0000000000000000000, 0.0000000000000000000, 0.0000000000000000000 ) ) ;
#107 = FACE_OUTER_BOUND ( 'NONE', #41, .T. ) ;
#108 = DIRECTION ( 'NONE',  ( 6.123233995736766000E-017, -1.000000000000000000, 0.0000000000000000000 ) ) ;
#109 = APPROVAL_PERSON_ORGANIZATION ( #182, #252, #316 ) ;
#110 = VERTEX_POINT ( 'NONE', #254 ) ;
#111 = AXIS2_PLACEMENT_3D ( 'NONE', #236, #67, #263 ) ;
#112 = ADVANCED_FACE ( 'NONE', ( #35 ), #280, .F. ) ;
#113 = DIRECTION ( 'NONE',  ( 0.0000000000000000000, 1.000000000000000000, 0.0000000000000000000 ) ) ;
#114 = EDGE_CURVE ( 'NONE', #351, #144, #271, .T. ) ;
#115 = VECTOR ( 'NONE', #307, 1000.000000000000000 ) ;
#116 = CLOSED_SHELL ( 'NONE', ( #143, #171, #13, #197, #49, #112 ) ) ;
#117 = ORIENTED_EDGE ( 'NONE', *, *, #155, .F. ) ;
#118 = EDGE_CURVE ( 'NONE', #1, #34, #264, .T. ) ;
#119 = APPROVAL ( #319, 'UNSPECIFIED' ) ;
#120 = APPLICATION_CONTEXT ( 'configuration controlled 3d designs of mechanical parts and assemblies' ) ;
#121 = CARTESIAN_POINT ( 'NONE',  ( 33.00000000000000000, 4.403528823633439400E-014, 0.0000000000000000000 ) ) ;
#122 = ORIENTED_EDGE ( 'NONE', *, *, #292, .F. ) ;
#123 = LINE ( 'NONE', #332, #115 ) ;
#124 = CARTESIAN_POINT ( 'NONE',  ( 32.99999999999999300, 6.858022075225175600E-016, -5.200000000000000200 ) ) ;
#125 = DIRECTION ( 'NONE',  ( -0.0000000000000000000, 0.0000000000000000000, 1.000000000000000000 ) ) ;
#126 = EDGE_LOOP ( 'NONE', ( #311, #38, #350, #183 ) ) ;
#127 =( GEOMETRIC_REPRESENTATION_CONTEXT ( 3 ) GLOBAL_UNCERTAINTY_ASSIGNED_CONTEXT ( ( #11 ) ) GLOBAL_UNIT_ASSIGNED_CONTEXT ( ( #242, #266, #4 ) ) REPRESENTATION_CONTEXT ( 'NONE', 'WORKASPACE' ) );
#128 = DIRECTION ( 'NONE',  ( 0.7071067811865432400, -0.7071067811865517900, 8.659560562354985900E-017 ) ) ;
#129 = CARTESIAN_POINT ( 'NONE',  ( 32.20000000000000300, 0.0000000000000000000, 0.0000000000000000000 ) ) ;
#130 = CALENDAR_DATE ( 2023, 31, 7 ) ;
#131 = VECTOR ( 'NONE', #61, 1000.000000000000000 ) ;
#132 = DIRECTION ( 'NONE',  ( -1.000000000000000000, -0.0000000000000000000, -0.0000000000000000000 ) ) ;
#133 = EDGE_CURVE ( 'NONE', #34, #1, #325, .T. ) ;
#134 = PRODUCT_DEFINITION_SHAPE ( 'NONE', 'NONE',  #232 ) ;
#135 = CARTESIAN_POINT ( 'NONE',  ( 32.20000000000000300, 0.0000000000000000000, 0.0000000000000000000 ) ) ;
#136 = EDGE_LOOP ( 'NONE', ( #192, #299 ) ) ;
#137 = DATE_TIME_ROLE ( 'classification_date' ) ;
#138 = EDGE_CURVE ( 'NONE', #144, #1, #123, .T. ) ;
#139 = SECURITY_CLASSIFICATION_LEVEL ( 'unclassified' ) ;
#140 = CC_DESIGN_APPROVAL ( #119, ( #55 ) ) ;
#141 = DATE_AND_TIME ( #211, #278 ) ;
#142 = FACE_OUTER_BOUND ( 'NONE', #275, .T. ) ;
#143 = ADVANCED_FACE ( 'NONE', ( #256 ), #180, .T. ) ;
#144 = VERTEX_POINT ( 'NONE', #105 ) ;
#145 = ORIENTED_EDGE ( 'NONE', *, *, #29, .F. ) ;
#146 = AXIS2_PLACEMENT_3D ( 'NONE', #347, #12, #169 ) ;
#147 = PERSON_AND_ORGANIZATION ( #241, #317 ) ;
#148 = DIRECTION ( 'NONE',  ( 0.7071067811865432400, 0.7071067811865517900, 0.0000000000000000000 ) ) ;
#149 = EDGE_LOOP ( 'NONE', ( #19, #66, #77, #251 ) ) ;
#150 = AXIS2_PLACEMENT_3D ( 'NONE', #129, #132, #313 ) ;
#151 = EDGE_CURVE ( 'NONE', #158, #351, #23, .T. ) ;
#152 = CARTESIAN_POINT ( 'NONE',  ( -49.50000000000000000, -3.031000827889699300E-015, 0.0000000000000000000 ) ) ;
#153 = FACE_OUTER_BOUND ( 'NONE', #176, .T. ) ;
#154 = DIRECTION ( 'NONE',  ( -1.000000000000000000, -0.0000000000000000000, -0.0000000000000000000 ) ) ;
#155 = EDGE_CURVE ( 'NONE', #351, #158, #189, .T. ) ;
#156 = CARTESIAN_POINT ( 'NONE',  ( 0.9999999999999988900, 6.000000000000000000, 0.0000000000000000000 ) ) ;
#157 = LOCAL_TIME ( 9, 20, 57.00000000000000000, #227 ) ;
#158 = VERTEX_POINT ( 'NONE', #291 ) ;
#159 = CC_DESIGN_SECURITY_CLASSIFICATION ( #55, ( #320 ) ) ;
#160 = CARTESIAN_POINT ( 'NONE',  ( 0.0000000000000000000, 0.0000000000000000000, 6.000000000000000000 ) ) ;
#161 = CIRCLE ( 'NONE', #204, 6.000000000000000000 ) ;
#162 = CARTESIAN_POINT ( 'NONE',  ( 0.9999999999999997800, 0.0000000000000000000, 0.0000000000000000000 ) ) ;
#163 = PERSON_AND_ORGANIZATION_ROLE ( 'creator' ) ;
#164 = APPROVAL_ROLE ( '' ) ;
#165 = CALENDAR_DATE ( 2023, 31, 7 ) ;
#166 = ORIENTED_EDGE ( 'NONE', *, *, #114, .T. ) ;
#167 = DIRECTION ( 'NONE',  ( 0.0000000000000000000, 0.0000000000000000000, 1.000000000000000000 ) ) ;
#168 = AXIS2_PLACEMENT_3D ( 'NONE', #30, #233, #65 ) ;
#169 = DIRECTION ( 'NONE',  ( -6.123233995736766000E-017, 1.000000000000000000, 0.0000000000000000000 ) ) ;
#170 = EDGE_CURVE ( 'NONE', #53, #144, #314, .T. ) ;
#171 = ADVANCED_FACE ( 'NONE', ( #107 ), #249, .T. ) ;
#172 = CARTESIAN_POINT ( 'NONE',  ( 0.0000000000000000000, 7.347880794884119700E-016, -6.000000000000000000 ) ) ;
#173 = VECTOR ( 'NONE', #128, 1000.000000000000000 ) ;
#174 = ADVANCED_BREP_SHAPE_REPRESENTATION ( '03-3199', ( #194, #57, #200 ), #127 ) ;
#175 = DATE_AND_TIME ( #244, #310 ) ;
#176 = EDGE_LOOP ( 'NONE', ( #40, #199, #166, #17 ) ) ;
#177 = EDGE_CURVE ( 'NONE', #158, #53, #240, .T. ) ;
#178 = PRODUCT_RELATED_PRODUCT_CATEGORY ( 'detail', '', ( #74 ) ) ;
#179 = DIRECTION ( 'NONE',  ( 0.0000000000000000000, 0.0000000000000000000, 1.000000000000000000 ) ) ;
#180 = CYLINDRICAL_SURFACE ( 'NONE', #93, 6.000000000000000000 ) ;
#181 = CARTESIAN_POINT ( 'NONE',  ( -49.50000000000000000, 5.999999999999992900, 0.0000000000000000000 ) ) ;
#182 = PERSON_AND_ORGANIZATION ( #241, #317 ) ;
#183 = ORIENTED_EDGE ( 'NONE', *, *, #114, .F. ) ;
#184 = PLANE ( 'NONE',  #224 ) ;
#185 = DIRECTION ( 'NONE',  ( 0.0000000000000000000, 1.000000000000000000, 0.0000000000000000000 ) ) ;
#186 = AXIS2_PLACEMENT_3D ( 'NONE', #64, #288, #363 ) ;
#187 = DIRECTION ( 'NONE',  ( 0.0000000000000000000, 0.0000000000000000000, 1.000000000000000000 ) ) ;
#188 = EDGE_CURVE ( 'NONE', #9, #7, #15, .T. ) ;
#189 = CIRCLE ( 'NONE', #44, 5.499999999999996400 ) ;
#190 = DIRECTION ( 'NONE',  ( 1.000000000000000000, 6.123233995736766000E-017, -0.0000000000000000000 ) ) ;
#191 = APPLICATION_CONTEXT ( 'configuration controlled 3d designs of mechanical parts and assemblies' ) ;
#192 = ORIENTED_EDGE ( 'NONE', *, *, #257, .F. ) ;
#193 = AXIS2_PLACEMENT_3D ( 'NONE', #253, #334, #293 ) ;
#194 = MANIFOLD_SOLID_BREP ( 'È¸Àü3', #116 ) ;
#195 = DIRECTION ( 'NONE',  ( 0.0000000000000000000, -1.224646799147353700E-016, 1.000000000000000000 ) ) ;
#196 = CYLINDRICAL_SURFACE ( 'NONE', #328, 6.000000000000000000 ) ;
#197 = ADVANCED_FACE ( 'NONE', ( #97 ), #88, .T. ) ;
#198 = ORIENTED_EDGE ( 'NONE', *, *, #54, .T. ) ;
#199 = ORIENTED_EDGE ( 'NONE', *, *, #151, .T. ) ;
#200 = AXIS2_PLACEMENT_3D ( 'NONE', #76, #277, #42 ) ;
#201 = CARTESIAN_POINT ( 'NONE',  ( 0.9999999999999986700, 6.123233995736758600E-017, 0.0000000000000000000 ) ) ;
#202 = LOCAL_TIME ( 9, 20, 57.00000000000000000, #270 ) ;
#203 = LINE ( 'NONE', #315, #131 ) ;
#204 = AXIS2_PLACEMENT_3D ( 'NONE', #246, #269, #80 ) ;
#205 = DIRECTION ( 'NONE',  ( 1.000000000000000000, 6.123233995736766000E-017, -0.0000000000000000000 ) ) ;
#206 = EDGE_CURVE ( 'NONE', #7, #91, #230, .T. ) ;
#207 = CONICAL_SURFACE ( 'NONE', #63, 5.999999999999995600, 0.7853981633974543900 ) ;
#208 = EDGE_LOOP ( 'NONE', ( #50, #69, #318, #84 ) ) ;
#209 = AXIS2_PLACEMENT_3D ( 'NONE', #309, #154, #258 ) ;
#210 = CARTESIAN_POINT ( 'NONE',  ( -49.99999999999999300, -3.061616997868382600E-015, 0.0000000000000000000 ) ) ;
#211 = CALENDAR_DATE ( 2023, 31, 7 ) ;
#212 = TOROIDAL_SURFACE ( 'NONE', #228, 5.200000000000000200, 0.7999999999999977100 ) ;
#213 = CARTESIAN_POINT ( 'NONE',  ( 0.9999999999999986700, 6.123233995736758600E-017, 0.0000000000000000000 ) ) ;
#214 = DIRECTION ( 'NONE',  ( -0.0000000000000000000, 1.000000000000000000, 1.224646799147353200E-016 ) ) ;
#215 = FACE_OUTER_BOUND ( 'NONE', #126, .T. ) ;
#216 = EDGE_LOOP ( 'NONE', ( #341, #245, #22, #284 ) ) ;
#217 = APPROVAL_STATUS ( 'not_yet_approved' ) ;
#218 = CC_DESIGN_PERSON_AND_ORGANIZATION_ASSIGNMENT ( #250, #78, ( #74 ) ) ;
#219 = CARTESIAN_POINT ( 'NONE',  ( 32.99999999999999300, 0.0000000000000000000, 0.0000000000000000000 ) ) ;
#220 = PERSON_AND_ORGANIZATION ( #241, #317 ) ;
#221 = EDGE_LOOP ( 'NONE', ( #290, #355 ) ) ;
#222 = CARTESIAN_POINT ( 'NONE',  ( -49.50000000000000000, -3.031000827889699300E-015, 0.0000000000000000000 ) ) ;
#223 = ADVANCED_FACE ( 'NONE', ( #302 ), #184, .T. ) ;
#224 = AXIS2_PLACEMENT_3D ( 'NONE', #156, #261, #103 ) ;
#225 = EDGE_CURVE ( 'NONE', #110, #91, #294, .T. ) ;
#226 = CIRCLE ( 'NONE', #326, 5.200000000000000200 ) ;
#227 = COORDINATED_UNIVERSAL_TIME_OFFSET ( 9, 0, .AHEAD. ) ;
#228 = AXIS2_PLACEMENT_3D ( 'NONE', #135, #255, #95 ) ;
#229 = ORIENTED_EDGE ( 'NONE', *, *, #151, .F. ) ;
#230 = CIRCLE ( 'NONE', #168, 6.000000000000000000 ) ;
#231 = CARTESIAN_POINT ( 'NONE',  ( -49.50000000000000000, -5.999999999999998200, 7.347880794884114800E-016 ) ) ;
#232 = PRODUCT_DEFINITION ( 'UNKNOWN', '', #320, #282 ) ;
#233 = DIRECTION ( 'NONE',  ( -1.000000000000000000, -0.0000000000000000000, -0.0000000000000000000 ) ) ;
#234 = LOCAL_TIME ( 9, 20, 57.00000000000000000, #304 ) ;
#235 = ORIENTED_EDGE ( 'NONE', *, *, #79, .T. ) ;
#236 = CARTESIAN_POINT ( 'NONE',  ( -49.50000000000000000, -3.031000827889699300E-015, 0.0000000000000000000 ) ) ;
#237 = DIRECTION ( 'NONE',  ( 1.000000000000000000, 6.123233995736766000E-017, -0.0000000000000000000 ) ) ;
#238 = DIRECTION ( 'NONE',  ( -7.228014483236695800E-017, 1.000000000000000000, 0.0000000000000000000 ) ) ;
#239 = EDGE_CURVE ( 'NONE', #9, #110, #161, .T. ) ;
#240 = LINE ( 'NONE', #260, #173 ) ;
#241 = PERSON ( 'UNSPECIFIED', 'UNSPECIFIED', 'UNSPECIFIED', ('UNSPECIFIED'), ('UNSPECIFIED'), ('UNSPECIFIED') ) ;
#242 =( LENGTH_UNIT ( ) NAMED_UNIT ( * ) SI_UNIT ( .MILLI., .METRE. ) );
#243 = MECHANICAL_CONTEXT ( 'NONE', #120, 'mechanical' ) ;
#244 = CALENDAR_DATE ( 2023, 31, 7 ) ;
#245 = ORIENTED_EDGE ( 'NONE', *, *, #170, .T. ) ;
#246 = CARTESIAN_POINT ( 'NONE',  ( 32.20000000000000300, 0.0000000000000000000, 0.0000000000000000000 ) ) ;
#247 = DIRECTION ( 'NONE',  ( 0.0000000000000000000, -1.000000000000000000, 0.0000000000000000000 ) ) ;
#248 = PLANE ( 'NONE',  #16 ) ;
#249 = TOROIDAL_SURFACE ( 'NONE', #150, 5.200000000000000200, 0.7999999999999977100 ) ;
#250 = PERSON_AND_ORGANIZATION ( #241, #317 ) ;
#251 = ORIENTED_EDGE ( 'NONE', *, *, #54, .F. ) ;
#252 = APPROVAL ( #217, 'UNSPECIFIED' ) ;
#253 = CARTESIAN_POINT ( 'NONE',  ( 32.99999999999999300, 0.0000000000000000000, 0.0000000000000000000 ) ) ;
#254 = CARTESIAN_POINT ( 'NONE',  ( 32.20000000000000300, 7.347880794884118800E-016, -5.999999999999998200 ) ) ;
#255 = DIRECTION ( 'NONE',  ( -1.000000000000000000, -0.0000000000000000000, -0.0000000000000000000 ) ) ;
#256 = FACE_OUTER_BOUND ( 'NONE', #208, .T. ) ;
#257 = EDGE_CURVE ( 'NONE', #259, #102, #226, .T. ) ;
#258 = DIRECTION ( 'NONE',  ( 0.0000000000000000000, 0.0000000000000000000, 1.000000000000000000 ) ) ;
#259 = VERTEX_POINT ( 'NONE', #85 ) ;
#260 = CARTESIAN_POINT ( 'NONE',  ( -49.50000000000000000, -5.999999999999998200, 7.347880794884114800E-016 ) ) ;
#261 = DIRECTION ( 'NONE',  ( 1.000000000000000000, 6.123233995736766000E-017, -0.0000000000000000000 ) ) ;
#262 = AXIS2_PLACEMENT_3D ( 'NONE', #162, #339, #179 ) ;
#263 = DIRECTION ( 'NONE',  ( 0.0000000000000000000, 1.000000000000000000, 0.0000000000000000000 ) ) ;
#264 = CIRCLE ( 'NONE', #344, 6.000000000000000000 ) ;
#265 = DIRECTION ( 'NONE',  ( -1.000000000000000000, -6.123233995736766000E-017, 0.0000000000000000000 ) ) ;
#266 =( NAMED_UNIT ( * ) PLANE_ANGLE_UNIT ( ) SI_UNIT ( $, .RADIAN. ) );
#267 = ORIENTED_EDGE ( 'NONE', *, *, #101, .T. ) ;
#268 = CC_DESIGN_APPROVAL ( #252, ( #232 ) ) ;
#269 = DIRECTION ( 'NONE',  ( -1.000000000000000000, -0.0000000000000000000, -0.0000000000000000000 ) ) ;
#270 = COORDINATED_UNIVERSAL_TIME_OFFSET ( 9, 0, .AHEAD. ) ;
#271 = LINE ( 'NONE', #181, #331 ) ;
#272 = ADVANCED_FACE ( 'NONE', ( #75 ), #248, .T. ) ;
#273 = EDGE_CURVE ( 'NONE', #102, #110, #349, .T. ) ;
#274 = FACE_OUTER_BOUND ( 'NONE', #216, .T. ) ;
#275 = EDGE_LOOP ( 'NONE', ( #333, #305, #52, #145 ) ) ;
#276 = AXIS2_PLACEMENT_3D ( 'NONE', #308, #285, #358 ) ;
#277 = DIRECTION ( 'NONE',  ( 0.0000000000000000000, 0.0000000000000000000, 1.000000000000000000 ) ) ;
#278 = LOCAL_TIME ( 9, 20, 57.00000000000000000, #343 ) ;
#279 = CIRCLE ( 'NONE', #312, 5.999999999999995600 ) ;
#280 = PLANE ( 'NONE',  #364 ) ;
#281 = PLANE ( 'NONE',  #276 ) ;
#282 = DESIGN_CONTEXT ( 'detailed design', #191, 'design' ) ;
#283 = DIRECTION ( 'NONE',  ( -1.000000000000000000, 0.0000000000000000000, -0.0000000000000000000 ) ) ;
#284 = ORIENTED_EDGE ( 'NONE', *, *, #133, .F. ) ;
#285 = DIRECTION ( 'NONE',  ( 1.000000000000000000, 0.0000000000000000000, 0.0000000000000000000 ) ) ;
#286 = APPROVAL_ROLE ( '' ) ;
#287 = CC_DESIGN_PERSON_AND_ORGANIZATION_ASSIGNMENT ( #8, #163, ( #232 ) ) ;
#288 = DIRECTION ( 'NONE',  ( -1.000000000000000000, -0.0000000000000000000, -0.0000000000000000000 ) ) ;
#289 = APPROVAL_DATE_TIME ( #353, #335 ) ;
#290 = ORIENTED_EDGE ( 'NONE', *, *, #118, .T. ) ;
#291 = CARTESIAN_POINT ( 'NONE',  ( -49.99999999999999300, -5.500000000000000000, 7.041719095097275900E-016 ) ) ;
#292 = EDGE_CURVE ( 'NONE', #259, #9, #359, .T. ) ;
#293 = DIRECTION ( 'NONE',  ( 0.0000000000000000000, 0.0000000000000000000, 1.000000000000000000 ) ) ;
#294 = LINE ( 'NONE', #172, #306 ) ;
#295 = DIRECTION ( 'NONE',  ( 0.0000000000000000000, 1.000000000000000000, 0.0000000000000000000 ) ) ;
#296 = CARTESIAN_POINT ( 'NONE',  ( -49.99999999999999300, 5.499999999999992900, 0.0000000000000000000 ) ) ;
#297 = APPROVAL_PERSON_ORGANIZATION ( #361, #335, #286 ) ;
#298 = PERSON_AND_ORGANIZATION_ROLE ( 'design_supplier' ) ;
#299 = ORIENTED_EDGE ( 'NONE', *, *, #6, .F. ) ;
#300 = CARTESIAN_POINT ( 'NONE',  ( -49.50000000000000000, -3.031000827889699300E-015, 0.0000000000000000000 ) ) ;
#301 = ADVANCED_FACE ( 'NONE', ( #153 ), #207, .T. ) ;
#302 = FACE_OUTER_BOUND ( 'NONE', #221, .T. ) ;
#303 = CC_DESIGN_DATE_AND_TIME_ASSIGNMENT ( #90, #342, ( #232 ) ) ;
#304 = COORDINATED_UNIVERSAL_TIME_OFFSET ( 9, 0, .AHEAD. ) ;
#305 = ORIENTED_EDGE ( 'NONE', *, *, #6, .T. ) ;
#306 = VECTOR ( 'NONE', #348, 1000.000000000000000 ) ;
#307 = DIRECTION ( 'NONE',  ( 1.000000000000000000, 6.123233995736766000E-017, -0.0000000000000000000 ) ) ;
#308 = CARTESIAN_POINT ( 'NONE',  ( 1.000000000000000400, 1.807003620809175600E-016, 0.0000000000000000000 ) ) ;
#309 = CARTESIAN_POINT ( 'NONE',  ( 32.20000000000000300, 0.0000000000000000000, 0.0000000000000000000 ) ) ;
#310 = LOCAL_TIME ( 9, 20, 57.00000000000000000, #18 ) ;
#311 = ORIENTED_EDGE ( 'NONE', *, *, #155, .T. ) ;
#312 = AXIS2_PLACEMENT_3D ( 'NONE', #152, #357, #94 ) ;
#313 = DIRECTION ( 'NONE',  ( 0.0000000000000000000, 0.0000000000000000000, 1.000000000000000000 ) ) ;
#314 = CIRCLE ( 'NONE', #111, 5.999999999999995600 ) ;
#315 = CARTESIAN_POINT ( 'NONE',  ( 3.673940397442059900E-016, -6.000000000000000000, 7.347880794884119700E-016 ) ) ;
#316 = APPROVAL_ROLE ( '' ) ;
#317 = ORGANIZATION ( 'UNSPECIFIED', 'UNSPECIFIED', '' ) ;
#318 = ORIENTED_EDGE ( 'NONE', *, *, #206, .F. ) ;
#319 = APPROVAL_STATUS ( 'not_yet_approved' ) ;
#320 = PRODUCT_DEFINITION_FORMATION_WITH_SPECIFIED_SOURCE ( 'ANY', '', #74, .NOT_KNOWN. ) ;
#321 = PERSON_AND_ORGANIZATION_ROLE ( 'classification_officer' ) ;
#322 = DIRECTION ( 'NONE',  ( -1.000000000000000000, -0.0000000000000000000, -0.0000000000000000000 ) ) ;
#323 = ADVANCED_FACE ( 'NONE', ( #215 ), #51, .T. ) ;
#324 = DIRECTION ( 'NONE',  ( 1.000000000000000000, 6.123233995736766000E-017, -0.0000000000000000000 ) ) ;
#325 = CIRCLE ( 'NONE', #20, 6.000000000000000000 ) ;
#326 = AXIS2_PLACEMENT_3D ( 'NONE', #219, #322, #167 ) ;
#327 = ORIENTED_EDGE ( 'NONE', *, *, #273, .T. ) ;
#328 = AXIS2_PLACEMENT_3D ( 'NONE', #356, #205, #24 ) ;
#329 = APPROVAL_DATE_TIME ( #45, #119 ) ;
#330 = CARTESIAN_POINT ( 'NONE',  ( 0.9999999999999997800, 7.347880794884119700E-016, -6.000000000000000000 ) ) ;
#331 = VECTOR ( 'NONE', #148, 1000.000000000000000 ) ;
#332 = CARTESIAN_POINT ( 'NONE',  ( -3.673940397442059900E-016, 6.000000000000000000, 0.0000000000000000000 ) ) ;
#333 = ORIENTED_EDGE ( 'NONE', *, *, #273, .F. ) ;
#334 = DIRECTION ( 'NONE',  ( -1.000000000000000000, -0.0000000000000000000, -0.0000000000000000000 ) ) ;
#335 = APPROVAL ( #92, 'UNSPECIFIED' ) ;
#336 = APPROVAL_PERSON_ORGANIZATION ( #58, #119, #164 ) ;
#337 = FACE_OUTER_BOUND ( 'NONE', #46, .T. ) ;
#338 = DIRECTION ( 'NONE',  ( -1.000000000000000000, -0.0000000000000000000, -0.0000000000000000000 ) ) ;
#339 = DIRECTION ( 'NONE',  ( -1.000000000000000000, -0.0000000000000000000, -0.0000000000000000000 ) ) ;
#340 = CYLINDRICAL_SURFACE ( 'NONE', #146, 6.000000000000000000 ) ;
#341 = ORIENTED_EDGE ( 'NONE', *, *, #79, .F. ) ;
#342 = DATE_TIME_ROLE ( 'creation_date' ) ;
#343 = COORDINATED_UNIVERSAL_TIME_OFFSET ( 9, 0, .AHEAD. ) ;
#344 = AXIS2_PLACEMENT_3D ( 'NONE', #201, #21, #73 ) ;
#345 = CIRCLE ( 'NONE', #209, 6.000000000000000000 ) ;
#346 = ADVANCED_FACE ( 'NONE', ( #274 ), #340, .T. ) ;
#347 = CARTESIAN_POINT ( 'NONE',  ( 0.0000000000000000000, 0.0000000000000000000, 0.0000000000000000000 ) ) ;
#348 = DIRECTION ( 'NONE',  ( -1.000000000000000000, -0.0000000000000000000, -0.0000000000000000000 ) ) ;
#349 = CIRCLE ( 'NONE', #360, 0.7999999999999977100 ) ;
#350 = ORIENTED_EDGE ( 'NONE', *, *, #101, .F. ) ;
#351 = VERTEX_POINT ( 'NONE', #296 ) ;
#352 = CC_DESIGN_APPROVAL ( #335, ( #320 ) ) ;
#353 = DATE_AND_TIME ( #82, #157 ) ;
#354 = ORIENTED_EDGE ( 'NONE', *, *, #206, .T. ) ;
#355 = ORIENTED_EDGE ( 'NONE', *, *, #133, .T. ) ;
#356 = CARTESIAN_POINT ( 'NONE',  ( 0.0000000000000000000, 0.0000000000000000000, 0.0000000000000000000 ) ) ;
#357 = DIRECTION ( 'NONE',  ( 1.000000000000000000, 6.123233995736766000E-017, -0.0000000000000000000 ) ) ;
#358 = DIRECTION ( 'NONE',  ( 0.0000000000000000000, 0.0000000000000000000, -1.000000000000000000 ) ) ;
#359 = CIRCLE ( 'NONE', #39, 0.7999999999999977100 ) ;
#360 = AXIS2_PLACEMENT_3D ( 'NONE', #3, #214, #195 ) ;
#361 = PERSON_AND_ORGANIZATION ( #241, #317 ) ;
#362 = ORIENTED_EDGE ( 'NONE', *, *, #239, .F. ) ;
#363 = DIRECTION ( 'NONE',  ( 0.0000000000000000000, 0.0000000000000000000, 1.000000000000000000 ) ) ;
#364 = AXIS2_PLACEMENT_3D ( 'NONE', #121, #283, #125 ) ;
#365 = DIRECTION ( 'NONE',  ( -1.000000000000000000, -0.0000000000000000000, -0.0000000000000000000 ) ) ;
ENDSEC;
END-ISO-10303-21;
