ISO-10303-21;
HEADER;
FILE_DESCRIPTION (( 'STEP AP203' ),
    '1' );
FILE_NAME ('03-3201.STEP',
    '2023-07-31T00:21:49',
    ( 'USER' ),
    ( 'Hewlett-Packard Company' ),
    'SwSTEP 2.0',
    'SolidWorks 2014',
    '' );
FILE_SCHEMA (( 'CONFIG_CONTROL_DESIGN' ));
ENDSEC;

DATA;
#1 = APPLICATION_PROTOCOL_DEFINITION ( 'international standard', 'config_control_design', 1994, #309 ) ;
#2 = APPROVAL_STATUS ( 'not_yet_approved' ) ;
#3 = ORIENTED_EDGE ( 'NONE', *, *, #78, .F. ) ;
#4 = DIRECTION ( 'NONE',  ( -6.123233995736766000E-017, 1.000000000000000000, 0.0000000000000000000 ) ) ;
#5 = DATE_AND_TIME ( #76, #153 ) ;
#6 = DIRECTION ( 'NONE',  ( -0.0000000000000000000, 0.0000000000000000000, 1.000000000000000000 ) ) ;
#7 = EDGE_CURVE ( 'NONE', #231, #167, #41, .T. ) ;
#8 = DATE_TIME_ROLE ( 'classification_date' ) ;
#9 = APPROVAL ( #201, 'UNSPECIFIED' ) ;
#10 = CYLINDRICAL_SURFACE ( 'NONE', #72, 8.000000000000000000 ) ;
#11 =( GEOMETRIC_REPRESENTATION_CONTEXT ( 3 ) GLOBAL_UNCERTAINTY_ASSIGNED_CONTEXT ( ( #262 ) ) GLOBAL_UNIT_ASSIGNED_CONTEXT ( ( #346, #313, #338 ) ) REPRESENTATION_CONTEXT ( 'NONE', 'WORKASPACE' ) );
#12 = VERTEX_POINT ( 'NONE', #154 ) ;
#13 = PRODUCT_DEFINITION_SHAPE ( 'NONE', 'NONE',  #117 ) ;
#14 = PERSON_AND_ORGANIZATION ( #343, #161 ) ;
#15 = ADVANCED_FACE ( 'NONE', ( #111 ), #122, .T. ) ;
#16 = DIRECTION ( 'NONE',  ( -1.000000000000000000, -0.0000000000000000000, -0.0000000000000000000 ) ) ;
#17 = DIRECTION ( 'NONE',  ( -1.000000000000000000, -0.0000000000000000000, -0.0000000000000000000 ) ) ;
#18 = VERTEX_POINT ( 'NONE', #293 ) ;
#19 = AXIS2_PLACEMENT_3D ( 'NONE', #268, #48, #243 ) ;
#20 = CIRCLE ( 'NONE', #148, 8.000000000000000000 ) ;
#21 = PLANE ( 'NONE',  #322 ) ;
#22 = EDGE_LOOP ( 'NONE', ( #337, #75 ) ) ;
#23 = CARTESIAN_POINT ( 'NONE',  ( -48.49999999999998600, -2.969768487932330900E-015, 0.0000000000000000000 ) ) ;
#24 = CARTESIAN_POINT ( 'NONE',  ( 0.9999999999999983300, 6.123233995736756200E-017, 0.0000000000000000000 ) ) ;
#25 = EDGE_CURVE ( 'NONE', #208, #59, #324, .T. ) ;
#26 = CIRCLE ( 'NONE', #245, 7.599999999999998800 ) ;
#27 = ORIENTED_EDGE ( 'NONE', *, *, #330, .F. ) ;
#28 = DIRECTION ( 'NONE',  ( 1.000000000000000000, 6.123233995736766000E-017, -0.0000000000000000000 ) ) ;
#29 = LINE ( 'NONE', #273, #307 ) ;
#30 = CC_DESIGN_APPROVAL ( #9, ( #314 ) ) ;
#31 = SECURITY_CLASSIFICATION_LEVEL ( 'unclassified' ) ;
#32 = ORIENTED_EDGE ( 'NONE', *, *, #113, .F. ) ;
#33 = PERSON_AND_ORGANIZATION_ROLE ( 'creator' ) ;
#34 = CARTESIAN_POINT ( 'NONE',  ( 0.9999999999999997800, 0.0000000000000000000, 8.000000000000000000 ) ) ;
#35 = APPROVAL_ROLE ( '' ) ;
#36 = EDGE_LOOP ( 'NONE', ( #271, #136, #175, #360 ) ) ;
#37 = LOCAL_TIME ( 9, 21, 49.00000000000000000, #109 ) ;
#38 = DIRECTION ( 'NONE',  ( 0.0000000000000000000, 0.0000000000000000000, 1.000000000000000000 ) ) ;
#39 = DIRECTION ( 'NONE',  ( -1.000000000000000000, -0.0000000000000000000, -0.0000000000000000000 ) ) ;
#40 = EDGE_CURVE ( 'NONE', #299, #116, #146, .T. ) ;
#41 = CIRCLE ( 'NONE', #155, 0.4000000000000036300 ) ;
#42 = DIRECTION ( 'NONE',  ( -1.000000000000000000, -0.0000000000000000000, -0.0000000000000000000 ) ) ;
#43 = CC_DESIGN_SECURITY_CLASSIFICATION ( #314, ( #224 ) ) ;
#44 = ORIENTED_EDGE ( 'NONE', *, *, #270, .T. ) ;
#45 = CIRCLE ( 'NONE', #254, 8.000000000000001800 ) ;
#46 = DIRECTION ( 'NONE',  ( 0.0000000000000000000, 1.000000000000000000, 0.0000000000000000000 ) ) ;
#47 = CALENDAR_DATE ( 2023, 31, 7 ) ;
#48 = DIRECTION ( 'NONE',  ( 1.000000000000000000, 6.123233995736766000E-017, -0.0000000000000000000 ) ) ;
#49 = ORIENTED_EDGE ( 'NONE', *, *, #351, .T. ) ;
#50 = CARTESIAN_POINT ( 'NONE',  ( 0.0000000000000000000, 0.0000000000000000000, 0.0000000000000000000 ) ) ;
#51 = PERSON_AND_ORGANIZATION ( #343, #161 ) ;
#52 = AXIS2_PLACEMENT_3D ( 'NONE', #207, #39, #38 ) ;
#53 = TOROIDAL_SURFACE ( 'NONE', #363, 7.599999999999999600, 0.4000000000000032400 ) ;
#54 = ORIENTED_EDGE ( 'NONE', *, *, #236, .T. ) ;
#55 = CONICAL_SURFACE ( 'NONE', #124, 8.000000000000000000, 0.7853981633974439500 ) ;
#56 = PERSON_AND_ORGANIZATION_ROLE ( 'creator' ) ;
#57 = VECTOR ( 'NONE', #42, 1000.000000000000000 ) ;
#58 = CARTESIAN_POINT ( 'NONE',  ( 41.00000000000000700, -3.743350658686798200E-014, 0.0000000000000000000 ) ) ;
#59 = VERTEX_POINT ( 'NONE', #123 ) ;
#60 = EDGE_LOOP ( 'NONE', ( #214, #248, #66, #190 ) ) ;
#61 = EDGE_CURVE ( 'NONE', #231, #208, #26, .T. ) ;
#62 = COORDINATED_UNIVERSAL_TIME_OFFSET ( 9, 0, .AHEAD. ) ;
#63 = ORIENTED_EDGE ( 'NONE', *, *, #78, .T. ) ;
#64 = PRODUCT_RELATED_PRODUCT_CATEGORY ( 'detail', '', ( #92 ) ) ;
#65 = VECTOR ( 'NONE', #266, 1000.000000000000000 ) ;
#66 = ORIENTED_EDGE ( 'NONE', *, *, #220, .F. ) ;
#67 = DIRECTION ( 'NONE',  ( -1.000000000000000000, -0.0000000000000000000, -0.0000000000000000000 ) ) ;
#68 = CARTESIAN_POINT ( 'NONE',  ( -48.99999999999998600, -3.000384657911014700E-015, 0.0000000000000000000 ) ) ;
#69 = LOCAL_TIME ( 9, 21, 49.00000000000000000, #144 ) ;
#70 = ADVANCED_FACE ( 'NONE', ( #303 ), #21, .T. ) ;
#71 = CARTESIAN_POINT ( 'NONE',  ( 40.60000000000000100, 9.307315673519885500E-016, -7.599999999999999600 ) ) ;
#72 = AXIS2_PLACEMENT_3D ( 'NONE', #50, #329, #103 ) ;
#73 = FACE_OUTER_BOUND ( 'NONE', #159, .T. ) ;
#74 = CARTESIAN_POINT ( 'NONE',  ( -48.49999999999998600, -2.969768487932330900E-015, 0.0000000000000000000 ) ) ;
#75 = ORIENTED_EDGE ( 'NONE', *, *, #290, .T. ) ;
#76 = CALENDAR_DATE ( 2023, 31, 7 ) ;
#77 = DIRECTION ( 'NONE',  ( 0.7071067811865505700, -0.7071067811865444600, 8.659560562354895900E-017 ) ) ;
#78 = EDGE_CURVE ( 'NONE', #167, #59, #277, .T. ) ;
#79 = EDGE_LOOP ( 'NONE', ( #305, #182, #3, #107 ) ) ;
#80 = CARTESIAN_POINT ( 'NONE',  ( -48.99999999999999300, -3.000384657911015100E-015, 0.0000000000000000000 ) ) ;
#81 = CIRCLE ( 'NONE', #19, 7.499999999999997300 ) ;
#82 = MECHANICAL_CONTEXT ( 'NONE', #309, 'mechanical' ) ;
#83 = AXIS2_PLACEMENT_3D ( 'NONE', #147, #138, #247 ) ;
#84 = DIRECTION ( 'NONE',  ( 0.0000000000000000000, 0.0000000000000000000, 1.000000000000000000 ) ) ;
#85 = ORIENTED_EDGE ( 'NONE', *, *, #141, .F. ) ;
#86 = PERSON_AND_ORGANIZATION ( #343, #161 ) ;
#87 = CARTESIAN_POINT ( 'NONE',  ( -48.99999999999999300, -7.500000000000000000, 9.491012693391985800E-016 ) ) ;
#88 = DIRECTION ( 'NONE',  ( 0.0000000000000000000, -1.000000000000000000, 0.0000000000000000000 ) ) ;
#89 = CLOSED_SHELL ( 'NONE', ( #292, #352, #15, #70, #237, #151 ) ) ;
#90 = AXIS2_PLACEMENT_3D ( 'NONE', #24, #219, #298 ) ;
#91 = VECTOR ( 'NONE', #132, 1000.000000000000000 ) ;
#92 = PRODUCT ( '03-3201', '03-3201', '', ( #82 ) ) ;
#93 = ORIENTED_EDGE ( 'NONE', *, *, #40, .F. ) ;
#94 = DIRECTION ( 'NONE',  ( -1.000000000000000000, -6.123233995736766000E-017, 0.0000000000000000000 ) ) ;
#95 = ADVANCED_FACE ( 'NONE', ( #244 ), #53, .T. ) ;
#96 = EDGE_CURVE ( 'NONE', #59, #12, #189, .T. ) ;
#97 = DIRECTION ( 'NONE',  ( 0.0000000000000000000, -1.224646799147350000E-016, 1.000000000000000000 ) ) ;
#98 = FACE_OUTER_BOUND ( 'NONE', #325, .T. ) ;
#99 = CC_DESIGN_PERSON_AND_ORGANIZATION_ASSIGNMENT ( #86, #281, ( #92 ) ) ;
#100 = EDGE_LOOP ( 'NONE', ( #228, #44 ) ) ;
#101 = DIRECTION ( 'NONE',  ( 0.0000000000000000000, 1.000000000000000000, 0.0000000000000000000 ) ) ;
#102 = CONICAL_SURFACE ( 'NONE', #357, 8.000000000000000000, 0.7853981633974439500 ) ;
#103 = DIRECTION ( 'NONE',  ( -6.123233995736766000E-017, 1.000000000000000000, 0.0000000000000000000 ) ) ;
#104 = DIRECTION ( 'NONE',  ( 1.000000000000000000, 6.123233995736766000E-017, -0.0000000000000000000 ) ) ;
#105 = AXIS2_PLACEMENT_3D ( 'NONE', #301, #361, #188 ) ;
#106 = DIRECTION ( 'NONE',  ( 0.0000000000000000000, 1.000000000000000000, 0.0000000000000000000 ) ) ;
#107 = ORIENTED_EDGE ( 'NONE', *, *, #7, .F. ) ;
#108 = CARTESIAN_POINT ( 'NONE',  ( 0.9999999999999997800, 0.0000000000000000000, 0.0000000000000000000 ) ) ;
#109 = COORDINATED_UNIVERSAL_TIME_OFFSET ( 9, 0, .AHEAD. ) ;
#110 = CARTESIAN_POINT ( 'NONE',  ( 40.60000000000000900, 0.0000000000000000000, 0.0000000000000000000 ) ) ;
#111 = FACE_OUTER_BOUND ( 'NONE', #22, .T. ) ;
#112 = CARTESIAN_POINT ( 'NONE',  ( 40.60000000000000100, 0.0000000000000000000, 0.0000000000000000000 ) ) ;
#113 = EDGE_CURVE ( 'NONE', #347, #12, #174, .T. ) ;
#114 = LOCAL_TIME ( 9, 21, 49.00000000000000000, #192 ) ;
#115 = DIRECTION ( 'NONE',  ( 0.0000000000000000000, 0.0000000000000000000, 1.000000000000000000 ) ) ;
#116 = VERTEX_POINT ( 'NONE', #238 ) ;
#117 = PRODUCT_DEFINITION ( 'UNKNOWN', '', #224, #169 ) ;
#118 = FACE_OUTER_BOUND ( 'NONE', #60, .T. ) ;
#119 = ORIENTED_EDGE ( 'NONE', *, *, #330, .T. ) ;
#120 = ADVANCED_FACE ( 'NONE', ( #98 ), #240, .T. ) ;
#121 = APPROVAL_DATE_TIME ( #200, #239 ) ;
#122 = PLANE ( 'NONE',  #212 ) ;
#123 = CARTESIAN_POINT ( 'NONE',  ( 40.60000000000000900, 9.797174393178827600E-016, -8.000000000000003600 ) ) ;
#124 = AXIS2_PLACEMENT_3D ( 'NONE', #74, #184, #101 ) ;
#125 = ORIENTED_EDGE ( 'NONE', *, *, #61, .F. ) ;
#126 = DIRECTION ( 'NONE',  ( -1.000000000000000000, -0.0000000000000000000, -0.0000000000000000000 ) ) ;
#127 = TOROIDAL_SURFACE ( 'NONE', #204, 7.599999999999999600, 0.4000000000000032400 ) ;
#128 = DIRECTION ( 'NONE',  ( 1.000000000000000000, 6.123233995736766000E-017, -0.0000000000000000000 ) ) ;
#129 = CARTESIAN_POINT ( 'NONE',  ( 0.9999999999999986700, -8.000000000000000000, 9.797174393178825700E-016 ) ) ;
#130 = ORIENTED_EDGE ( 'NONE', *, *, #7, .T. ) ;
#131 = CARTESIAN_POINT ( 'NONE',  ( 40.60000000000000900, 0.0000000000000000000, 8.000000000000003600 ) ) ;
#132 = DIRECTION ( 'NONE',  ( -1.000000000000000000, -0.0000000000000000000, -0.0000000000000000000 ) ) ;
#133 = APPROVAL_PERSON_ORGANIZATION ( #211, #239, #196 ) ;
#134 = EDGE_CURVE ( 'NONE', #167, #347, #165, .T. ) ;
#135 = ADVANCED_BREP_SHAPE_REPRESENTATION ( '03-3201', ( #202, #332, #83 ), #11 ) ;
#136 = ORIENTED_EDGE ( 'NONE', *, *, #40, .T. ) ;
#137 = LINE ( 'NONE', #183, #65 ) ;
#138 = DIRECTION ( 'NONE',  ( 0.0000000000000000000, 0.0000000000000000000, 1.000000000000000000 ) ) ;
#139 = APPROVAL ( #172, 'UNSPECIFIED' ) ;
#140 = PLANE ( 'NONE',  #316 ) ;
#141 = EDGE_CURVE ( 'NONE', #317, #299, #29, .T. ) ;
#142 = EDGE_LOOP ( 'NONE', ( #85, #49, #54, #93 ) ) ;
#143 = DIRECTION ( 'NONE',  ( 0.0000000000000000000, 0.0000000000000000000, 1.000000000000000000 ) ) ;
#144 = COORDINATED_UNIVERSAL_TIME_OFFSET ( 9, 0, .AHEAD. ) ;
#145 = APPLICATION_CONTEXT ( 'configuration controlled 3d designs of mechanical parts and assemblies' ) ;
#146 = CIRCLE ( 'NONE', #230, 8.000000000000000000 ) ;
#147 = CARTESIAN_POINT ( 'NONE',  ( 0.0000000000000000000, 0.0000000000000000000, 0.0000000000000000000 ) ) ;
#148 = AXIS2_PLACEMENT_3D ( 'NONE', #23, #217, #46 ) ;
#149 = CIRCLE ( 'NONE', #90, 8.000000000000000000 ) ;
#150 = ORIENTED_EDGE ( 'NONE', *, *, #270, .F. ) ;
#151 = ADVANCED_FACE ( 'NONE', ( #315 ), #10, .T. ) ;
#152 = DIRECTION ( 'NONE',  ( -1.000000000000000000, -0.0000000000000000000, -0.0000000000000000000 ) ) ;
#153 = LOCAL_TIME ( 9, 21, 49.00000000000000000, #229 ) ;
#154 = CARTESIAN_POINT ( 'NONE',  ( 0.9999999999999997800, 9.797174393178825700E-016, -8.000000000000000000 ) ) ;
#155 = AXIS2_PLACEMENT_3D ( 'NONE', #320, #88, #323 ) ;
#156 = DIRECTION ( 'NONE',  ( 0.0000000000000000000, 0.0000000000000000000, 1.000000000000000000 ) ) ;
#157 = ORIENTED_EDGE ( 'NONE', *, *, #312, .F. ) ;
#158 = FACE_OUTER_BOUND ( 'NONE', #100, .T. ) ;
#159 = EDGE_LOOP ( 'NONE', ( #261, #194, #279, #150 ) ) ;
#160 = EDGE_CURVE ( 'NONE', #18, #317, #81, .T. ) ;
#161 = ORGANIZATION ( 'UNSPECIFIED', 'UNSPECIFIED', '' ) ;
#162 = ORIENTED_EDGE ( 'NONE', *, *, #160, .F. ) ;
#163 = CC_DESIGN_APPROVAL ( #139, ( #117 ) ) ;
#164 = AXIS2_PLACEMENT_3D ( 'NONE', #300, #126, #358 ) ;
#165 = LINE ( 'NONE', #331, #91 ) ;
#166 = DIRECTION ( 'NONE',  ( -1.000000000000000000, -0.0000000000000000000, -0.0000000000000000000 ) ) ;
#167 = VERTEX_POINT ( 'NONE', #131 ) ;
#168 = PERSON_AND_ORGANIZATION_ROLE ( 'classification_officer' ) ;
#169 = DESIGN_CONTEXT ( 'detailed design', #145, 'design' ) ;
#170 = CARTESIAN_POINT ( 'NONE',  ( 0.0000000000000000000, 0.0000000000000000000, 0.0000000000000000000 ) ) ;
#171 = DIRECTION ( 'NONE',  ( -1.000000000000000000, 0.0000000000000000000, -0.0000000000000000000 ) ) ;
#172 = APPROVAL_STATUS ( 'not_yet_approved' ) ;
#173 = DIRECTION ( 'NONE',  ( 0.0000000000000000000, 1.000000000000000000, 0.0000000000000000000 ) ) ;
#174 = CIRCLE ( 'NONE', #345, 8.000000000000000000 ) ;
#175 = ORIENTED_EDGE ( 'NONE', *, *, #177, .T. ) ;
#176 = APPROVAL_DATE_TIME ( #250, #9 ) ;
#177 = EDGE_CURVE ( 'NONE', #116, #341, #297, .T. ) ;
#178 = CARTESIAN_POINT ( 'NONE',  ( 41.00000000000000700, 0.0000000000000000000, 0.0000000000000000000 ) ) ;
#179 = ADVANCED_FACE ( 'NONE', ( #158 ), #327, .F. ) ;
#180 = CC_DESIGN_PERSON_AND_ORGANIZATION_ASSIGNMENT ( #221, #56, ( #117 ) ) ;
#181 = AXIS2_PLACEMENT_3D ( 'NONE', #108, #283, #84 ) ;
#182 = ORIENTED_EDGE ( 'NONE', *, *, #25, .T. ) ;
#183 = CARTESIAN_POINT ( 'NONE',  ( -48.49999999999998600, 7.999999999999996400, 0.0000000000000000000 ) ) ;
#184 = DIRECTION ( 'NONE',  ( 1.000000000000000000, 6.123233995736766000E-017, -0.0000000000000000000 ) ) ;
#185 = CIRCLE ( 'NONE', #336, 7.499999999999997300 ) ;
#186 = APPROVAL_PERSON_ORGANIZATION ( #257, #9, #35 ) ;
#187 = CARTESIAN_POINT ( 'NONE',  ( 41.00000000000000700, 9.552245033349358500E-016, -7.599999999999998800 ) ) ;
#188 = DIRECTION ( 'NONE',  ( 0.0000000000000000000, 0.0000000000000000000, -1.000000000000000000 ) ) ;
#189 = LINE ( 'NONE', #213, #57 ) ;
#190 = ORIENTED_EDGE ( 'NONE', *, *, #236, .F. ) ;
#191 = AXIS2_PLACEMENT_3D ( 'NONE', #71, #264, #97 ) ;
#192 = COORDINATED_UNIVERSAL_TIME_OFFSET ( 9, 0, .AHEAD. ) ;
#193 = CARTESIAN_POINT ( 'NONE',  ( -48.49999999999998600, -2.969768487932330900E-015, 0.0000000000000000000 ) ) ;
#194 = ORIENTED_EDGE ( 'NONE', *, *, #312, .T. ) ;
#195 = PERSON_AND_ORGANIZATION_ROLE ( 'design_supplier' ) ;
#196 = APPROVAL_ROLE ( '' ) ;
#197 = EDGE_CURVE ( 'NONE', #341, #205, #149, .T. ) ;
#198 = ORIENTED_EDGE ( 'NONE', *, *, #96, .T. ) ;
#199 = CARTESIAN_POINT ( 'NONE',  ( 0.9999999999999978900, 8.000000000000000000, 0.0000000000000000000 ) ) ;
#200 = DATE_AND_TIME ( #274, #353 ) ;
#201 = APPROVAL_STATUS ( 'not_yet_approved' ) ;
#202 = MANIFOLD_SOLID_BREP ( 'È¸Àü3', #272 ) ;
#203 = CC_DESIGN_DATE_AND_TIME_ASSIGNMENT ( #285, #249, ( #117 ) ) ;
#204 = AXIS2_PLACEMENT_3D ( 'NONE', #112, #286, #115 ) ;
#205 = VERTEX_POINT ( 'NONE', #129 ) ;
#206 = LINE ( 'NONE', #326, #282 ) ;
#207 = CARTESIAN_POINT ( 'NONE',  ( 0.0000000000000000000, 0.0000000000000000000, 0.0000000000000000000 ) ) ;
#208 = VERTEX_POINT ( 'NONE', #187 ) ;
#209 = DIRECTION ( 'NONE',  ( 0.0000000000000000000, 0.0000000000000000000, 1.000000000000000000 ) ) ;
#210 = ADVANCED_FACE ( 'NONE', ( #73 ), #215, .T. ) ;
#211 = PERSON_AND_ORGANIZATION ( #343, #161 ) ;
#212 = AXIS2_PLACEMENT_3D ( 'NONE', #222, #321, #356 ) ;
#213 = CARTESIAN_POINT ( 'NONE',  ( 0.0000000000000000000, 9.797174393178825700E-016, -8.000000000000000000 ) ) ;
#214 = ORIENTED_EDGE ( 'NONE', *, *, #160, .T. ) ;
#215 = CYLINDRICAL_SURFACE ( 'NONE', #164, 8.000000000000000000 ) ;
#216 = CARTESIAN_POINT ( 'NONE',  ( 41.00000000000000700, 0.0000000000000000000, 7.599999999999998800 ) ) ;
#217 = DIRECTION ( 'NONE',  ( 1.000000000000000000, 6.123233995736766000E-017, -0.0000000000000000000 ) ) ;
#218 = ORIENTED_EDGE ( 'NONE', *, *, #220, .T. ) ;
#219 = DIRECTION ( 'NONE',  ( 1.000000000000000000, 6.123233995736766000E-017, -0.0000000000000000000 ) ) ;
#220 = EDGE_CURVE ( 'NONE', #116, #299, #20, .T. ) ;
#221 = PERSON_AND_ORGANIZATION ( #343, #161 ) ;
#222 = CARTESIAN_POINT ( 'NONE',  ( 0.9999999999999986700, 8.000000000000000000, 0.0000000000000000000 ) ) ;
#223 = DIRECTION ( 'NONE',  ( 0.0000000000000000000, 1.000000000000000000, 0.0000000000000000000 ) ) ;
#224 = PRODUCT_DEFINITION_FORMATION_WITH_SPECIFIED_SOURCE ( 'ANY', '', #92, .NOT_KNOWN. ) ;
#225 = AXIS2_PLACEMENT_3D ( 'NONE', #275, #104, #306 ) ;
#226 = VECTOR ( 'NONE', #269, 1000.000000000000000 ) ;
#227 = APPROVAL_ROLE ( '' ) ;
#228 = ORIENTED_EDGE ( 'NONE', *, *, #113, .T. ) ;
#229 = COORDINATED_UNIVERSAL_TIME_OFFSET ( 9, 0, .AHEAD. ) ;
#230 = AXIS2_PLACEMENT_3D ( 'NONE', #193, #28, #223 ) ;
#231 = VERTEX_POINT ( 'NONE', #216 ) ;
#232 = FACE_OUTER_BOUND ( 'NONE', #142, .T. ) ;
#233 = ORIENTED_EDGE ( 'NONE', *, *, #251, .T. ) ;
#234 = CARTESIAN_POINT ( 'NONE',  ( 0.9999999999999997800, 0.0000000000000000000, 0.0000000000000000000 ) ) ;
#235 = SHAPE_DEFINITION_REPRESENTATION ( #13, #135 ) ;
#236 = EDGE_CURVE ( 'NONE', #18, #116, #137, .T. ) ;
#237 = ADVANCED_FACE ( 'NONE', ( #232 ), #55, .T. ) ;
#238 = CARTESIAN_POINT ( 'NONE',  ( -48.49999999999998600, 7.999999999999996400, 0.0000000000000000000 ) ) ;
#239 = APPROVAL ( #2, 'UNSPECIFIED' ) ;
#240 = CYLINDRICAL_SURFACE ( 'NONE', #52, 8.000000000000000000 ) ;
#241 = ORIENTED_EDGE ( 'NONE', *, *, #25, .F. ) ;
#242 = CARTESIAN_POINT ( 'NONE',  ( -4.898587196589412800E-016, 8.000000000000000000, 0.0000000000000000000 ) ) ;
#243 = DIRECTION ( 'NONE',  ( 0.0000000000000000000, 1.000000000000000000, 0.0000000000000000000 ) ) ;
#244 = FACE_OUTER_BOUND ( 'NONE', #79, .T. ) ;
#245 = AXIS2_PLACEMENT_3D ( 'NONE', #178, #16, #209 ) ;
#246 = CARTESIAN_POINT ( 'NONE',  ( -48.49999999999998600, -8.000000000000003600, 9.797174393178825700E-016 ) ) ;
#247 = DIRECTION ( 'NONE',  ( 1.000000000000000000, 0.0000000000000000000, 0.0000000000000000000 ) ) ;
#248 = ORIENTED_EDGE ( 'NONE', *, *, #141, .T. ) ;
#249 = DATE_TIME_ROLE ( 'creation_date' ) ;
#250 = DATE_AND_TIME ( #328, #37 ) ;
#251 = EDGE_CURVE ( 'NONE', #299, #205, #206, .T. ) ;
#252 = CARTESIAN_POINT ( 'NONE',  ( -48.49999999999998600, -2.969768487932330900E-015, 0.0000000000000000000 ) ) ;
#253 = CC_DESIGN_APPROVAL ( #239, ( #224 ) ) ;
#254 = AXIS2_PLACEMENT_3D ( 'NONE', #110, #311, #143 ) ;
#255 = EDGE_LOOP ( 'NONE', ( #162, #265 ) ) ;
#256 = FACE_OUTER_BOUND ( 'NONE', #355, .T. ) ;
#257 = PERSON_AND_ORGANIZATION ( #343, #161 ) ;
#258 = DIRECTION ( 'NONE',  ( 0.0000000000000000000, 0.0000000000000000000, 1.000000000000000000 ) ) ;
#259 = ADVANCED_FACE ( 'NONE', ( #365 ), #127, .T. ) ;
#260 = EDGE_LOOP ( 'NONE', ( #218, #233, #310, #349 ) ) ;
#261 = ORIENTED_EDGE ( 'NONE', *, *, #96, .F. ) ;
#262 = UNCERTAINTY_MEASURE_WITH_UNIT (LENGTH_MEASURE( 1.000000000000000100E-005 ), #346, 'distance_accuracy_value', 'NONE');
#263 = PERSON_AND_ORGANIZATION ( #343, #161 ) ;
#264 = DIRECTION ( 'NONE',  ( -0.0000000000000000000, 1.000000000000000000, 1.224646799147353200E-016 ) ) ;
#265 = ORIENTED_EDGE ( 'NONE', *, *, #351, .F. ) ;
#266 = DIRECTION ( 'NONE',  ( 0.7071067811865505700, 0.7071067811865444600, 0.0000000000000000000 ) ) ;
#267 = FACE_OUTER_BOUND ( 'NONE', #260, .T. ) ;
#268 = CARTESIAN_POINT ( 'NONE',  ( -48.99999999999999300, -3.000384657911015100E-015, 0.0000000000000000000 ) ) ;
#269 = DIRECTION ( 'NONE',  ( 1.000000000000000000, 6.123233995736766000E-017, -0.0000000000000000000 ) ) ;
#270 = EDGE_CURVE ( 'NONE', #12, #347, #287, .T. ) ;
#271 = ORIENTED_EDGE ( 'NONE', *, *, #251, .F. ) ;
#272 = CLOSED_SHELL ( 'NONE', ( #120, #95, #259, #210, #179, #319 ) ) ;
#273 = CARTESIAN_POINT ( 'NONE',  ( -48.49999999999998600, -8.000000000000003600, 9.797174393178825700E-016 ) ) ;
#274 = CALENDAR_DATE ( 2023, 31, 7 ) ;
#275 = CARTESIAN_POINT ( 'NONE',  ( 0.9999999999999983300, 6.123233995736756200E-017, 0.0000000000000000000 ) ) ;
#276 = CC_DESIGN_PERSON_AND_ORGANIZATION_ASSIGNMENT ( #51, #33, ( #224 ) ) ;
#277 = CIRCLE ( 'NONE', #304, 8.000000000000001800 ) ;
#278 = DIRECTION ( 'NONE',  ( 1.000000000000000000, 6.123233995736766000E-017, -0.0000000000000000000 ) ) ;
#279 = ORIENTED_EDGE ( 'NONE', *, *, #134, .T. ) ;
#280 = AXIS2_PLACEMENT_3D ( 'NONE', #170, #333, #4 ) ;
#281 = PERSON_AND_ORGANIZATION_ROLE ( 'design_owner' ) ;
#282 = VECTOR ( 'NONE', #128, 1000.000000000000000 ) ;
#283 = DIRECTION ( 'NONE',  ( -1.000000000000000000, -0.0000000000000000000, -0.0000000000000000000 ) ) ;
#284 = ORIENTED_EDGE ( 'NONE', *, *, #134, .F. ) ;
#285 = DATE_AND_TIME ( #362, #69 ) ;
#286 = DIRECTION ( 'NONE',  ( -1.000000000000000000, -0.0000000000000000000, -0.0000000000000000000 ) ) ;
#287 = CIRCLE ( 'NONE', #181, 8.000000000000000000 ) ;
#288 = EDGE_LOOP ( 'NONE', ( #241, #119, #130, #157 ) ) ;
#289 = DIRECTION ( 'NONE',  ( 6.123233995736766000E-017, -1.000000000000000000, 0.0000000000000000000 ) ) ;
#290 = EDGE_CURVE ( 'NONE', #205, #341, #348, .T. ) ;
#291 = APPROVAL_DATE_TIME ( #5, #139 ) ;
#292 = ADVANCED_FACE ( 'NONE', ( #267 ), #339, .T. ) ;
#293 = CARTESIAN_POINT ( 'NONE',  ( -48.99999999999999300, 7.499999999999994700, 0.0000000000000000000 ) ) ;
#294 = CARTESIAN_POINT ( 'NONE',  ( 40.60000000000000100, 0.0000000000000000000, 0.0000000000000000000 ) ) ;
#295 = CC_DESIGN_PERSON_AND_ORGANIZATION_ASSIGNMENT ( #344, #195, ( #224 ) ) ;
#296 = AXIS2_PLACEMENT_3D ( 'NONE', #335, #166, #364 ) ;
#297 = LINE ( 'NONE', #242, #226 ) ;
#298 = DIRECTION ( 'NONE',  ( -5.421010862427522200E-017, 1.000000000000000000, 0.0000000000000000000 ) ) ;
#299 = VERTEX_POINT ( 'NONE', #246 ) ;
#300 = CARTESIAN_POINT ( 'NONE',  ( 0.0000000000000000000, 0.0000000000000000000, 0.0000000000000000000 ) ) ;
#301 = CARTESIAN_POINT ( 'NONE',  ( 1.000000000000000400, 1.355252715606881800E-016, 0.0000000000000000000 ) ) ;
#302 = APPROVAL_PERSON_ORGANIZATION ( #14, #139, #227 ) ;
#303 = FACE_OUTER_BOUND ( 'NONE', #255, .T. ) ;
#304 = AXIS2_PLACEMENT_3D ( 'NONE', #318, #152, #350 ) ;
#305 = ORIENTED_EDGE ( 'NONE', *, *, #61, .T. ) ;
#306 = DIRECTION ( 'NONE',  ( -5.421010862427522200E-017, 1.000000000000000000, 0.0000000000000000000 ) ) ;
#307 = VECTOR ( 'NONE', #77, 1000.000000000000000 ) ;
#308 = DIRECTION ( 'NONE',  ( 1.000000000000000000, 6.123233995736766000E-017, -0.0000000000000000000 ) ) ;
#309 = APPLICATION_CONTEXT ( 'configuration controlled 3d designs of mechanical parts and assemblies' ) ;
#310 = ORIENTED_EDGE ( 'NONE', *, *, #197, .F. ) ;
#311 = DIRECTION ( 'NONE',  ( -1.000000000000000000, -0.0000000000000000000, -0.0000000000000000000 ) ) ;
#312 = EDGE_CURVE ( 'NONE', #59, #167, #45, .T. ) ;
#313 =( NAMED_UNIT ( * ) PLANE_ANGLE_UNIT ( ) SI_UNIT ( $, .RADIAN. ) );
#314 = SECURITY_CLASSIFICATION ( '', '', #31 ) ;
#315 = FACE_OUTER_BOUND ( 'NONE', #36, .T. ) ;
#316 = AXIS2_PLACEMENT_3D ( 'NONE', #58, #171, #6 ) ;
#317 = VERTEX_POINT ( 'NONE', #87 ) ;
#318 = CARTESIAN_POINT ( 'NONE',  ( 40.60000000000000900, 0.0000000000000000000, 0.0000000000000000000 ) ) ;
#319 = ADVANCED_FACE ( 'NONE', ( #256 ), #140, .F. ) ;
#320 = CARTESIAN_POINT ( 'NONE',  ( 40.60000000000000100, 0.0000000000000000000, 7.599999999999999600 ) ) ;
#321 = DIRECTION ( 'NONE',  ( 1.000000000000000000, 6.123233995736766000E-017, -0.0000000000000000000 ) ) ;
#322 = AXIS2_PLACEMENT_3D ( 'NONE', #68, #94, #289 ) ;
#323 = DIRECTION ( 'NONE',  ( 0.0000000000000000000, 0.0000000000000000000, -1.000000000000000000 ) ) ;
#324 = CIRCLE ( 'NONE', #191, 0.4000000000000036300 ) ;
#325 = EDGE_LOOP ( 'NONE', ( #63, #198, #32, #284 ) ) ;
#326 = CARTESIAN_POINT ( 'NONE',  ( 4.898587196589412800E-016, -8.000000000000000000, 9.797174393178825700E-016 ) ) ;
#327 = PLANE ( 'NONE',  #105 ) ;
#328 = CALENDAR_DATE ( 2023, 31, 7 ) ;
#329 = DIRECTION ( 'NONE',  ( 1.000000000000000000, 6.123233995736766000E-017, -0.0000000000000000000 ) ) ;
#330 = EDGE_CURVE ( 'NONE', #208, #231, #359, .T. ) ;
#331 = CARTESIAN_POINT ( 'NONE',  ( 0.0000000000000000000, 0.0000000000000000000, 8.000000000000000000 ) ) ;
#332 = MANIFOLD_SOLID_BREP ( 'È¸Àü4', #89 ) ;
#333 = DIRECTION ( 'NONE',  ( 1.000000000000000000, 6.123233995736766000E-017, -0.0000000000000000000 ) ) ;
#334 = CC_DESIGN_PERSON_AND_ORGANIZATION_ASSIGNMENT ( #263, #168, ( #314 ) ) ;
#335 = CARTESIAN_POINT ( 'NONE',  ( 41.00000000000000700, 0.0000000000000000000, 0.0000000000000000000 ) ) ;
#336 = AXIS2_PLACEMENT_3D ( 'NONE', #80, #278, #173 ) ;
#337 = ORIENTED_EDGE ( 'NONE', *, *, #197, .T. ) ;
#338 =( NAMED_UNIT ( * ) SI_UNIT ( $, .STERADIAN. ) SOLID_ANGLE_UNIT ( ) );
#339 = CYLINDRICAL_SURFACE ( 'NONE', #280, 8.000000000000000000 ) ;
#340 = DATE_AND_TIME ( #47, #114 ) ;
#341 = VERTEX_POINT ( 'NONE', #199 ) ;
#342 = APPLICATION_PROTOCOL_DEFINITION ( 'international standard', 'config_control_design', 1994, #145 ) ;
#343 = PERSON ( 'UNSPECIFIED', 'UNSPECIFIED', 'UNSPECIFIED', ('UNSPECIFIED'), ('UNSPECIFIED'), ('UNSPECIFIED') ) ;
#344 = PERSON_AND_ORGANIZATION ( #343, #161 ) ;
#345 = AXIS2_PLACEMENT_3D ( 'NONE', #234, #67, #258 ) ;
#346 =( LENGTH_UNIT ( ) NAMED_UNIT ( * ) SI_UNIT ( .MILLI., .METRE. ) );
#347 = VERTEX_POINT ( 'NONE', #34 ) ;
#348 = CIRCLE ( 'NONE', #225, 8.000000000000000000 ) ;
#349 = ORIENTED_EDGE ( 'NONE', *, *, #177, .F. ) ;
#350 = DIRECTION ( 'NONE',  ( 0.0000000000000000000, 0.0000000000000000000, 1.000000000000000000 ) ) ;
#351 = EDGE_CURVE ( 'NONE', #317, #18, #185, .T. ) ;
#352 = ADVANCED_FACE ( 'NONE', ( #118 ), #102, .T. ) ;
#353 = LOCAL_TIME ( 9, 21, 49.00000000000000000, #62 ) ;
#354 = CC_DESIGN_DATE_AND_TIME_ASSIGNMENT ( #340, #8, ( #314 ) ) ;
#355 = EDGE_LOOP ( 'NONE', ( #125, #27 ) ) ;
#356 = DIRECTION ( 'NONE',  ( -6.123233995736766000E-017, 1.000000000000000000, 0.0000000000000000000 ) ) ;
#357 = AXIS2_PLACEMENT_3D ( 'NONE', #252, #308, #106 ) ;
#358 = DIRECTION ( 'NONE',  ( 0.0000000000000000000, 0.0000000000000000000, 1.000000000000000000 ) ) ;
#359 = CIRCLE ( 'NONE', #296, 7.599999999999998800 ) ;
#360 = ORIENTED_EDGE ( 'NONE', *, *, #290, .F. ) ;
#361 = DIRECTION ( 'NONE',  ( 1.000000000000000000, 0.0000000000000000000, 0.0000000000000000000 ) ) ;
#362 = CALENDAR_DATE ( 2023, 31, 7 ) ;
#363 = AXIS2_PLACEMENT_3D ( 'NONE', #294, #17, #156 ) ;
#364 = DIRECTION ( 'NONE',  ( 0.0000000000000000000, 0.0000000000000000000, 1.000000000000000000 ) ) ;
#365 = FACE_OUTER_BOUND ( 'NONE', #288, .T. ) ;
ENDSEC;
END-ISO-10303-21;
