ISO-10303-21;
HEADER;
FILE_DESCRIPTION (( 'STEP AP203' ),
    '1' );
FILE_NAME ('03-3202.STEP',
    '2023-07-31T00:22:14',
    ( 'USER' ),
    ( 'Hewlett-Packard Company' ),
    'SwSTEP 2.0',
    'SolidWorks 2014',
    '' );
FILE_SCHEMA (( 'CONFIG_CONTROL_DESIGN' ));
ENDSEC;

DATA;
#1 = DIRECTION ( 'NONE',  ( -1.000000000000000000, -0.0000000000000000000, -0.0000000000000000000 ) ) ;
#2 = ORIENTED_EDGE ( 'NONE', *, *, #337, .T. ) ;
#3 = CC_DESIGN_APPROVAL ( #348, ( #331 ) ) ;
#4 = DIRECTION ( 'NONE',  ( 0.0000000000000000000, 0.0000000000000000000, 1.000000000000000000 ) ) ;
#5 = EDGE_CURVE ( 'NONE', #257, #285, #129, .T. ) ;
#6 = CIRCLE ( 'NONE', #56, 8.000000000000000000 ) ;
#7 = CARTESIAN_POINT ( 'NONE',  ( 0.0000000000000000000, 0.0000000000000000000, 0.0000000000000000000 ) ) ;
#8 = EDGE_LOOP ( 'NONE', ( #63, #355, #318, #142 ) ) ;
#9 = DIRECTION ( 'NONE',  ( 0.0000000000000000000, 1.000000000000000000, 0.0000000000000000000 ) ) ;
#10 = FACE_OUTER_BOUND ( 'NONE', #92, .T. ) ;
#11 = ORIENTED_EDGE ( 'NONE', *, *, #206, .F. ) ;
#12 = AXIS2_PLACEMENT_3D ( 'NONE', #219, #48, #47 ) ;
#13 = ADVANCED_FACE ( 'NONE', ( #204 ), #325, .F. ) ;
#14 = DIRECTION ( 'NONE',  ( 1.000000000000000000, 6.123233995736766000E-017, -0.0000000000000000000 ) ) ;
#15 = EDGE_LOOP ( 'NONE', ( #302, #179 ) ) ;
#16 = COORDINATED_UNIVERSAL_TIME_OFFSET ( 9, 0, .AHEAD. ) ;
#17 = CC_DESIGN_PERSON_AND_ORGANIZATION_ASSIGNMENT ( #137, #67, ( #331 ) ) ;
#18 = DIRECTION ( 'NONE',  ( 1.000000000000000000, 6.123233995736766000E-017, -0.0000000000000000000 ) ) ;
#19 = CONICAL_SURFACE ( 'NONE', #198, 8.000000000000000000, 0.7853981633974439500 ) ;
#20 = DIRECTION ( 'NONE',  ( -1.000000000000000000, -0.0000000000000000000, -0.0000000000000000000 ) ) ;
#21 = EDGE_CURVE ( 'NONE', #151, #44, #342, .T. ) ;
#22 = VECTOR ( 'NONE', #314, 1000.000000000000000 ) ;
#23 =( NAMED_UNIT ( * ) SI_UNIT ( $, .STERADIAN. ) SOLID_ANGLE_UNIT ( ) );
#24 = APPLICATION_CONTEXT ( 'configuration controlled 3d designs of mechanical parts and assemblies' ) ;
#25 = ORIENTED_EDGE ( 'NONE', *, *, #166, .T. ) ;
#26 = LOCAL_TIME ( 9, 22, 14.00000000000000000, #109 ) ;
#27 = DIRECTION ( 'NONE',  ( 1.000000000000000000, 6.123233995736766000E-017, -0.0000000000000000000 ) ) ;
#28 = EDGE_CURVE ( 'NONE', #248, #236, #50, .T. ) ;
#29 = CYLINDRICAL_SURFACE ( 'NONE', #235, 8.000000000000000000 ) ;
#30 = ORIENTED_EDGE ( 'NONE', *, *, #130, .T. ) ;
#31 = TOROIDAL_SURFACE ( 'NONE', #188, 7.200000000000000200, 0.8000000000000012700 ) ;
#32 = LINE ( 'NONE', #150, #324 ) ;
#33 = AXIS2_PLACEMENT_3D ( 'NONE', #327, #279, #107 ) ;
#34 = ORIENTED_EDGE ( 'NONE', *, *, #28, .T. ) ;
#35 = APPROVAL_DATE_TIME ( #120, #80 ) ;
#36 = DIRECTION ( 'NONE',  ( 0.0000000000000000000, 0.0000000000000000000, 1.000000000000000000 ) ) ;
#37 = CC_DESIGN_DATE_AND_TIME_ASSIGNMENT ( #202, #275, ( #331 ) ) ;
#38 = FACE_OUTER_BOUND ( 'NONE', #344, .T. ) ;
#39 = CLOSED_SHELL ( 'NONE', ( #77, #218, #245, #43, #106, #277 ) ) ;
#40 = DIRECTION ( 'NONE',  ( 6.123233995736766000E-017, -1.000000000000000000, 0.0000000000000000000 ) ) ;
#41 = AXIS2_PLACEMENT_3D ( 'NONE', #82, #132, #42 ) ;
#42 = DIRECTION ( 'NONE',  ( -5.421010862427522200E-017, 1.000000000000000000, 0.0000000000000000000 ) ) ;
#43 = ADVANCED_FACE ( 'NONE', ( #193 ), #268, .T. ) ;
#44 = VERTEX_POINT ( 'NONE', #104 ) ;
#45 = DIRECTION ( 'NONE',  ( 1.000000000000000000, 6.123233995736766000E-017, -0.0000000000000000000 ) ) ;
#46 = APPROVAL_PERSON_ORGANIZATION ( #126, #80, #287 ) ;
#47 = DIRECTION ( 'NONE',  ( 0.0000000000000000000, 1.000000000000000000, 0.0000000000000000000 ) ) ;
#48 = DIRECTION ( 'NONE',  ( 1.000000000000000000, 6.123233995736766000E-017, -0.0000000000000000000 ) ) ;
#49 = CARTESIAN_POINT ( 'NONE',  ( 0.9999999999999997800, 0.0000000000000000000, 0.0000000000000000000 ) ) ;
#50 = CIRCLE ( 'NONE', #124, 8.000000000000000000 ) ;
#51 = EDGE_CURVE ( 'NONE', #350, #147, #123, .T. ) ;
#52 = DIRECTION ( 'NONE',  ( 0.0000000000000000000, 0.0000000000000000000, 1.000000000000000000 ) ) ;
#53 = CARTESIAN_POINT ( 'NONE',  ( 0.0000000000000000000, 0.0000000000000000000, 0.0000000000000000000 ) ) ;
#54 = DIRECTION ( 'NONE',  ( 1.000000000000000000, 0.0000000000000000000, 0.0000000000000000000 ) ) ;
#55 = ORIENTED_EDGE ( 'NONE', *, *, #316, .F. ) ;
#56 = AXIS2_PLACEMENT_3D ( 'NONE', #186, #14, #217 ) ;
#57 = COORDINATED_UNIVERSAL_TIME_OFFSET ( 9, 0, .AHEAD. ) ;
#58 = CARTESIAN_POINT ( 'NONE',  ( 0.9999999999999978900, 8.000000000000000000, 0.0000000000000000000 ) ) ;
#59 = DIRECTION ( 'NONE',  ( 0.0000000000000000000, -1.000000000000000000, 0.0000000000000000000 ) ) ;
#60 = DIRECTION ( 'NONE',  ( 0.0000000000000000000, 0.0000000000000000000, 1.000000000000000000 ) ) ;
#61 = PRODUCT_DEFINITION_FORMATION_WITH_SPECIFIED_SOURCE ( 'ANY', '', #64, .NOT_KNOWN. ) ;
#62 = EDGE_LOOP ( 'NONE', ( #265, #79, #168, #200 ) ) ;
#63 = ORIENTED_EDGE ( 'NONE', *, *, #337, .F. ) ;
#64 = PRODUCT ( '03-3202', '03-3202', '', ( #171 ) ) ;
#65 = ORIENTED_EDGE ( 'NONE', *, *, #206, .T. ) ;
#66 = LOCAL_TIME ( 9, 22, 14.00000000000000000, #148 ) ;
#67 = PERSON_AND_ORGANIZATION_ROLE ( 'creator' ) ;
#68 = EDGE_LOOP ( 'NONE', ( #87, #30 ) ) ;
#69 = DIRECTION ( 'NONE',  ( 0.0000000000000000000, 0.0000000000000000000, -1.000000000000000000 ) ) ;
#70 = EDGE_CURVE ( 'NONE', #147, #339, #282, .T. ) ;
#71 = CARTESIAN_POINT ( 'NONE',  ( -48.99999999999998600, -3.000384657911014700E-015, 0.0000000000000000000 ) ) ;
#72 = FACE_OUTER_BOUND ( 'NONE', #317, .T. ) ;
#73 = VERTEX_POINT ( 'NONE', #336 ) ;
#74 = ORGANIZATION ( 'UNSPECIFIED', 'UNSPECIFIED', '' ) ;
#75 = APPROVAL_STATUS ( 'not_yet_approved' ) ;
#76 = DIRECTION ( 'NONE',  ( -6.123233995736766000E-017, 1.000000000000000000, 0.0000000000000000000 ) ) ;
#77 = ADVANCED_FACE ( 'NONE', ( #38 ), #29, .T. ) ;
#78 = DIRECTION ( 'NONE',  ( -1.000000000000000000, -0.0000000000000000000, -0.0000000000000000000 ) ) ;
#79 = ORIENTED_EDGE ( 'NONE', *, *, #90, .T. ) ;
#80 = APPROVAL ( #75, 'UNSPECIFIED' ) ;
#81 = DIRECTION ( 'NONE',  ( 0.0000000000000000000, 0.0000000000000000000, 1.000000000000000000 ) ) ;
#82 = CARTESIAN_POINT ( 'NONE',  ( 0.9999999999999983300, 6.123233995736756200E-017, 0.0000000000000000000 ) ) ;
#83 = VECTOR ( 'NONE', #311, 1000.000000000000000 ) ;
#84 = AXIS2_PLACEMENT_3D ( 'NONE', #297, #133, #244 ) ;
#85 = CARTESIAN_POINT ( 'NONE',  ( 0.0000000000000000000, 0.0000000000000000000, 0.0000000000000000000 ) ) ;
#86 = APPROVAL_ROLE ( '' ) ;
#87 = ORIENTED_EDGE ( 'NONE', *, *, #70, .T. ) ;
#88 = APPROVAL_DATE_TIME ( #164, #211 ) ;
#89 = CARTESIAN_POINT ( 'NONE',  ( -48.49999999999998600, 7.999999999999996400, 0.0000000000000000000 ) ) ;
#90 = EDGE_CURVE ( 'NONE', #73, #350, #262, .T. ) ;
#91 = LINE ( 'NONE', #190, #183 ) ;
#92 = EDGE_LOOP ( 'NONE', ( #187, #2, #11, #125 ) ) ;
#93 = AXIS2_PLACEMENT_3D ( 'NONE', #260, #59, #228 ) ;
#94 = APPLICATION_PROTOCOL_DEFINITION ( 'international standard', 'config_control_design', 1994, #24 ) ;
#95 = ORIENTED_EDGE ( 'NONE', *, *, #295, .F. ) ;
#96 = APPROVAL_PERSON_ORGANIZATION ( #174, #211, #86 ) ;
#97 = CARTESIAN_POINT ( 'NONE',  ( 40.20000000000000300, 0.0000000000000000000, 0.0000000000000000000 ) ) ;
#98 = CC_DESIGN_APPROVAL ( #80, ( #61 ) ) ;
#99 = DIRECTION ( 'NONE',  ( 1.000000000000000000, 6.123233995736766000E-017, -0.0000000000000000000 ) ) ;
#100 = DIRECTION ( 'NONE',  ( 0.0000000000000000000, 0.0000000000000000000, 1.000000000000000000 ) ) ;
#101 = LINE ( 'NONE', #128, #178 ) ;
#102 = LINE ( 'NONE', #89, #22 ) ;
#103 = AXIS2_PLACEMENT_3D ( 'NONE', #114, #240, #69 ) ;
#104 = CARTESIAN_POINT ( 'NONE',  ( -48.99999999999999300, 7.499999999999994700, 0.0000000000000000000 ) ) ;
#105 = CARTESIAN_POINT ( 'NONE',  ( -48.49999999999998600, 7.999999999999996400, 0.0000000000000000000 ) ) ;
#106 = ADVANCED_FACE ( 'NONE', ( #270 ), #19, .T. ) ;
#107 = DIRECTION ( 'NONE',  ( 0.0000000000000000000, -1.224646799147353200E-016, 1.000000000000000000 ) ) ;
#108 = VERTEX_POINT ( 'NONE', #131 ) ;
#109 = COORDINATED_UNIVERSAL_TIME_OFFSET ( 9, 0, .AHEAD. ) ;
#110 = DIRECTION ( 'NONE',  ( -1.000000000000000000, 0.0000000000000000000, -0.0000000000000000000 ) ) ;
#111 = CARTESIAN_POINT ( 'NONE',  ( 41.00000000000000000, 0.0000000000000000000, 0.0000000000000000000 ) ) ;
#112 = EDGE_CURVE ( 'NONE', #73, #339, #101, .T. ) ;
#113 = FACE_OUTER_BOUND ( 'NONE', #210, .T. ) ;
#114 = CARTESIAN_POINT ( 'NONE',  ( 1.000000000000000400, 1.355252715606881800E-016, 0.0000000000000000000 ) ) ;
#115 = FACE_OUTER_BOUND ( 'NONE', #62, .T. ) ;
#116 = SECURITY_CLASSIFICATION_LEVEL ( 'unclassified' ) ;
#117 = AXIS2_PLACEMENT_3D ( 'NONE', #135, #45, #246 ) ;
#118 = EDGE_LOOP ( 'NONE', ( #335, #207, #173, #271 ) ) ;
#119 = PERSON_AND_ORGANIZATION_ROLE ( 'creator' ) ;
#120 = DATE_AND_TIME ( #189, #266 ) ;
#121 = CARTESIAN_POINT ( 'NONE',  ( 40.20000000000000300, 0.0000000000000000000, 8.000000000000000000 ) ) ;
#122 = CC_DESIGN_PERSON_AND_ORGANIZATION_ASSIGNMENT ( #330, #119, ( #61 ) ) ;
#123 = LINE ( 'NONE', #274, #334 ) ;
#124 = AXIS2_PLACEMENT_3D ( 'NONE', #352, #185, #9 ) ;
#125 = ORIENTED_EDGE ( 'NONE', *, *, #354, .F. ) ;
#126 = PERSON_AND_ORGANIZATION ( #234, #74 ) ;
#127 = CARTESIAN_POINT ( 'NONE',  ( 0.0000000000000000000, 0.0000000000000000000, 0.0000000000000000000 ) ) ;
#128 = CARTESIAN_POINT ( 'NONE',  ( 0.0000000000000000000, 9.797174393178825700E-016, -8.000000000000000000 ) ) ;
#129 = CIRCLE ( 'NONE', #41, 8.000000000000000000 ) ;
#130 = EDGE_CURVE ( 'NONE', #339, #147, #253, .T. ) ;
#131 = CARTESIAN_POINT ( 'NONE',  ( 41.00000000000000000, 9.307315673519885500E-016, -7.200000000000000200 ) ) ;
#132 = DIRECTION ( 'NONE',  ( 1.000000000000000000, 6.123233995736766000E-017, -0.0000000000000000000 ) ) ;
#133 = DIRECTION ( 'NONE',  ( 1.000000000000000000, 6.123233995736766000E-017, -0.0000000000000000000 ) ) ;
#134 = ORIENTED_EDGE ( 'NONE', *, *, #184, .F. ) ;
#135 = CARTESIAN_POINT ( 'NONE',  ( 0.9999999999999986700, 8.000000000000000000, 0.0000000000000000000 ) ) ;
#136 = ADVANCED_FACE ( 'NONE', ( #322 ), #167, .T. ) ;
#137 = PERSON_AND_ORGANIZATION ( #234, #74 ) ;
#138 = AXIS2_PLACEMENT_3D ( 'NONE', #203, #27, #230 ) ;
#139 = PLANE ( 'NONE',  #117 ) ;
#140 = DIRECTION ( 'NONE',  ( 0.0000000000000000000, 1.000000000000000000, 0.0000000000000000000 ) ) ;
#141 = DIRECTION ( 'NONE',  ( 0.0000000000000000000, 0.0000000000000000000, 1.000000000000000000 ) ) ;
#142 = ORIENTED_EDGE ( 'NONE', *, *, #28, .F. ) ;
#143 = CC_DESIGN_PERSON_AND_ORGANIZATION_ASSIGNMENT ( #259, #309, ( #61 ) ) ;
#144 = ADVANCED_BREP_SHAPE_REPRESENTATION ( '03-3202', ( #205, #333, #293 ), #247 ) ;
#145 = FACE_OUTER_BOUND ( 'NONE', #118, .T. ) ;
#146 = APPROVAL_STATUS ( 'not_yet_approved' ) ;
#147 = VERTEX_POINT ( 'NONE', #221 ) ;
#148 = COORDINATED_UNIVERSAL_TIME_OFFSET ( 9, 0, .AHEAD. ) ;
#149 = DATE_TIME_ROLE ( 'classification_date' ) ;
#150 = CARTESIAN_POINT ( 'NONE',  ( -48.49999999999998600, -8.000000000000003600, 9.797174393178825700E-016 ) ) ;
#151 = VERTEX_POINT ( 'NONE', #332 ) ;
#152 = EDGE_CURVE ( 'NONE', #350, #73, #315, .T. ) ;
#153 = CONICAL_SURFACE ( 'NONE', #12, 8.000000000000000000, 0.7853981633974439500 ) ;
#154 = SHAPE_DEFINITION_REPRESENTATION ( #195, #144 ) ;
#155 = AXIS2_PLACEMENT_3D ( 'NONE', #284, #20, #223 ) ;
#156 = DIRECTION ( 'NONE',  ( -1.000000000000000000, -0.0000000000000000000, -0.0000000000000000000 ) ) ;
#157 = ORIENTED_EDGE ( 'NONE', *, *, #112, .T. ) ;
#158 = DIRECTION ( 'NONE',  ( -1.000000000000000000, -0.0000000000000000000, -0.0000000000000000000 ) ) ;
#159 = SECURITY_CLASSIFICATION ( '', '', #116 ) ;
#160 = FACE_OUTER_BOUND ( 'NONE', #15, .T. ) ;
#161 = AXIS2_PLACEMENT_3D ( 'NONE', #321, #209, #36 ) ;
#162 = ADVANCED_FACE ( 'NONE', ( #113 ), #191, .F. ) ;
#163 = ORIENTED_EDGE ( 'NONE', *, *, #51, .F. ) ;
#164 = DATE_AND_TIME ( #239, #312 ) ;
#165 = CARTESIAN_POINT ( 'NONE',  ( 41.00000000000000000, 0.0000000000000000000, 0.0000000000000000000 ) ) ;
#166 = EDGE_CURVE ( 'NONE', #248, #257, #91, .T. ) ;
#167 = CYLINDRICAL_SURFACE ( 'NONE', #307, 8.000000000000000000 ) ;
#168 = ORIENTED_EDGE ( 'NONE', *, *, #51, .T. ) ;
#169 = CARTESIAN_POINT ( 'NONE',  ( 0.9999999999999986700, -8.000000000000000000, 9.797174393178825700E-016 ) ) ;
#170 = CYLINDRICAL_SURFACE ( 'NONE', #237, 8.000000000000000000 ) ;
#171 = MECHANICAL_CONTEXT ( 'NONE', #24, 'mechanical' ) ;
#172 = AXIS2_PLACEMENT_3D ( 'NONE', #231, #177, #76 ) ;
#173 = ORIENTED_EDGE ( 'NONE', *, *, #152, .F. ) ;
#174 = PERSON_AND_ORGANIZATION ( #234, #74 ) ;
#175 = DIRECTION ( 'NONE',  ( -1.000000000000000000, -0.0000000000000000000, -0.0000000000000000000 ) ) ;
#176 = CC_DESIGN_PERSON_AND_ORGANIZATION_ASSIGNMENT ( #182, #308, ( #159 ) ) ;
#177 = DIRECTION ( 'NONE',  ( 1.000000000000000000, 6.123233995736766000E-017, -0.0000000000000000000 ) ) ;
#178 = VECTOR ( 'NONE', #319, 1000.000000000000000 ) ;
#179 = ORIENTED_EDGE ( 'NONE', *, *, #5, .T. ) ;
#180 = AXIS2_PLACEMENT_3D ( 'NONE', #71, #212, #40 ) ;
#181 = ORIENTED_EDGE ( 'NONE', *, *, #295, .T. ) ;
#182 = PERSON_AND_ORGANIZATION ( #234, #74 ) ;
#183 = VECTOR ( 'NONE', #18, 1000.000000000000000 ) ;
#184 = EDGE_CURVE ( 'NONE', #229, #108, #242, .T. ) ;
#185 = DIRECTION ( 'NONE',  ( 1.000000000000000000, 6.123233995736766000E-017, -0.0000000000000000000 ) ) ;
#186 = CARTESIAN_POINT ( 'NONE',  ( 0.9999999999999983300, 6.123233995736756200E-017, 0.0000000000000000000 ) ) ;
#187 = ORIENTED_EDGE ( 'NONE', *, *, #316, .T. ) ;
#188 = AXIS2_PLACEMENT_3D ( 'NONE', #254, #341, #52 ) ;
#189 = CALENDAR_DATE ( 2023, 31, 7 ) ;
#190 = CARTESIAN_POINT ( 'NONE',  ( 4.898587196589412800E-016, -8.000000000000000000, 9.797174393178825700E-016 ) ) ;
#191 = PLANE ( 'NONE',  #343 ) ;
#192 = CC_DESIGN_DATE_AND_TIME_ASSIGNMENT ( #250, #149, ( #159 ) ) ;
#193 = FACE_OUTER_BOUND ( 'NONE', #323, .T. ) ;
#194 = ORIENTED_EDGE ( 'NONE', *, *, #152, .T. ) ;
#195 = PRODUCT_DEFINITION_SHAPE ( 'NONE', 'NONE',  #331 ) ;
#196 = CARTESIAN_POINT ( 'NONE',  ( 40.20000000000000300, 0.0000000000000000000, 0.0000000000000000000 ) ) ;
#197 =( NAMED_UNIT ( * ) PLANE_ANGLE_UNIT ( ) SI_UNIT ( $, .RADIAN. ) );
#198 = AXIS2_PLACEMENT_3D ( 'NONE', #267, #99, #351 ) ;
#199 = APPLICATION_CONTEXT ( 'configuration controlled 3d designs of mechanical parts and assemblies' ) ;
#200 = ORIENTED_EDGE ( 'NONE', *, *, #130, .F. ) ;
#201 = CARTESIAN_POINT ( 'NONE',  ( -4.898587196589412800E-016, 8.000000000000000000, 0.0000000000000000000 ) ) ;
#202 = DATE_AND_TIME ( #278, #346 ) ;
#203 = CARTESIAN_POINT ( 'NONE',  ( -48.99999999999999300, -3.000384657911015100E-015, 0.0000000000000000000 ) ) ;
#204 = FACE_OUTER_BOUND ( 'NONE', #68, .T. ) ;
#205 = MANIFOLD_SOLID_BREP ( 'È¸Àü3', #243 ) ;
#206 = EDGE_CURVE ( 'NONE', #236, #248, #304, .T. ) ;
#207 = ORIENTED_EDGE ( 'NONE', *, *, #222, .T. ) ;
#208 = APPROVAL_DATE_TIME ( #286, #348 ) ;
#209 = DIRECTION ( 'NONE',  ( -1.000000000000000000, -0.0000000000000000000, -0.0000000000000000000 ) ) ;
#210 = EDGE_LOOP ( 'NONE', ( #134, #95 ) ) ;
#211 = APPROVAL ( #256, 'UNSPECIFIED' ) ;
#212 = DIRECTION ( 'NONE',  ( -1.000000000000000000, -6.123233995736766000E-017, 0.0000000000000000000 ) ) ;
#213 = CYLINDRICAL_SURFACE ( 'NONE', #172, 8.000000000000000000 ) ;
#214 = AXIS2_PLACEMENT_3D ( 'NONE', #97, #273, #100 ) ;
#215 = ORIENTED_EDGE ( 'NONE', *, *, #166, .F. ) ;
#216 = APPROVAL_PERSON_ORGANIZATION ( #292, #348, #338 ) ;
#217 = DIRECTION ( 'NONE',  ( -5.421010862427522200E-017, 1.000000000000000000, 0.0000000000000000000 ) ) ;
#218 = ADVANCED_FACE ( 'NONE', ( #10 ), #153, .T. ) ;
#219 = CARTESIAN_POINT ( 'NONE',  ( -48.49999999999998600, -2.969768487932330900E-015, 0.0000000000000000000 ) ) ;
#220 = EDGE_LOOP ( 'NONE', ( #194, #157, #276, #163 ) ) ;
#221 = CARTESIAN_POINT ( 'NONE',  ( 0.9999999999999997800, 0.0000000000000000000, 8.000000000000000000 ) ) ;
#222 = EDGE_CURVE ( 'NONE', #108, #73, #224, .T. ) ;
#223 = DIRECTION ( 'NONE',  ( 0.0000000000000000000, 0.0000000000000000000, 1.000000000000000000 ) ) ;
#224 = CIRCLE ( 'NONE', #33, 0.8000000000000012700 ) ;
#225 =( LENGTH_UNIT ( ) NAMED_UNIT ( * ) SI_UNIT ( .MILLI., .METRE. ) );
#226 = DIRECTION ( 'NONE',  ( 0.0000000000000000000, 0.0000000000000000000, 1.000000000000000000 ) ) ;
#227 = AXIS2_PLACEMENT_3D ( 'NONE', #196, #1, #60 ) ;
#228 = DIRECTION ( 'NONE',  ( 0.0000000000000000000, 0.0000000000000000000, -1.000000000000000000 ) ) ;
#229 = VERTEX_POINT ( 'NONE', #299 ) ;
#230 = DIRECTION ( 'NONE',  ( 0.0000000000000000000, 1.000000000000000000, 0.0000000000000000000 ) ) ;
#231 = CARTESIAN_POINT ( 'NONE',  ( 0.0000000000000000000, 0.0000000000000000000, 0.0000000000000000000 ) ) ;
#232 = CC_DESIGN_APPROVAL ( #211, ( #159 ) ) ;
#233 = FACE_OUTER_BOUND ( 'NONE', #328, .T. ) ;
#234 = PERSON ( 'UNSPECIFIED', 'UNSPECIFIED', 'UNSPECIFIED', ('UNSPECIFIED'), ('UNSPECIFIED'), ('UNSPECIFIED') ) ;
#235 = AXIS2_PLACEMENT_3D ( 'NONE', #127, #238, #349 ) ;
#236 = VERTEX_POINT ( 'NONE', #105 ) ;
#237 = AXIS2_PLACEMENT_3D ( 'NONE', #85, #175, #4 ) ;
#238 = DIRECTION ( 'NONE',  ( 1.000000000000000000, 6.123233995736766000E-017, -0.0000000000000000000 ) ) ;
#239 = CALENDAR_DATE ( 2023, 31, 7 ) ;
#240 = DIRECTION ( 'NONE',  ( 1.000000000000000000, 0.0000000000000000000, 0.0000000000000000000 ) ) ;
#241 = EDGE_CURVE ( 'NONE', #285, #257, #6, .T. ) ;
#242 = CIRCLE ( 'NONE', #326, 7.200000000000000200 ) ;
#243 = CLOSED_SHELL ( 'NONE', ( #136, #298, #329, #357, #13, #162 ) ) ;
#244 = DIRECTION ( 'NONE',  ( 0.0000000000000000000, 1.000000000000000000, 0.0000000000000000000 ) ) ;
#245 = ADVANCED_FACE ( 'NONE', ( #160 ), #139, .T. ) ;
#246 = DIRECTION ( 'NONE',  ( -6.123233995736766000E-017, 1.000000000000000000, 0.0000000000000000000 ) ) ;
#247 =( GEOMETRIC_REPRESENTATION_CONTEXT ( 3 ) GLOBAL_UNCERTAINTY_ASSIGNED_CONTEXT ( ( #269 ) ) GLOBAL_UNIT_ASSIGNED_CONTEXT ( ( #225, #197, #23 ) ) REPRESENTATION_CONTEXT ( 'NONE', 'WORKASPACE' ) );
#248 = VERTEX_POINT ( 'NONE', #300 ) ;
#249 = CARTESIAN_POINT ( 'NONE',  ( -48.49999999999998600, -2.969768487932330900E-015, 0.0000000000000000000 ) ) ;
#250 = DATE_AND_TIME ( #320, #26 ) ;
#251 = DIRECTION ( 'NONE',  ( -1.000000000000000000, -0.0000000000000000000, -0.0000000000000000000 ) ) ;
#252 = CC_DESIGN_SECURITY_CLASSIFICATION ( #159, ( #61 ) ) ;
#253 = CIRCLE ( 'NONE', #255, 8.000000000000000000 ) ;
#254 = CARTESIAN_POINT ( 'NONE',  ( 40.20000000000000300, 0.0000000000000000000, 0.0000000000000000000 ) ) ;
#255 = AXIS2_PLACEMENT_3D ( 'NONE', #49, #251, #81 ) ;
#256 = APPROVAL_STATUS ( 'not_yet_approved' ) ;
#257 = VERTEX_POINT ( 'NONE', #169 ) ;
#258 = TOROIDAL_SURFACE ( 'NONE', #227, 7.200000000000000200, 0.8000000000000012700 ) ;
#259 = PERSON_AND_ORGANIZATION ( #234, #74 ) ;
#260 = CARTESIAN_POINT ( 'NONE',  ( 40.20000000000000300, 0.0000000000000000000, 7.200000000000000200 ) ) ;
#261 = DIRECTION ( 'NONE',  ( 0.7071067811865505700, -0.7071067811865444600, 8.659560562354895900E-017 ) ) ;
#262 = CIRCLE ( 'NONE', #214, 8.000000000000000000 ) ;
#263 = ORIENTED_EDGE ( 'NONE', *, *, #222, .F. ) ;
#264 = EDGE_CURVE ( 'NONE', #229, #350, #296, .T. ) ;
#265 = ORIENTED_EDGE ( 'NONE', *, *, #112, .F. ) ;
#266 = LOCAL_TIME ( 9, 22, 14.00000000000000000, #340 ) ;
#267 = CARTESIAN_POINT ( 'NONE',  ( -48.49999999999998600, -2.969768487932330900E-015, 0.0000000000000000000 ) ) ;
#268 = PLANE ( 'NONE',  #180 ) ;
#269 = UNCERTAINTY_MEASURE_WITH_UNIT (LENGTH_MEASURE( 1.000000000000000100E-005 ), #225, 'distance_accuracy_value', 'NONE');
#270 = FACE_OUTER_BOUND ( 'NONE', #8, .T. ) ;
#271 = ORIENTED_EDGE ( 'NONE', *, *, #264, .F. ) ;
#272 = PRODUCT_RELATED_PRODUCT_CATEGORY ( 'detail', '', ( #64 ) ) ;
#273 = DIRECTION ( 'NONE',  ( -1.000000000000000000, -0.0000000000000000000, -0.0000000000000000000 ) ) ;
#274 = CARTESIAN_POINT ( 'NONE',  ( 0.0000000000000000000, 0.0000000000000000000, 8.000000000000000000 ) ) ;
#275 = DATE_TIME_ROLE ( 'creation_date' ) ;
#276 = ORIENTED_EDGE ( 'NONE', *, *, #70, .F. ) ;
#277 = ADVANCED_FACE ( 'NONE', ( #233 ), #213, .T. ) ;
#278 = CALENDAR_DATE ( 2023, 31, 7 ) ;
#279 = DIRECTION ( 'NONE',  ( -0.0000000000000000000, 1.000000000000000000, 1.224646799147353200E-016 ) ) ;
#280 = DIRECTION ( 'NONE',  ( 0.0000000000000000000, 0.0000000000000000000, 1.000000000000000000 ) ) ;
#281 = CARTESIAN_POINT ( 'NONE',  ( 40.20000000000000300, 0.0000000000000000000, 0.0000000000000000000 ) ) ;
#282 = CIRCLE ( 'NONE', #161, 8.000000000000000000 ) ;
#283 = EDGE_CURVE ( 'NONE', #236, #285, #361, .T. ) ;
#284 = CARTESIAN_POINT ( 'NONE',  ( 41.00000000000000000, 0.0000000000000000000, 0.0000000000000000000 ) ) ;
#285 = VERTEX_POINT ( 'NONE', #58 ) ;
#286 = DATE_AND_TIME ( #356, #66 ) ;
#287 = APPROVAL_ROLE ( '' ) ;
#288 = CARTESIAN_POINT ( 'NONE',  ( 0.9999999999999997800, 9.797174393178825700E-016, -8.000000000000000000 ) ) ;
#289 = ORIENTED_EDGE ( 'NONE', *, *, #241, .F. ) ;
#290 = ORIENTED_EDGE ( 'NONE', *, *, #283, .F. ) ;
#291 = AXIS2_PLACEMENT_3D ( 'NONE', #281, #78, #280 ) ;
#292 = PERSON_AND_ORGANIZATION ( #234, #74 ) ;
#293 = AXIS2_PLACEMENT_3D ( 'NONE', #53, #226, #54 ) ;
#294 = ORIENTED_EDGE ( 'NONE', *, *, #283, .T. ) ;
#295 = EDGE_CURVE ( 'NONE', #108, #229, #360, .T. ) ;
#296 = CIRCLE ( 'NONE', #93, 0.8000000000000012700 ) ;
#297 = CARTESIAN_POINT ( 'NONE',  ( -48.99999999999999300, -3.000384657911015100E-015, 0.0000000000000000000 ) ) ;
#298 = ADVANCED_FACE ( 'NONE', ( #145 ), #31, .T. ) ;
#299 = CARTESIAN_POINT ( 'NONE',  ( 41.00000000000000000, 0.0000000000000000000, 7.200000000000000200 ) ) ;
#300 = CARTESIAN_POINT ( 'NONE',  ( -48.49999999999998600, -8.000000000000003600, 9.797174393178825700E-016 ) ) ;
#301 = DIRECTION ( 'NONE',  ( 1.000000000000000000, 6.123233995736766000E-017, -0.0000000000000000000 ) ) ;
#302 = ORIENTED_EDGE ( 'NONE', *, *, #241, .T. ) ;
#303 = DIRECTION ( 'NONE',  ( -1.000000000000000000, -0.0000000000000000000, -0.0000000000000000000 ) ) ;
#304 = CIRCLE ( 'NONE', #365, 8.000000000000000000 ) ;
#305 = ORIENTED_EDGE ( 'NONE', *, *, #5, .F. ) ;
#306 = APPLICATION_PROTOCOL_DEFINITION ( 'international standard', 'config_control_design', 1994, #199 ) ;
#307 = AXIS2_PLACEMENT_3D ( 'NONE', #7, #156, #347 ) ;
#308 = PERSON_AND_ORGANIZATION_ROLE ( 'classification_officer' ) ;
#309 = PERSON_AND_ORGANIZATION_ROLE ( 'design_supplier' ) ;
#310 = ORIENTED_EDGE ( 'NONE', *, *, #21, .F. ) ;
#311 = DIRECTION ( 'NONE',  ( 1.000000000000000000, 6.123233995736766000E-017, -0.0000000000000000000 ) ) ;
#312 = LOCAL_TIME ( 9, 22, 14.00000000000000000, #16 ) ;
#313 = CC_DESIGN_PERSON_AND_ORGANIZATION_ASSIGNMENT ( #364, #363, ( #64 ) ) ;
#314 = DIRECTION ( 'NONE',  ( 0.7071067811865505700, 0.7071067811865444600, 0.0000000000000000000 ) ) ;
#315 = CIRCLE ( 'NONE', #291, 8.000000000000000000 ) ;
#316 = EDGE_CURVE ( 'NONE', #44, #151, #345, .T. ) ;
#317 = EDGE_LOOP ( 'NONE', ( #263, #181, #359, #362 ) ) ;
#318 = ORIENTED_EDGE ( 'NONE', *, *, #354, .T. ) ;
#319 = DIRECTION ( 'NONE',  ( -1.000000000000000000, -0.0000000000000000000, -0.0000000000000000000 ) ) ;
#320 = CALENDAR_DATE ( 2023, 31, 7 ) ;
#321 = CARTESIAN_POINT ( 'NONE',  ( 0.9999999999999997800, 0.0000000000000000000, 0.0000000000000000000 ) ) ;
#322 = FACE_OUTER_BOUND ( 'NONE', #220, .T. ) ;
#323 = EDGE_LOOP ( 'NONE', ( #55, #310 ) ) ;
#324 = VECTOR ( 'NONE', #261, 1000.000000000000000 ) ;
#325 = PLANE ( 'NONE',  #103 ) ;
#326 = AXIS2_PLACEMENT_3D ( 'NONE', #111, #303, #141 ) ;
#327 = CARTESIAN_POINT ( 'NONE',  ( 40.20000000000000300, 8.817456953860942300E-016, -7.200000000000000200 ) ) ;
#328 = EDGE_LOOP ( 'NONE', ( #215, #34, #294, #305 ) ) ;
#329 = ADVANCED_FACE ( 'NONE', ( #72 ), #258, .T. ) ;
#330 = PERSON_AND_ORGANIZATION ( #234, #74 ) ;
#331 = PRODUCT_DEFINITION ( 'UNKNOWN', '', #61, #353 ) ;
#332 = CARTESIAN_POINT ( 'NONE',  ( -48.99999999999999300, -7.500000000000000000, 9.491012693391985800E-016 ) ) ;
#333 = MANIFOLD_SOLID_BREP ( 'È¸Àü4', #39 ) ;
#334 = VECTOR ( 'NONE', #158, 1000.000000000000000 ) ;
#335 = ORIENTED_EDGE ( 'NONE', *, *, #184, .T. ) ;
#336 = CARTESIAN_POINT ( 'NONE',  ( 40.20000000000000300, 9.797174393178827600E-016, -8.000000000000000000 ) ) ;
#337 = EDGE_CURVE ( 'NONE', #151, #248, #32, .T. ) ;
#338 = APPROVAL_ROLE ( '' ) ;
#339 = VERTEX_POINT ( 'NONE', #288 ) ;
#340 = COORDINATED_UNIVERSAL_TIME_OFFSET ( 9, 0, .AHEAD. ) ;
#341 = DIRECTION ( 'NONE',  ( -1.000000000000000000, -0.0000000000000000000, -0.0000000000000000000 ) ) ;
#342 = CIRCLE ( 'NONE', #84, 7.499999999999997300 ) ;
#343 = AXIS2_PLACEMENT_3D ( 'NONE', #165, #110, #358 ) ;
#344 = EDGE_LOOP ( 'NONE', ( #65, #25, #289, #290 ) ) ;
#345 = CIRCLE ( 'NONE', #138, 7.499999999999997300 ) ;
#346 = LOCAL_TIME ( 9, 22, 14.00000000000000000, #57 ) ;
#347 = DIRECTION ( 'NONE',  ( 0.0000000000000000000, 0.0000000000000000000, 1.000000000000000000 ) ) ;
#348 = APPROVAL ( #146, 'UNSPECIFIED' ) ;
#349 = DIRECTION ( 'NONE',  ( -6.123233995736766000E-017, 1.000000000000000000, 0.0000000000000000000 ) ) ;
#350 = VERTEX_POINT ( 'NONE', #121 ) ;
#351 = DIRECTION ( 'NONE',  ( 0.0000000000000000000, 1.000000000000000000, 0.0000000000000000000 ) ) ;
#352 = CARTESIAN_POINT ( 'NONE',  ( -48.49999999999998600, -2.969768487932330900E-015, 0.0000000000000000000 ) ) ;
#353 = DESIGN_CONTEXT ( 'detailed design', #199, 'design' ) ;
#354 = EDGE_CURVE ( 'NONE', #44, #236, #102, .T. ) ;
#355 = ORIENTED_EDGE ( 'NONE', *, *, #21, .T. ) ;
#356 = CALENDAR_DATE ( 2023, 31, 7 ) ;
#357 = ADVANCED_FACE ( 'NONE', ( #115 ), #170, .T. ) ;
#358 = DIRECTION ( 'NONE',  ( -0.0000000000000000000, 0.0000000000000000000, 1.000000000000000000 ) ) ;
#359 = ORIENTED_EDGE ( 'NONE', *, *, #264, .T. ) ;
#360 = CIRCLE ( 'NONE', #155, 7.200000000000000200 ) ;
#361 = LINE ( 'NONE', #201, #83 ) ;
#362 = ORIENTED_EDGE ( 'NONE', *, *, #90, .F. ) ;
#363 = PERSON_AND_ORGANIZATION_ROLE ( 'design_owner' ) ;
#364 = PERSON_AND_ORGANIZATION ( #234, #74 ) ;
#365 = AXIS2_PLACEMENT_3D ( 'NONE', #249, #301, #140 ) ;
ENDSEC;
END-ISO-10303-21;
