ISO-10303-21;
HEADER;
FILE_DESCRIPTION (( 'STEP AP203' ),
    '1' );
FILE_NAME ('03-3203.STEP',
    '2023-07-31T00:22:44',
    ( 'USER' ),
    ( 'Hewlett-Packard Company' ),
    'SwSTEP 2.0',
    'SolidWorks 2014',
    '' );
FILE_SCHEMA (( 'CONFIG_CONTROL_DESIGN' ));
ENDSEC;

DATA;
#1 = DIRECTION ( 'NONE',  ( 0.0000000000000000000, 0.0000000000000000000, 1.000000000000000000 ) ) ;
#2 = ORIENTED_EDGE ( 'NONE', *, *, #74, .T. ) ;
#3 = APPROVAL_DATE_TIME ( #81, #278 ) ;
#4 = PERSON_AND_ORGANIZATION_ROLE ( 'design_supplier' ) ;
#5 = EDGE_CURVE ( 'NONE', #155, #296, #63, .T. ) ;
#6 = DIRECTION ( 'NONE',  ( -6.505213034913026600E-017, 1.000000000000000000, 0.0000000000000000000 ) ) ;
#7 = DIRECTION ( 'NONE',  ( -6.123233995736766000E-017, 1.000000000000000000, 0.0000000000000000000 ) ) ;
#8 = FACE_OUTER_BOUND ( 'NONE', #298, .T. ) ;
#9 = ORIENTED_EDGE ( 'NONE', *, *, #41, .F. ) ;
#10 = EDGE_LOOP ( 'NONE', ( #241, #39, #136, #98 ) ) ;
#11 = CC_DESIGN_PERSON_AND_ORGANIZATION_ASSIGNMENT ( #351, #61, ( #239 ) ) ;
#12 = APPROVAL_PERSON_ORGANIZATION ( #89, #278, #145 ) ;
#13 = DESIGN_CONTEXT ( 'detailed design', #263, 'design' ) ;
#14 = CARTESIAN_POINT ( 'NONE',  ( 0.0000000000000000000, 1.224646799147353500E-015, -10.00000000000000200 ) ) ;
#15 = CIRCLE ( 'NONE', #96, 10.00000000000000200 ) ;
#16 = AXIS2_PLACEMENT_3D ( 'NONE', #221, #54, #254 ) ;
#17 = EDGE_LOOP ( 'NONE', ( #314, #201 ) ) ;
#18 = EDGE_CURVE ( 'NONE', #161, #79, #212, .T. ) ;
#19 = DIRECTION ( 'NONE',  ( 0.0000000000000000000, 0.0000000000000000000, 1.000000000000000000 ) ) ;
#20 = CARTESIAN_POINT ( 'NONE',  ( 40.60000000000000100, 0.0000000000000000000, 0.0000000000000000000 ) ) ;
#21 = EDGE_LOOP ( 'NONE', ( #192, #232 ) ) ;
#22 = COORDINATED_UNIVERSAL_TIME_OFFSET ( 9, 0, .AHEAD. ) ;
#23 = DIRECTION ( 'NONE',  ( 0.0000000000000000000, 0.0000000000000000000, 1.000000000000000000 ) ) ;
#24 = CARTESIAN_POINT ( 'NONE',  ( -58.50000000000000700, -3.582091887506008600E-015, 0.0000000000000000000 ) ) ;
#25 = EDGE_CURVE ( 'NONE', #365, #170, #276, .T. ) ;
#26 = DIRECTION ( 'NONE',  ( -6.123233995736766000E-017, 1.000000000000000000, 0.0000000000000000000 ) ) ;
#27 = ADVANCED_FACE ( 'NONE', ( #139 ), #51, .T. ) ;
#28 = CIRCLE ( 'NONE', #327, 0.3999999999999958600 ) ;
#29 = DIRECTION ( 'NONE',  ( -1.000000000000000000, -6.123233995736766000E-017, 0.0000000000000000000 ) ) ;
#30 = DIRECTION ( 'NONE',  ( 1.000000000000000000, 6.123233995736766000E-017, -0.0000000000000000000 ) ) ;
#31 = ORIENTED_EDGE ( 'NONE', *, *, #5, .T. ) ;
#32 = APPROVAL_ROLE ( '' ) ;
#33 = DATE_AND_TIME ( #106, #181 ) ;
#34 = PRODUCT_DEFINITION ( 'UNKNOWN', '', #129, #13 ) ;
#35 = CARTESIAN_POINT ( 'NONE',  ( 0.0000000000000000000, 0.0000000000000000000, 0.0000000000000000000 ) ) ;
#36 = LOCAL_TIME ( 9, 22, 44.00000000000000000, #259 ) ;
#37 = CIRCLE ( 'NONE', #292, 9.499999999999994700 ) ;
#38 = DIRECTION ( 'NONE',  ( 0.0000000000000000000, 1.000000000000000000, 0.0000000000000000000 ) ) ;
#39 = ORIENTED_EDGE ( 'NONE', *, *, #101, .T. ) ;
#40 = AXIS2_PLACEMENT_3D ( 'NONE', #253, #78, #307 ) ;
#41 = EDGE_CURVE ( 'NONE', #79, #85, #130, .T. ) ;
#42 = EDGE_LOOP ( 'NONE', ( #186, #285, #174, #358 ) ) ;
#43 = PERSON_AND_ORGANIZATION ( #207, #362 ) ;
#44 = EDGE_CURVE ( 'NONE', #170, #118, #270, .T. ) ;
#45 = LINE ( 'NONE', #173, #110 ) ;
#46 = CARTESIAN_POINT ( 'NONE',  ( 0.9999999999999997800, 1.224646799147353300E-015, -10.00000000000000000 ) ) ;
#47 = VERTEX_POINT ( 'NONE', #305 ) ;
#48 = EDGE_LOOP ( 'NONE', ( #143, #105, #218, #227 ) ) ;
#49 = PERSON_AND_ORGANIZATION ( #207, #362 ) ;
#50 = APPROVAL ( #202, 'UNSPECIFIED' ) ;
#51 = TOROIDAL_SURFACE ( 'NONE', #177, 9.600000000000001400, 0.3999999999999958600 ) ;
#52 = EDGE_LOOP ( 'NONE', ( #268, #308 ) ) ;
#53 = ADVANCED_FACE ( 'NONE', ( #344 ), #247, .F. ) ;
#54 = DIRECTION ( 'NONE',  ( 0.0000000000000000000, -1.000000000000000000, 0.0000000000000000000 ) ) ;
#55 = AXIS2_PLACEMENT_3D ( 'NONE', #140, #336, #167 ) ;
#56 = EDGE_CURVE ( 'NONE', #76, #85, #265, .T. ) ;
#57 = CONICAL_SURFACE ( 'NONE', #194, 9.999999999999994700, 0.7853981633974552700 ) ;
#58 = EDGE_LOOP ( 'NONE', ( #2, #261, #9, #341 ) ) ;
#59 = DIRECTION ( 'NONE',  ( 0.0000000000000000000, 1.000000000000000000, 0.0000000000000000000 ) ) ;
#60 = CARTESIAN_POINT ( 'NONE',  ( 0.0000000000000000000, 0.0000000000000000000, 0.0000000000000000000 ) ) ;
#61 = PERSON_AND_ORGANIZATION_ROLE ( 'design_owner' ) ;
#62 = DIRECTION ( 'NONE',  ( 0.0000000000000000000, 0.0000000000000000000, 1.000000000000000000 ) ) ;
#63 = LINE ( 'NONE', #116, #353 ) ;
#64 = EDGE_CURVE ( 'NONE', #365, #155, #45, .T. ) ;
#65 = CARTESIAN_POINT ( 'NONE',  ( 6.123233995736766300E-016, -10.00000000000000000, 1.224646799147353300E-015 ) ) ;
#66 = SHAPE_DEFINITION_REPRESENTATION ( #222, #94 ) ;
#67 = PLANE ( 'NONE',  #189 ) ;
#68 = ORIENTED_EDGE ( 'NONE', *, *, #124, .T. ) ;
#69 = CC_DESIGN_APPROVAL ( #50, ( #34 ) ) ;
#70 = ORIENTED_EDGE ( 'NONE', *, *, #172, .F. ) ;
#71 = CARTESIAN_POINT ( 'NONE',  ( 0.9999999999999997800, 0.0000000000000000000, 10.00000000000000000 ) ) ;
#72 = AXIS2_PLACEMENT_3D ( 'NONE', #197, #109, #26 ) ;
#73 = FACE_OUTER_BOUND ( 'NONE', #17, .T. ) ;
#74 = EDGE_CURVE ( 'NONE', #161, #76, #337, .T. ) ;
#75 = DIRECTION ( 'NONE',  ( 0.0000000000000000000, 1.000000000000000000, 0.0000000000000000000 ) ) ;
#76 = VERTEX_POINT ( 'NONE', #187 ) ;
#77 = CARTESIAN_POINT ( 'NONE',  ( 1.000000000000000400, 1.084202172485505400E-016, 0.0000000000000000000 ) ) ;
#78 = DIRECTION ( 'NONE',  ( 1.000000000000000000, 6.123233995736766000E-017, -0.0000000000000000000 ) ) ;
#79 = VERTEX_POINT ( 'NONE', #71 ) ;
#80 = DIRECTION ( 'NONE',  ( -1.000000000000000000, -0.0000000000000000000, -0.0000000000000000000 ) ) ;
#81 = DATE_AND_TIME ( #156, #233 ) ;
#82 = EDGE_CURVE ( 'NONE', #47, #296, #256, .T. ) ;
#83 = DIRECTION ( 'NONE',  ( 1.000000000000000000, 6.123233995736766000E-017, -0.0000000000000000000 ) ) ;
#84 = TOROIDAL_SURFACE ( 'NONE', #152, 9.600000000000001400, 0.3999999999999958600 ) ;
#85 = VERTEX_POINT ( 'NONE', #46 ) ;
#86 = CARTESIAN_POINT ( 'NONE',  ( -59.00000000000000700, 9.499999999999991100, 0.0000000000000000000 ) ) ;
#87 = ORIENTED_EDGE ( 'NONE', *, *, #97, .T. ) ;
#88 = APPLICATION_PROTOCOL_DEFINITION ( 'international standard', 'config_control_design', 1994, #263 ) ;
#89 = PERSON_AND_ORGANIZATION ( #207, #362 ) ;
#90 = CC_DESIGN_PERSON_AND_ORGANIZATION_ASSIGNMENT ( #49, #231, ( #34 ) ) ;
#91 = DIRECTION ( 'NONE',  ( -0.0000000000000000000, 0.0000000000000000000, 1.000000000000000000 ) ) ;
#92 = CIRCLE ( 'NONE', #55, 9.600000000000001400 ) ;
#93 = ORIENTED_EDGE ( 'NONE', *, *, #115, .T. ) ;
#94 = ADVANCED_BREP_SHAPE_REPRESENTATION ( '03-3203', ( #159, #293, #357 ), #230 ) ;
#95 = DATE_TIME_ROLE ( 'creation_date' ) ;
#96 = AXIS2_PLACEMENT_3D ( 'NONE', #166, #359, #23 ) ;
#97 = EDGE_CURVE ( 'NONE', #162, #210, #326, .T. ) ;
#98 = ORIENTED_EDGE ( 'NONE', *, *, #124, .F. ) ;
#99 = PERSON_AND_ORGANIZATION ( #207, #362 ) ;
#100 =( NAMED_UNIT ( * ) SI_UNIT ( $, .STERADIAN. ) SOLID_ANGLE_UNIT ( ) );
#101 = EDGE_CURVE ( 'NONE', #170, #365, #37, .T. ) ;
#102 = CIRCLE ( 'NONE', #363, 9.999999999999994700 ) ;
#103 = CARTESIAN_POINT ( 'NONE',  ( -59.00000000000000700, -3.612708057484692400E-015, 0.0000000000000000000 ) ) ;
#104 = CARTESIAN_POINT ( 'NONE',  ( 0.9999999999999997800, 0.0000000000000000000, 0.0000000000000000000 ) ) ;
#105 = ORIENTED_EDGE ( 'NONE', *, *, #44, .T. ) ;
#106 = CALENDAR_DATE ( 2023, 31, 7 ) ;
#107 = APPLICATION_PROTOCOL_DEFINITION ( 'international standard', 'config_control_design', 1994, #267 ) ;
#108 = CC_DESIGN_DATE_AND_TIME_ASSIGNMENT ( #120, #95, ( #34 ) ) ;
#109 = DIRECTION ( 'NONE',  ( 1.000000000000000000, 6.123233995736766000E-017, -0.0000000000000000000 ) ) ;
#110 = VECTOR ( 'NONE', #216, 999.9999999999998900 ) ;
#111 = CLOSED_SHELL ( 'NONE', ( #361, #27, #195, #255, #53, #223 ) ) ;
#112 = DIRECTION ( 'NONE',  ( -0.0000000000000000000, 1.000000000000000000, 1.224646799147353200E-016 ) ) ;
#113 = ADVANCED_FACE ( 'NONE', ( #178 ), #325, .T. ) ;
#114 = AXIS2_PLACEMENT_3D ( 'NONE', #252, #80, #275 ) ;
#115 = EDGE_CURVE ( 'NONE', #210, #76, #28, .T. ) ;
#116 = CARTESIAN_POINT ( 'NONE',  ( -6.123233995736766300E-016, 10.00000000000000000, 0.0000000000000000000 ) ) ;
#117 = CARTESIAN_POINT ( 'NONE',  ( -58.50000000000000700, -3.582091887506008600E-015, 0.0000000000000000000 ) ) ;
#118 = VERTEX_POINT ( 'NONE', #198 ) ;
#119 =( LENGTH_UNIT ( ) NAMED_UNIT ( * ) SI_UNIT ( .MILLI., .METRE. ) );
#120 = DATE_AND_TIME ( #193, #269 ) ;
#121 = DIRECTION ( 'NONE',  ( 1.000000000000000000, 0.0000000000000000000, 0.0000000000000000000 ) ) ;
#122 = VECTOR ( 'NONE', #332, 999.9999999999998900 ) ;
#123 = DIRECTION ( 'NONE',  ( -1.000000000000000000, 0.0000000000000000000, -0.0000000000000000000 ) ) ;
#124 = EDGE_CURVE ( 'NONE', #118, #155, #102, .T. ) ;
#125 = DIRECTION ( 'NONE',  ( -1.000000000000000000, -0.0000000000000000000, -0.0000000000000000000 ) ) ;
#126 = APPROVAL_ROLE ( '' ) ;
#127 = ORIENTED_EDGE ( 'NONE', *, *, #101, .F. ) ;
#128 = APPROVAL_DATE_TIME ( #183, #50 ) ;
#129 = PRODUCT_DEFINITION_FORMATION_WITH_SPECIFIED_SOURCE ( 'ANY', '', #239, .NOT_KNOWN. ) ;
#130 = CIRCLE ( 'NONE', #158, 10.00000000000000000 ) ;
#131 = DIRECTION ( 'NONE',  ( -1.000000000000000000, -0.0000000000000000000, -0.0000000000000000000 ) ) ;
#132 = CARTESIAN_POINT ( 'NONE',  ( 40.59999999999999400, 0.0000000000000000000, 0.0000000000000000000 ) ) ;
#133 = EDGE_CURVE ( 'NONE', #162, #161, #321, .T. ) ;
#134 = DIRECTION ( 'NONE',  ( 1.000000000000000000, 6.123233995736766000E-017, -0.0000000000000000000 ) ) ;
#135 = FACE_OUTER_BOUND ( 'NONE', #21, .T. ) ;
#136 = ORIENTED_EDGE ( 'NONE', *, *, #64, .T. ) ;
#137 = DIRECTION ( 'NONE',  ( -1.000000000000000000, -0.0000000000000000000, -0.0000000000000000000 ) ) ;
#138 = DIRECTION ( 'NONE',  ( 1.000000000000000000, 6.123233995736766000E-017, -0.0000000000000000000 ) ) ;
#139 = FACE_OUTER_BOUND ( 'NONE', #331, .T. ) ;
#140 = CARTESIAN_POINT ( 'NONE',  ( 40.99999999999999300, 0.0000000000000000000, 0.0000000000000000000 ) ) ;
#141 = AXIS2_PLACEMENT_3D ( 'NONE', #103, #245, #75 ) ;
#142 = ADVANCED_FACE ( 'NONE', ( #244 ), #313, .T. ) ;
#143 = ORIENTED_EDGE ( 'NONE', *, *, #25, .T. ) ;
#144 = DIRECTION ( 'NONE',  ( 1.000000000000000000, 0.0000000000000000000, 0.0000000000000000000 ) ) ;
#145 = APPROVAL_ROLE ( '' ) ;
#146 = ORIENTED_EDGE ( 'NONE', *, *, #82, .F. ) ;
#147 = APPROVAL ( #294, 'UNSPECIFIED' ) ;
#148 = DATE_TIME_ROLE ( 'classification_date' ) ;
#149 = CARTESIAN_POINT ( 'NONE',  ( 0.0000000000000000000, 0.0000000000000000000, 0.0000000000000000000 ) ) ;
#150 = DIRECTION ( 'NONE',  ( 1.000000000000000000, 6.123233995736766000E-017, -0.0000000000000000000 ) ) ;
#151 = VECTOR ( 'NONE', #138, 1000.000000000000000 ) ;
#152 = AXIS2_PLACEMENT_3D ( 'NONE', #310, #163, #1 ) ;
#153 = CLOSED_SHELL ( 'NONE', ( #142, #280, #311, #113, #168, #339 ) ) ;
#154 = EDGE_CURVE ( 'NONE', #210, #162, #92, .T. ) ;
#155 = VERTEX_POINT ( 'NONE', #312 ) ;
#156 = CALENDAR_DATE ( 2023, 31, 7 ) ;
#157 = CARTESIAN_POINT ( 'NONE',  ( 40.99999999999999300, 0.0000000000000000000, 0.0000000000000000000 ) ) ;
#158 = AXIS2_PLACEMENT_3D ( 'NONE', #104, #191, #19 ) ;
#159 = MANIFOLD_SOLID_BREP ( 'È¸Àü3', #111 ) ;
#160 = CIRCLE ( 'NONE', #208, 10.00000000000000000 ) ;
#161 = VERTEX_POINT ( 'NONE', #338 ) ;
#162 = VERTEX_POINT ( 'NONE', #250 ) ;
#163 = DIRECTION ( 'NONE',  ( -1.000000000000000000, -0.0000000000000000000, -0.0000000000000000000 ) ) ;
#164 = DATE_AND_TIME ( #242, #318 ) ;
#165 = CC_DESIGN_APPROVAL ( #147, ( #129 ) ) ;
#166 = CARTESIAN_POINT ( 'NONE',  ( 40.59999999999999400, 0.0000000000000000000, 0.0000000000000000000 ) ) ;
#167 = DIRECTION ( 'NONE',  ( 0.0000000000000000000, 0.0000000000000000000, 1.000000000000000000 ) ) ;
#168 = ADVANCED_FACE ( 'NONE', ( #185 ), #302, .T. ) ;
#169 = CIRCLE ( 'NONE', #114, 10.00000000000000000 ) ;
#170 = VERTEX_POINT ( 'NONE', #334 ) ;
#171 = AXIS2_PLACEMENT_3D ( 'NONE', #117, #229, #59 ) ;
#172 = EDGE_CURVE ( 'NONE', #76, #161, #15, .T. ) ;
#173 = CARTESIAN_POINT ( 'NONE',  ( -58.50000000000000700, 9.999999999999991100, 0.0000000000000000000 ) ) ;
#174 = ORIENTED_EDGE ( 'NONE', *, *, #246, .F. ) ;
#175 = PERSON_AND_ORGANIZATION ( #207, #362 ) ;
#176 = PERSON_AND_ORGANIZATION_ROLE ( 'creator' ) ;
#177 = AXIS2_PLACEMENT_3D ( 'NONE', #20, #137, #272 ) ;
#178 = FACE_OUTER_BOUND ( 'NONE', #248, .T. ) ;
#179 = CARTESIAN_POINT ( 'NONE',  ( 0.0000000000000000000, 0.0000000000000000000, 0.0000000000000000000 ) ) ;
#180 = ORIENTED_EDGE ( 'NONE', *, *, #172, .T. ) ;
#181 = LOCAL_TIME ( 9, 22, 44.00000000000000000, #262 ) ;
#182 = CC_DESIGN_PERSON_AND_ORGANIZATION_ASSIGNMENT ( #251, #176, ( #129 ) ) ;
#183 = DATE_AND_TIME ( #352, #36 ) ;
#184 = DIRECTION ( 'NONE',  ( 0.0000000000000000000, 0.0000000000000000000, 1.000000000000000000 ) ) ;
#185 = FACE_OUTER_BOUND ( 'NONE', #10, .T. ) ;
#186 = ORIENTED_EDGE ( 'NONE', *, *, #228, .T. ) ;
#187 = CARTESIAN_POINT ( 'NONE',  ( 40.59999999999999400, 1.224646799147353100E-015, -9.999999999999998200 ) ) ;
#188 = DIRECTION ( 'NONE',  ( 0.0000000000000000000, 0.0000000000000000000, 1.000000000000000000 ) ) ;
#189 = AXIS2_PLACEMENT_3D ( 'NONE', #290, #123, #91 ) ;
#190 = EDGE_CURVE ( 'NONE', #85, #79, #169, .T. ) ;
#191 = DIRECTION ( 'NONE',  ( -1.000000000000000000, -0.0000000000000000000, -0.0000000000000000000 ) ) ;
#192 = ORIENTED_EDGE ( 'NONE', *, *, #246, .T. ) ;
#193 = CALENDAR_DATE ( 2023, 31, 7 ) ;
#194 = AXIS2_PLACEMENT_3D ( 'NONE', #235, #266, #38 ) ;
#195 = ADVANCED_FACE ( 'NONE', ( #8 ), #84, .T. ) ;
#196 = VECTOR ( 'NONE', #131, 1000.000000000000000 ) ;
#197 = CARTESIAN_POINT ( 'NONE',  ( 0.0000000000000000000, 0.0000000000000000000, 0.0000000000000000000 ) ) ;
#198 = CARTESIAN_POINT ( 'NONE',  ( -58.50000000000000700, -9.999999999999998200, 1.224646799147352700E-015 ) ) ;
#199 = CARTESIAN_POINT ( 'NONE',  ( 0.9999999999999978900, 6.123233995736752500E-017, 0.0000000000000000000 ) ) ;
#200 = CYLINDRICAL_SURFACE ( 'NONE', #306, 10.00000000000000200 ) ;
#201 = ORIENTED_EDGE ( 'NONE', *, *, #154, .F. ) ;
#202 = APPROVAL_STATUS ( 'not_yet_approved' ) ;
#203 = CC_DESIGN_PERSON_AND_ORGANIZATION_ASSIGNMENT ( #175, #4, ( #129 ) ) ;
#204 = VECTOR ( 'NONE', #330, 1000.000000000000000 ) ;
#205 = SECURITY_CLASSIFICATION_LEVEL ( 'unclassified' ) ;
#206 = CARTESIAN_POINT ( 'NONE',  ( 0.9999999999999972200, 10.00000000000000000, 0.0000000000000000000 ) ) ;
#207 = PERSON ( 'UNSPECIFIED', 'UNSPECIFIED', 'UNSPECIFIED', ('UNSPECIFIED'), ('UNSPECIFIED'), ('UNSPECIFIED') ) ;
#208 = AXIS2_PLACEMENT_3D ( 'NONE', #199, #30, #6 ) ;
#209 = EDGE_CURVE ( 'NONE', #118, #47, #237, .T. ) ;
#210 = VERTEX_POINT ( 'NONE', #240 ) ;
#211 = AXIS2_PLACEMENT_3D ( 'NONE', #149, #260, #62 ) ;
#212 = LINE ( 'NONE', #217, #204 ) ;
#213 = AXIS2_PLACEMENT_3D ( 'NONE', #132, #328, #188 ) ;
#214 = FACE_OUTER_BOUND ( 'NONE', #273, .T. ) ;
#215 = ORIENTED_EDGE ( 'NONE', *, *, #56, .F. ) ;
#216 = DIRECTION ( 'NONE',  ( 0.7071067811865425800, 0.7071067811865525700, 0.0000000000000000000 ) ) ;
#217 = CARTESIAN_POINT ( 'NONE',  ( 0.0000000000000000000, 0.0000000000000000000, 10.00000000000000200 ) ) ;
#218 = ORIENTED_EDGE ( 'NONE', *, *, #228, .F. ) ;
#219 = SECURITY_CLASSIFICATION ( '', '', #205 ) ;
#220 = DIRECTION ( 'NONE',  ( 1.000000000000000000, 6.123233995736766000E-017, -0.0000000000000000000 ) ) ;
#221 = CARTESIAN_POINT ( 'NONE',  ( 40.60000000000000100, 0.0000000000000000000, 9.600000000000001400 ) ) ;
#222 = PRODUCT_DEFINITION_SHAPE ( 'NONE', 'NONE',  #34 ) ;
#223 = ADVANCED_FACE ( 'NONE', ( #73 ), #67, .F. ) ;
#224 = DIRECTION ( 'NONE',  ( 6.123233995736766000E-017, -1.000000000000000000, 0.0000000000000000000 ) ) ;
#225 = UNCERTAINTY_MEASURE_WITH_UNIT (LENGTH_MEASURE( 1.000000000000000100E-005 ), #119, 'distance_accuracy_value', 'NONE');
#226 = FACE_OUTER_BOUND ( 'NONE', #345, .T. ) ;
#227 = ORIENTED_EDGE ( 'NONE', *, *, #64, .F. ) ;
#228 = EDGE_CURVE ( 'NONE', #155, #118, #364, .T. ) ;
#229 = DIRECTION ( 'NONE',  ( 1.000000000000000000, 6.123233995736766000E-017, -0.0000000000000000000 ) ) ;
#230 =( GEOMETRIC_REPRESENTATION_CONTEXT ( 3 ) GLOBAL_UNCERTAINTY_ASSIGNED_CONTEXT ( ( #225 ) ) GLOBAL_UNIT_ASSIGNED_CONTEXT ( ( #119, #299, #100 ) ) REPRESENTATION_CONTEXT ( 'NONE', 'WORKASPACE' ) );
#231 = PERSON_AND_ORGANIZATION_ROLE ( 'creator' ) ;
#232 = ORIENTED_EDGE ( 'NONE', *, *, #82, .T. ) ;
#233 = LOCAL_TIME ( 9, 22, 44.00000000000000000, #309 ) ;
#234 = APPROVAL_PERSON_ORGANIZATION ( #348, #50, #32 ) ;
#235 = CARTESIAN_POINT ( 'NONE',  ( -58.50000000000000700, -3.582091887506008600E-015, 0.0000000000000000000 ) ) ;
#236 = AXIS2_PLACEMENT_3D ( 'NONE', #77, #144, #340 ) ;
#237 = LINE ( 'NONE', #65, #151 ) ;
#238 = ORIENTED_EDGE ( 'NONE', *, *, #25, .F. ) ;
#239 = PRODUCT ( '03-3203', '03-3203', '', ( #317 ) ) ;
#240 = CARTESIAN_POINT ( 'NONE',  ( 40.99999999999999300, 1.200153863164406000E-015, -9.600000000000001400 ) ) ;
#241 = ORIENTED_EDGE ( 'NONE', *, *, #44, .F. ) ;
#242 = CALENDAR_DATE ( 2023, 31, 7 ) ;
#243 = CC_DESIGN_PERSON_AND_ORGANIZATION_ASSIGNMENT ( #99, #319, ( #219 ) ) ;
#244 = FACE_OUTER_BOUND ( 'NONE', #42, .T. ) ;
#245 = DIRECTION ( 'NONE',  ( 1.000000000000000000, 6.123233995736766000E-017, -0.0000000000000000000 ) ) ;
#246 = EDGE_CURVE ( 'NONE', #296, #47, #160, .T. ) ;
#247 = PLANE ( 'NONE',  #236 ) ;
#248 = EDGE_LOOP ( 'NONE', ( #238, #127 ) ) ;
#249 = AXIS2_PLACEMENT_3D ( 'NONE', #322, #150, #346 ) ;
#250 = CARTESIAN_POINT ( 'NONE',  ( 40.99999999999999300, 0.0000000000000000000, 9.600000000000001400 ) ) ;
#251 = PERSON_AND_ORGANIZATION ( #207, #362 ) ;
#252 = CARTESIAN_POINT ( 'NONE',  ( 0.9999999999999997800, 0.0000000000000000000, 0.0000000000000000000 ) ) ;
#253 = CARTESIAN_POINT ( 'NONE',  ( -58.50000000000000700, -3.582091887506008600E-015, 0.0000000000000000000 ) ) ;
#254 = DIRECTION ( 'NONE',  ( 0.0000000000000000000, 0.0000000000000000000, -1.000000000000000000 ) ) ;
#255 = ADVANCED_FACE ( 'NONE', ( #226 ), #355, .T. ) ;
#256 = CIRCLE ( 'NONE', #257, 10.00000000000000000 ) ;
#257 = AXIS2_PLACEMENT_3D ( 'NONE', #304, #134, #329 ) ;
#258 = CARTESIAN_POINT ( 'NONE',  ( -59.00000000000000700, -3.612708057484692400E-015, 0.0000000000000000000 ) ) ;
#259 = COORDINATED_UNIVERSAL_TIME_OFFSET ( 9, 0, .AHEAD. ) ;
#260 = DIRECTION ( 'NONE',  ( -1.000000000000000000, -0.0000000000000000000, -0.0000000000000000000 ) ) ;
#261 = ORIENTED_EDGE ( 'NONE', *, *, #56, .T. ) ;
#262 = COORDINATED_UNIVERSAL_TIME_OFFSET ( 9, 0, .AHEAD. ) ;
#263 = APPLICATION_CONTEXT ( 'configuration controlled 3d designs of mechanical parts and assemblies' ) ;
#264 = CC_DESIGN_DATE_AND_TIME_ASSIGNMENT ( #164, #148, ( #219 ) ) ;
#265 = LINE ( 'NONE', #14, #196 ) ;
#266 = DIRECTION ( 'NONE',  ( 1.000000000000000000, 6.123233995736766000E-017, -0.0000000000000000000 ) ) ;
#267 = APPLICATION_CONTEXT ( 'configuration controlled 3d designs of mechanical parts and assemblies' ) ;
#268 = ORIENTED_EDGE ( 'NONE', *, *, #41, .T. ) ;
#269 = LOCAL_TIME ( 9, 22, 44.00000000000000000, #342 ) ;
#270 = LINE ( 'NONE', #274, #122 ) ;
#271 = AXIS2_PLACEMENT_3D ( 'NONE', #157, #354, #184 ) ;
#272 = DIRECTION ( 'NONE',  ( 0.0000000000000000000, 0.0000000000000000000, 1.000000000000000000 ) ) ;
#273 = EDGE_LOOP ( 'NONE', ( #289, #68, #31, #146 ) ) ;
#274 = CARTESIAN_POINT ( 'NONE',  ( -58.50000000000000700, -9.999999999999998200, 1.224646799147352700E-015 ) ) ;
#275 = DIRECTION ( 'NONE',  ( 0.0000000000000000000, 0.0000000000000000000, 1.000000000000000000 ) ) ;
#276 = CIRCLE ( 'NONE', #141, 9.499999999999994700 ) ;
#277 = ORIENTED_EDGE ( 'NONE', *, *, #115, .F. ) ;
#278 = APPROVAL ( #343, 'UNSPECIFIED' ) ;
#279 = DIRECTION ( 'NONE',  ( 0.0000000000000000000, -1.224646799147354400E-016, 1.000000000000000000 ) ) ;
#280 = ADVANCED_FACE ( 'NONE', ( #295 ), #57, .T. ) ;
#281 = CARTESIAN_POINT ( 'NONE',  ( 40.60000000000000100, 1.175660927181459000E-015, -9.600000000000001400 ) ) ;
#282 = DIRECTION ( 'NONE',  ( 0.0000000000000000000, 1.000000000000000000, 0.0000000000000000000 ) ) ;
#283 = DIRECTION ( 'NONE',  ( 1.000000000000000000, 6.123233995736766000E-017, -0.0000000000000000000 ) ) ;
#284 = FACE_OUTER_BOUND ( 'NONE', #58, .T. ) ;
#285 = ORIENTED_EDGE ( 'NONE', *, *, #209, .T. ) ;
#286 = DIRECTION ( 'NONE',  ( 1.000000000000000000, 6.123233995736766000E-017, -0.0000000000000000000 ) ) ;
#287 = AXIS2_PLACEMENT_3D ( 'NONE', #35, #286, #7 ) ;
#288 = DIRECTION ( 'NONE',  ( 0.0000000000000000000, 0.0000000000000000000, 1.000000000000000000 ) ) ;
#289 = ORIENTED_EDGE ( 'NONE', *, *, #209, .F. ) ;
#290 = CARTESIAN_POINT ( 'NONE',  ( 40.99999999999999300, 2.963485938127047100E-014, 0.0000000000000000000 ) ) ;
#291 = PLANE ( 'NONE',  #249 ) ;
#292 = AXIS2_PLACEMENT_3D ( 'NONE', #258, #83, #282 ) ;
#293 = MANIFOLD_SOLID_BREP ( 'È¸Àü4', #153 ) ;
#294 = APPROVAL_STATUS ( 'not_yet_approved' ) ;
#295 = FACE_OUTER_BOUND ( 'NONE', #48, .T. ) ;
#296 = VERTEX_POINT ( 'NONE', #206 ) ;
#297 = ORIENTED_EDGE ( 'NONE', *, *, #18, .T. ) ;
#298 = EDGE_LOOP ( 'NONE', ( #277, #356, #323, #70 ) ) ;
#299 =( NAMED_UNIT ( * ) PLANE_ANGLE_UNIT ( ) SI_UNIT ( $, .RADIAN. ) );
#300 = CC_DESIGN_APPROVAL ( #278, ( #219 ) ) ;
#301 = CARTESIAN_POINT ( 'NONE',  ( -59.00000000000001400, -3.612708057484692400E-015, 0.0000000000000000000 ) ) ;
#302 = CONICAL_SURFACE ( 'NONE', #40, 9.999999999999994700, 0.7853981633974552700 ) ;
#303 = ORIENTED_EDGE ( 'NONE', *, *, #190, .F. ) ;
#304 = CARTESIAN_POINT ( 'NONE',  ( 0.9999999999999978900, 6.123233995736752500E-017, 0.0000000000000000000 ) ) ;
#305 = CARTESIAN_POINT ( 'NONE',  ( 0.9999999999999985600, -10.00000000000000000, 1.224646799147353300E-015 ) ) ;
#306 = AXIS2_PLACEMENT_3D ( 'NONE', #60, #125, #315 ) ;
#307 = DIRECTION ( 'NONE',  ( 0.0000000000000000000, 1.000000000000000000, 0.0000000000000000000 ) ) ;
#308 = ORIENTED_EDGE ( 'NONE', *, *, #190, .T. ) ;
#309 = COORDINATED_UNIVERSAL_TIME_OFFSET ( 9, 0, .AHEAD. ) ;
#310 = CARTESIAN_POINT ( 'NONE',  ( 40.60000000000000100, 0.0000000000000000000, 0.0000000000000000000 ) ) ;
#311 = ADVANCED_FACE ( 'NONE', ( #135 ), #291, .T. ) ;
#312 = CARTESIAN_POINT ( 'NONE',  ( -58.50000000000000700, 9.999999999999991100, 0.0000000000000000000 ) ) ;
#313 = CYLINDRICAL_SURFACE ( 'NONE', #72, 10.00000000000000000 ) ;
#314 = ORIENTED_EDGE ( 'NONE', *, *, #97, .F. ) ;
#315 = DIRECTION ( 'NONE',  ( 0.0000000000000000000, 0.0000000000000000000, 1.000000000000000000 ) ) ;
#316 = ORIENTED_EDGE ( 'NONE', *, *, #133, .F. ) ;
#317 = MECHANICAL_CONTEXT ( 'NONE', #267, 'mechanical' ) ;
#318 = LOCAL_TIME ( 9, 22, 44.00000000000000000, #22 ) ;
#319 = PERSON_AND_ORGANIZATION_ROLE ( 'classification_officer' ) ;
#320 = CC_DESIGN_SECURITY_CLASSIFICATION ( #219, ( #129 ) ) ;
#321 = CIRCLE ( 'NONE', #16, 0.3999999999999958600 ) ;
#322 = CARTESIAN_POINT ( 'NONE',  ( 0.9999999999999985600, 10.00000000000000000, 0.0000000000000000000 ) ) ;
#323 = ORIENTED_EDGE ( 'NONE', *, *, #133, .T. ) ;
#324 = APPROVAL_DATE_TIME ( #33, #147 ) ;
#325 = PLANE ( 'NONE',  #347 ) ;
#326 = CIRCLE ( 'NONE', #271, 9.600000000000001400 ) ;
#327 = AXIS2_PLACEMENT_3D ( 'NONE', #281, #112, #279 ) ;
#328 = DIRECTION ( 'NONE',  ( -1.000000000000000000, -0.0000000000000000000, -0.0000000000000000000 ) ) ;
#329 = DIRECTION ( 'NONE',  ( -6.505213034913026600E-017, 1.000000000000000000, 0.0000000000000000000 ) ) ;
#330 = DIRECTION ( 'NONE',  ( -1.000000000000000000, -0.0000000000000000000, -0.0000000000000000000 ) ) ;
#331 = EDGE_LOOP ( 'NONE', ( #87, #93, #350, #316 ) ) ;
#332 = DIRECTION ( 'NONE',  ( 0.7071067811865425800, -0.7071067811865525700, 8.659560562354994500E-017 ) ) ;
#333 = APPROVAL_PERSON_ORGANIZATION ( #43, #147, #126 ) ;
#334 = CARTESIAN_POINT ( 'NONE',  ( -59.00000000000000700, -9.499999999999998200, 1.194030629168668700E-015 ) ) ;
#335 = PRODUCT_RELATED_PRODUCT_CATEGORY ( 'detail', '', ( #239 ) ) ;
#336 = DIRECTION ( 'NONE',  ( -1.000000000000000000, -0.0000000000000000000, -0.0000000000000000000 ) ) ;
#337 = CIRCLE ( 'NONE', #213, 10.00000000000000200 ) ;
#338 = CARTESIAN_POINT ( 'NONE',  ( 40.59999999999999400, 0.0000000000000000000, 9.999999999999998200 ) ) ;
#339 = ADVANCED_FACE ( 'NONE', ( #214 ), #349, .T. ) ;
#340 = DIRECTION ( 'NONE',  ( 0.0000000000000000000, 0.0000000000000000000, -1.000000000000000000 ) ) ;
#341 = ORIENTED_EDGE ( 'NONE', *, *, #18, .F. ) ;
#342 = COORDINATED_UNIVERSAL_TIME_OFFSET ( 9, 0, .AHEAD. ) ;
#343 = APPROVAL_STATUS ( 'not_yet_approved' ) ;
#344 = FACE_OUTER_BOUND ( 'NONE', #52, .T. ) ;
#345 = EDGE_LOOP ( 'NONE', ( #215, #180, #297, #303 ) ) ;
#346 = DIRECTION ( 'NONE',  ( -6.123233995736766000E-017, 1.000000000000000000, 0.0000000000000000000 ) ) ;
#347 = AXIS2_PLACEMENT_3D ( 'NONE', #301, #29, #224 ) ;
#348 = PERSON_AND_ORGANIZATION ( #207, #362 ) ;
#349 = CYLINDRICAL_SURFACE ( 'NONE', #287, 10.00000000000000000 ) ;
#350 = ORIENTED_EDGE ( 'NONE', *, *, #74, .F. ) ;
#351 = PERSON_AND_ORGANIZATION ( #207, #362 ) ;
#352 = CALENDAR_DATE ( 2023, 31, 7 ) ;
#353 = VECTOR ( 'NONE', #283, 1000.000000000000000 ) ;
#354 = DIRECTION ( 'NONE',  ( -1.000000000000000000, -0.0000000000000000000, -0.0000000000000000000 ) ) ;
#355 = CYLINDRICAL_SURFACE ( 'NONE', #211, 10.00000000000000200 ) ;
#356 = ORIENTED_EDGE ( 'NONE', *, *, #154, .T. ) ;
#357 = AXIS2_PLACEMENT_3D ( 'NONE', #179, #288, #121 ) ;
#358 = ORIENTED_EDGE ( 'NONE', *, *, #5, .F. ) ;
#359 = DIRECTION ( 'NONE',  ( -1.000000000000000000, -0.0000000000000000000, -0.0000000000000000000 ) ) ;
#360 = DIRECTION ( 'NONE',  ( 0.0000000000000000000, 1.000000000000000000, 0.0000000000000000000 ) ) ;
#361 = ADVANCED_FACE ( 'NONE', ( #284 ), #200, .T. ) ;
#362 = ORGANIZATION ( 'UNSPECIFIED', 'UNSPECIFIED', '' ) ;
#363 = AXIS2_PLACEMENT_3D ( 'NONE', #24, #220, #360 ) ;
#364 = CIRCLE ( 'NONE', #171, 9.999999999999994700 ) ;
#365 = VERTEX_POINT ( 'NONE', #86 ) ;
ENDSEC;
END-ISO-10303-21;
