ISO-10303-21;
HEADER;
FILE_DESCRIPTION (( 'STEP AP203' ),
    '1' );
FILE_NAME ('03-3206.STEP',
    '2023-07-31T00:23:54',
    ( 'USER' ),
    ( 'Hewlett-Packard Company' ),
    'SwSTEP 2.0',
    'SolidWorks 2014',
    '' );
FILE_SCHEMA (( 'CONFIG_CONTROL_DESIGN' ));
ENDSEC;

DATA;
#1 = ADVANCED_FACE ( 'NONE', ( #265 ), #257, .T. ) ;
#2 = FACE_OUTER_BOUND ( 'NONE', #275, .T. ) ;
#3 = CC_DESIGN_PERSON_AND_ORGANIZATION_ASSIGNMENT ( #82, #84, ( #66 ) ) ;
#4 = DIRECTION ( 'NONE',  ( 0.0000000000000000000, 0.0000000000000000000, 1.000000000000000000 ) ) ;
#5 = PERSON_AND_ORGANIZATION ( #342, #158 ) ;
#6 = ORIENTED_EDGE ( 'NONE', *, *, #142, .T. ) ;
#7 = EDGE_CURVE ( 'NONE', #211, #316, #328, .T. ) ;
#8 = FACE_OUTER_BOUND ( 'NONE', #28, .T. ) ;
#9 = AXIS2_PLACEMENT_3D ( 'NONE', #14, #47, #296 ) ;
#10 = DIRECTION ( 'NONE',  ( -1.000000000000000000, -0.0000000000000000000, -0.0000000000000000000 ) ) ;
#11 = ORIENTED_EDGE ( 'NONE', *, *, #245, .F. ) ;
#12 = CONICAL_SURFACE ( 'NONE', #93, 2.999999999999995600, 0.7853981633974405100 ) ;
#13 = DIRECTION ( 'NONE',  ( 0.0000000000000000000, -1.000000000000000000, 0.0000000000000000000 ) ) ;
#14 = CARTESIAN_POINT ( 'NONE',  ( 0.0000000000000000000, 0.0000000000000000000, 0.0000000000000000000 ) ) ;
#15 = PRODUCT_DEFINITION ( 'UNKNOWN', '', #116, #297 ) ;
#16 = DIRECTION ( 'NONE',  ( -7.228014483236695800E-017, 1.000000000000000000, 0.0000000000000000000 ) ) ;
#17 = EDGE_LOOP ( 'NONE', ( #221, #39 ) ) ;
#18 = APPLICATION_PROTOCOL_DEFINITION ( 'international standard', 'config_control_design', 1994, #285 ) ;
#19 = EDGE_CURVE ( 'NONE', #63, #33, #32, .T. ) ;
#20 = DIRECTION ( 'NONE',  ( 1.000000000000000000, 6.123233995736766000E-017, -0.0000000000000000000 ) ) ;
#21 = LOCAL_TIME ( 9, 23, 54.00000000000000000, #102 ) ;
#22 = ADVANCED_FACE ( 'NONE', ( #179 ), #12, .T. ) ;
#23 = CIRCLE ( 'NONE', #152, 3.000000000000000000 ) ;
#24 = ORIENTED_EDGE ( 'NONE', *, *, #30, .F. ) ;
#25 = AXIS2_PLACEMENT_3D ( 'NONE', #133, #216, #42 ) ;
#26 = DIRECTION ( 'NONE',  ( 1.000000000000000000, 6.123233995736766000E-017, -0.0000000000000000000 ) ) ;
#27 = CARTESIAN_POINT ( 'NONE',  ( -42.49999999999999300, -2.602374448188125100E-015, 0.0000000000000000000 ) ) ;
#28 = EDGE_LOOP ( 'NONE', ( #74, #239 ) ) ;
#29 = MANIFOLD_SOLID_BREP ( 'È¸Àü3', #163 ) ;
#30 = EDGE_CURVE ( 'NONE', #69, #107, #173, .T. ) ;
#31 = CALENDAR_DATE ( 2023, 31, 7 ) ;
#32 = LINE ( 'NONE', #300, #103 ) ;
#33 = VERTEX_POINT ( 'NONE', #70 ) ;
#34 = CARTESIAN_POINT ( 'NONE',  ( 0.0000000000000000000, 0.0000000000000000000, 0.0000000000000000000 ) ) ;
#35 = CARTESIAN_POINT ( 'NONE',  ( 33.00000000000000000, 3.429011037612587800E-016, -2.600000000000000100 ) ) ;
#36 = DIRECTION ( 'NONE',  ( 0.0000000000000000000, 1.000000000000000000, 0.0000000000000000000 ) ) ;
#37 = CIRCLE ( 'NONE', #259, 2.499999999999996000 ) ;
#38 = APPROVAL ( #228, 'UNSPECIFIED' ) ;
#39 = ORIENTED_EDGE ( 'NONE', *, *, #226, .T. ) ;
#40 = DIRECTION ( 'NONE',  ( 0.7071067811865531200, 0.7071067811865420200, 0.0000000000000000000 ) ) ;
#41 = DIRECTION ( 'NONE',  ( -1.000000000000000000, -0.0000000000000000000, -0.0000000000000000000 ) ) ;
#42 = DIRECTION ( 'NONE',  ( 0.0000000000000000000, 1.000000000000000000, 0.0000000000000000000 ) ) ;
#43 = EDGE_CURVE ( 'NONE', #346, #211, #95, .T. ) ;
#44 = PERSON_AND_ORGANIZATION ( #342, #158 ) ;
#45 = ORIENTED_EDGE ( 'NONE', *, *, #245, .T. ) ;
#46 = DIRECTION ( 'NONE',  ( -1.000000000000000000, -0.0000000000000000000, -0.0000000000000000000 ) ) ;
#47 = DIRECTION ( 'NONE',  ( 1.000000000000000000, 6.123233995736766000E-017, -0.0000000000000000000 ) ) ;
#48 = AXIS2_PLACEMENT_3D ( 'NONE', #188, #105, #309 ) ;
#49 = CIRCLE ( 'NONE', #122, 2.999999999999995600 ) ;
#50 = VERTEX_POINT ( 'NONE', #272 ) ;
#51 = DIRECTION ( 'NONE',  ( 1.000000000000000000, 6.123233995736766000E-017, -0.0000000000000000000 ) ) ;
#52 = COORDINATED_UNIVERSAL_TIME_OFFSET ( 9, 0, .AHEAD. ) ;
#53 = APPROVAL_ROLE ( '' ) ;
#54 = ORIENTED_EDGE ( 'NONE', *, *, #177, .T. ) ;
#55 = EDGE_CURVE ( 'NONE', #211, #346, #23, .T. ) ;
#56 = ADVANCED_FACE ( 'NONE', ( #319 ), #242, .T. ) ;
#57 = DIRECTION ( 'NONE',  ( -6.123233995736766000E-017, 1.000000000000000000, 0.0000000000000000000 ) ) ;
#58 = LINE ( 'NONE', #217, #299 ) ;
#59 = APPROVAL_ROLE ( '' ) ;
#60 = ORIENTED_EDGE ( 'NONE', *, *, #317, .T. ) ;
#61 = CC_DESIGN_APPROVAL ( #38, ( #15 ) ) ;
#62 = LOCAL_TIME ( 9, 23, 54.00000000000000000, #140 ) ;
#63 = VERTEX_POINT ( 'NONE', #310 ) ;
#64 = EDGE_CURVE ( 'NONE', #262, #150, #249, .T. ) ;
#65 = APPLICATION_PROTOCOL_DEFINITION ( 'international standard', 'config_control_design', 1994, #75 ) ;
#66 = PRODUCT ( '03-3206', '03-3206', '', ( #254 ) ) ;
#67 = CARTESIAN_POINT ( 'NONE',  ( 33.00000000000000000, 0.0000000000000000000, 0.0000000000000000000 ) ) ;
#68 = FACE_OUTER_BOUND ( 'NONE', #17, .T. ) ;
#69 = VERTEX_POINT ( 'NONE', #35 ) ;
#70 = CARTESIAN_POINT ( 'NONE',  ( -42.49999999999999300, -2.999999999999998200, 3.673940397442054400E-016 ) ) ;
#71 = DIRECTION ( 'NONE',  ( 0.0000000000000000000, 0.0000000000000000000, 1.000000000000000000 ) ) ;
#72 = CARTESIAN_POINT ( 'NONE',  ( 1.000000000000000000, 3.000000000000000000, 0.0000000000000000000 ) ) ;
#73 = CALENDAR_DATE ( 2023, 31, 7 ) ;
#74 = ORIENTED_EDGE ( 'NONE', *, *, #354, .F. ) ;
#75 = APPLICATION_CONTEXT ( 'configuration controlled 3d designs of mechanical parts and assemblies' ) ;
#76 = AXIS2_PLACEMENT_3D ( 'NONE', #303, #41, #244 ) ;
#77 = DIRECTION ( 'NONE',  ( 0.0000000000000000000, 1.000000000000000000, 0.0000000000000000000 ) ) ;
#78 = CIRCLE ( 'NONE', #25, 2.999999999999995600 ) ;
#79 = CARTESIAN_POINT ( 'NONE',  ( -43.00000000000000000, -2.632990618166809600E-015, 0.0000000000000000000 ) ) ;
#80 = CC_DESIGN_PERSON_AND_ORGANIZATION_ASSIGNMENT ( #214, #169, ( #15 ) ) ;
#81 = CARTESIAN_POINT ( 'NONE',  ( 1.000000000000000000, 6.123233995736766000E-017, 0.0000000000000000000 ) ) ;
#82 = PERSON_AND_ORGANIZATION ( #342, #158 ) ;
#83 = ORIENTED_EDGE ( 'NONE', *, *, #263, .T. ) ;
#84 = PERSON_AND_ORGANIZATION_ROLE ( 'design_owner' ) ;
#85 = EDGE_CURVE ( 'NONE', #107, #69, #238, .T. ) ;
#86 = ADVANCED_FACE ( 'NONE', ( #87 ), #187, .T. ) ;
#87 = FACE_OUTER_BOUND ( 'NONE', #284, .T. ) ;
#88 = ORIENTED_EDGE ( 'NONE', *, *, #304, .F. ) ;
#89 = AXIS2_PLACEMENT_3D ( 'NONE', #305, #131, #329 ) ;
#90 = CARTESIAN_POINT ( 'NONE',  ( 0.0000000000000000000, 0.0000000000000000000, 0.0000000000000000000 ) ) ;
#91 = PERSON_AND_ORGANIZATION_ROLE ( 'design_supplier' ) ;
#92 = ORIENTED_EDGE ( 'NONE', *, *, #317, .F. ) ;
#93 = AXIS2_PLACEMENT_3D ( 'NONE', #352, #280, #36 ) ;
#94 =( NAMED_UNIT ( * ) SI_UNIT ( $, .STERADIAN. ) SOLID_ANGLE_UNIT ( ) );
#95 = CIRCLE ( 'NONE', #132, 3.000000000000000000 ) ;
#96 = DIRECTION ( 'NONE',  ( -6.123233995736766000E-017, 1.000000000000000000, 0.0000000000000000000 ) ) ;
#97 = CC_DESIGN_DATE_AND_TIME_ASSIGNMENT ( #283, #364, ( #15 ) ) ;
#98 = ORIENTED_EDGE ( 'NONE', *, *, #100, .F. ) ;
#99 = CARTESIAN_POINT ( 'NONE',  ( 1.000000000000000700, 0.0000000000000000000, 3.000000000000000000 ) ) ;
#100 = EDGE_CURVE ( 'NONE', #167, #50, #313, .T. ) ;
#101 = CARTESIAN_POINT ( 'NONE',  ( 33.00000000000000000, 0.0000000000000000000, 0.0000000000000000000 ) ) ;
#102 = COORDINATED_UNIVERSAL_TIME_OFFSET ( 9, 0, .AHEAD. ) ;
#103 = VECTOR ( 'NONE', #125, 999.9999999999998900 ) ;
#104 = CLOSED_SHELL ( 'NONE', ( #144, #22, #56, #112, #287, #341 ) ) ;
#105 = DIRECTION ( 'NONE',  ( 1.000000000000000000, 0.0000000000000000000, 0.0000000000000000000 ) ) ;
#106 = AXIS2_PLACEMENT_3D ( 'NONE', #306, #276, #330 ) ;
#107 = VERTEX_POINT ( 'NONE', #240 ) ;
#108 = LOCAL_TIME ( 9, 23, 54.00000000000000000, #186 ) ;
#109 = VECTOR ( 'NONE', #126, 1000.000000000000000 ) ;
#110 = AXIS2_PLACEMENT_3D ( 'NONE', #34, #270, #151 ) ;
#111 = APPROVAL_ROLE ( '' ) ;
#112 = ADVANCED_FACE ( 'NONE', ( #8 ), #347, .T. ) ;
#113 = DIRECTION ( 'NONE',  ( -1.000000000000000000, -0.0000000000000000000, -0.0000000000000000000 ) ) ;
#114 = LINE ( 'NONE', #166, #191 ) ;
#115 = ORIENTED_EDGE ( 'NONE', *, *, #85, .T. ) ;
#116 = PRODUCT_DEFINITION_FORMATION_WITH_SPECIFIED_SOURCE ( 'ANY', '', #66, .NOT_KNOWN. ) ;
#117 = APPROVAL_DATE_TIME ( #197, #139 ) ;
#118 = EDGE_CURVE ( 'NONE', #69, #211, #308, .T. ) ;
#119 = ORIENTED_EDGE ( 'NONE', *, *, #30, .T. ) ;
#120 = CARTESIAN_POINT ( 'NONE',  ( 1.000000000000000000, 6.123233995736766000E-017, 0.0000000000000000000 ) ) ;
#121 = DIRECTION ( 'NONE',  ( -1.000000000000000000, -0.0000000000000000000, -0.0000000000000000000 ) ) ;
#122 = AXIS2_PLACEMENT_3D ( 'NONE', #229, #20, #199 ) ;
#123 = ORIENTED_EDGE ( 'NONE', *, *, #177, .F. ) ;
#124 = PLANE ( 'NONE',  #48 ) ;
#125 = DIRECTION ( 'NONE',  ( 0.7071067811865531200, -0.7071067811865420200, 8.659560562354866300E-017 ) ) ;
#126 = DIRECTION ( 'NONE',  ( -1.000000000000000000, -0.0000000000000000000, -0.0000000000000000000 ) ) ;
#127 = APPROVAL_PERSON_ORGANIZATION ( #206, #139, #59 ) ;
#128 = ORIENTED_EDGE ( 'NONE', *, *, #354, .T. ) ;
#129 = CARTESIAN_POINT ( 'NONE',  ( 32.60000000000000100, 3.673940397442059400E-016, -2.999999999999999100 ) ) ;
#130 = EDGE_LOOP ( 'NONE', ( #83, #45, #203, #92 ) ) ;
#131 = DIRECTION ( 'NONE',  ( -1.000000000000000000, -0.0000000000000000000, -0.0000000000000000000 ) ) ;
#132 = AXIS2_PLACEMENT_3D ( 'NONE', #184, #10, #212 ) ;
#133 = CARTESIAN_POINT ( 'NONE',  ( -42.49999999999999300, -2.602374448188125100E-015, 0.0000000000000000000 ) ) ;
#134 = PRODUCT_DEFINITION_SHAPE ( 'NONE', 'NONE',  #15 ) ;
#135 = CARTESIAN_POINT ( 'NONE',  ( 32.60000000000000100, 3.184081677783118200E-016, -2.600000000000000100 ) ) ;
#136 = CYLINDRICAL_SURFACE ( 'NONE', #106, 3.000000000000000000 ) ;
#137 = ORIENTED_EDGE ( 'NONE', *, *, #19, .T. ) ;
#138 = CARTESIAN_POINT ( 'NONE',  ( 32.60000000000000100, 0.0000000000000000000, 0.0000000000000000000 ) ) ;
#139 = APPROVAL ( #196, 'UNSPECIFIED' ) ;
#140 = COORDINATED_UNIVERSAL_TIME_OFFSET ( 9, 0, .AHEAD. ) ;
#141 = EDGE_LOOP ( 'NONE', ( #115, #302, #314, #344 ) ) ;
#142 = EDGE_CURVE ( 'NONE', #63, #262, #154, .T. ) ;
#143 = SECURITY_CLASSIFICATION_LEVEL ( 'unclassified' ) ;
#144 = ADVANCED_FACE ( 'NONE', ( #232 ), #145, .T. ) ;
#145 = CYLINDRICAL_SURFACE ( 'NONE', #9, 3.000000000000000000 ) ;
#146 = AXIS2_PLACEMENT_3D ( 'NONE', #101, #356, #185 ) ;
#147 = CARTESIAN_POINT ( 'NONE',  ( 0.0000000000000000000, 0.0000000000000000000, 0.0000000000000000000 ) ) ;
#148 = ORIENTED_EDGE ( 'NONE', *, *, #282, .T. ) ;
#149 = LOCAL_TIME ( 9, 23, 54.00000000000000000, #224 ) ;
#150 = VERTEX_POINT ( 'NONE', #357 ) ;
#151 = DIRECTION ( 'NONE',  ( 0.0000000000000000000, 0.0000000000000000000, 1.000000000000000000 ) ) ;
#152 = AXIS2_PLACEMENT_3D ( 'NONE', #138, #322, #155 ) ;
#153 = DIRECTION ( 'NONE',  ( -7.228014483236695800E-017, 1.000000000000000000, 0.0000000000000000000 ) ) ;
#154 = CIRCLE ( 'NONE', #321, 2.499999999999996000 ) ;
#155 = DIRECTION ( 'NONE',  ( 0.0000000000000000000, 0.0000000000000000000, 1.000000000000000000 ) ) ;
#156 = CARTESIAN_POINT ( 'NONE',  ( 32.60000000000000100, 0.0000000000000000000, 0.0000000000000000000 ) ) ;
#157 = CC_DESIGN_APPROVAL ( #139, ( #116 ) ) ;
#158 = ORGANIZATION ( 'UNSPECIFIED', 'UNSPECIFIED', '' ) ;
#159 = ORIENTED_EDGE ( 'NONE', *, *, #118, .F. ) ;
#160 = EDGE_CURVE ( 'NONE', #107, #346, #220, .T. ) ;
#161 = CARTESIAN_POINT ( 'NONE',  ( 1.000000000000000200, -3.000000000000000000, 3.673940397442059900E-016 ) ) ;
#162 = VECTOR ( 'NONE', #40, 999.9999999999998900 ) ;
#163 = CLOSED_SHELL ( 'NONE', ( #200, #258, #86, #1, #170, #231 ) ) ;
#164 = DIRECTION ( 'NONE',  ( 0.0000000000000000000, -1.224646799147353700E-016, 1.000000000000000000 ) ) ;
#165 = AXIS2_PLACEMENT_3D ( 'NONE', #256, #46, #4 ) ;
#166 = CARTESIAN_POINT ( 'NONE',  ( 0.0000000000000000000, 0.0000000000000000000, 3.000000000000000000 ) ) ;
#167 = VERTEX_POINT ( 'NONE', #161 ) ;
#168 = DIRECTION ( 'NONE',  ( 0.0000000000000000000, 1.000000000000000000, 0.0000000000000000000 ) ) ;
#169 = PERSON_AND_ORGANIZATION_ROLE ( 'creator' ) ;
#170 = ADVANCED_FACE ( 'NONE', ( #68 ), #124, .F. ) ;
#171 = APPROVAL_DATE_TIME ( #248, #271 ) ;
#172 = DATE_TIME_ROLE ( 'classification_date' ) ;
#173 = CIRCLE ( 'NONE', #76, 2.600000000000000100 ) ;
#174 = CARTESIAN_POINT ( 'NONE',  ( 32.60000000000000100, 0.0000000000000000000, 2.999999999999999100 ) ) ;
#175 = CC_DESIGN_PERSON_AND_ORGANIZATION_ASSIGNMENT ( #44, #260, ( #116 ) ) ;
#176 = ORIENTED_EDGE ( 'NONE', *, *, #263, .F. ) ;
#177 = EDGE_CURVE ( 'NONE', #33, #150, #78, .T. ) ;
#178 = APPROVAL_PERSON_ORGANIZATION ( #255, #271, #111 ) ;
#179 = FACE_OUTER_BOUND ( 'NONE', #183, .T. ) ;
#180 = DIRECTION ( 'NONE',  ( -1.000000000000000000, -6.123233995736766000E-017, 0.0000000000000000000 ) ) ;
#181 = AXIS2_PLACEMENT_3D ( 'NONE', #81, #193, #16 ) ;
#182 = FACE_OUTER_BOUND ( 'NONE', #350, .T. ) ;
#183 = EDGE_LOOP ( 'NONE', ( #128, #137, #176, #215 ) ) ;
#184 = CARTESIAN_POINT ( 'NONE',  ( 32.60000000000000100, 0.0000000000000000000, 0.0000000000000000000 ) ) ;
#185 = DIRECTION ( 'NONE',  ( -0.0000000000000000000, 0.0000000000000000000, 1.000000000000000000 ) ) ;
#186 = COORDINATED_UNIVERSAL_TIME_OFFSET ( 9, 0, .AHEAD. ) ;
#187 = TOROIDAL_SURFACE ( 'NONE', #251, 2.600000000000000100, 0.3999999999999988600 ) ;
#188 = CARTESIAN_POINT ( 'NONE',  ( 1.000000000000000900, 7.228014483236702000E-017, 0.0000000000000000000 ) ) ;
#189 = AXIS2_PLACEMENT_3D ( 'NONE', #67, #266, #71 ) ;
#190 = CARTESIAN_POINT ( 'NONE',  ( 32.60000000000000100, 0.0000000000000000000, 2.600000000000000100 ) ) ;
#191 = VECTOR ( 'NONE', #334, 1000.000000000000000 ) ;
#192 = EDGE_LOOP ( 'NONE', ( #207, #292, #252, #295 ) ) ;
#193 = DIRECTION ( 'NONE',  ( 1.000000000000000000, 6.123233995736766000E-017, -0.0000000000000000000 ) ) ;
#194 = CC_DESIGN_PERSON_AND_ORGANIZATION_ASSIGNMENT ( #338, #91, ( #116 ) ) ;
#195 =( NAMED_UNIT ( * ) PLANE_ANGLE_UNIT ( ) SI_UNIT ( $, .RADIAN. ) );
#196 = APPROVAL_STATUS ( 'not_yet_approved' ) ;
#197 = DATE_AND_TIME ( #274, #345 ) ;
#198 = EDGE_LOOP ( 'NONE', ( #148, #333 ) ) ;
#199 = DIRECTION ( 'NONE',  ( 0.0000000000000000000, 1.000000000000000000, 0.0000000000000000000 ) ) ;
#200 = ADVANCED_FACE ( 'NONE', ( #2 ), #136, .T. ) ;
#201 = AXIS2_PLACEMENT_3D ( 'NONE', #27, #365, #204 ) ;
#202 = FACE_OUTER_BOUND ( 'NONE', #312, .T. ) ;
#203 = ORIENTED_EDGE ( 'NONE', *, *, #282, .F. ) ;
#204 = DIRECTION ( 'NONE',  ( 0.0000000000000000000, 1.000000000000000000, 0.0000000000000000000 ) ) ;
#205 = ADVANCED_BREP_SHAPE_REPRESENTATION ( '03-3206', ( #29, #273, #351 ), #241 ) ;
#206 = PERSON_AND_ORGANIZATION ( #342, #158 ) ;
#207 = ORIENTED_EDGE ( 'NONE', *, *, #7, .F. ) ;
#208 = CARTESIAN_POINT ( 'NONE',  ( 0.0000000000000000000, 3.673940397442059900E-016, -3.000000000000000000 ) ) ;
#209 = AXIS2_PLACEMENT_3D ( 'NONE', #72, #348, #96 ) ;
#210 = CIRCLE ( 'NONE', #89, 3.000000000000000000 ) ;
#211 = VERTEX_POINT ( 'NONE', #129 ) ;
#212 = DIRECTION ( 'NONE',  ( 0.0000000000000000000, 0.0000000000000000000, 1.000000000000000000 ) ) ;
#213 = SECURITY_CLASSIFICATION ( '', '', #143 ) ;
#214 = PERSON_AND_ORGANIZATION ( #342, #158 ) ;
#215 = ORIENTED_EDGE ( 'NONE', *, *, #64, .F. ) ;
#216 = DIRECTION ( 'NONE',  ( 1.000000000000000000, 6.123233995736766000E-017, -0.0000000000000000000 ) ) ;
#217 = CARTESIAN_POINT ( 'NONE',  ( 1.836970198721029900E-016, -3.000000000000000000, 3.673940397442059900E-016 ) ) ;
#218 = PLANE ( 'NONE',  #146 ) ;
#219 = DIRECTION ( 'NONE',  ( 0.0000000000000000000, 0.0000000000000000000, -1.000000000000000000 ) ) ;
#220 = CIRCLE ( 'NONE', #358, 0.3999999999999988600 ) ;
#221 = ORIENTED_EDGE ( 'NONE', *, *, #337, .T. ) ;
#222 = DIRECTION ( 'NONE',  ( 6.123233995736766000E-017, -1.000000000000000000, 0.0000000000000000000 ) ) ;
#223 = AXIS2_PLACEMENT_3D ( 'NONE', #290, #113, #315 ) ;
#224 = COORDINATED_UNIVERSAL_TIME_OFFSET ( 9, 0, .AHEAD. ) ;
#225 = CARTESIAN_POINT ( 'NONE',  ( -43.00000000000000000, -2.632990618166809600E-015, 0.0000000000000000000 ) ) ;
#226 = EDGE_CURVE ( 'NONE', #316, #237, #210, .T. ) ;
#227 = ORIENTED_EDGE ( 'NONE', *, *, #85, .F. ) ;
#228 = APPROVAL_STATUS ( 'not_yet_approved' ) ;
#229 = CARTESIAN_POINT ( 'NONE',  ( -42.49999999999999300, -2.602374448188125100E-015, 0.0000000000000000000 ) ) ;
#230 = AXIS2_PLACEMENT_3D ( 'NONE', #120, #320, #153 ) ;
#231 = ADVANCED_FACE ( 'NONE', ( #291 ), #218, .F. ) ;
#232 = FACE_OUTER_BOUND ( 'NONE', #130, .T. ) ;
#233 = DIRECTION ( 'NONE',  ( 1.000000000000000000, 6.123233995736766000E-017, -0.0000000000000000000 ) ) ;
#234 = DIRECTION ( 'NONE',  ( 1.000000000000000000, 0.0000000000000000000, 0.0000000000000000000 ) ) ;
#235 = CC_DESIGN_PERSON_AND_ORGANIZATION_ASSIGNMENT ( #264, #340, ( #213 ) ) ;
#236 = SHAPE_DEFINITION_REPRESENTATION ( #134, #205 ) ;
#237 = VERTEX_POINT ( 'NONE', #99 ) ;
#238 = CIRCLE ( 'NONE', #189, 2.600000000000000100 ) ;
#239 = ORIENTED_EDGE ( 'NONE', *, *, #142, .F. ) ;
#240 = CARTESIAN_POINT ( 'NONE',  ( 33.00000000000000000, 0.0000000000000000000, 2.600000000000000100 ) ) ;
#241 =( GEOMETRIC_REPRESENTATION_CONTEXT ( 3 ) GLOBAL_UNCERTAINTY_ASSIGNED_CONTEXT ( ( #336 ) ) GLOBAL_UNIT_ASSIGNED_CONTEXT ( ( #281, #195, #94 ) ) REPRESENTATION_CONTEXT ( 'NONE', 'WORKASPACE' ) );
#242 = PLANE ( 'NONE',  #209 ) ;
#243 = ORIENTED_EDGE ( 'NONE', *, *, #55, .F. ) ;
#244 = DIRECTION ( 'NONE',  ( 0.0000000000000000000, 0.0000000000000000000, 1.000000000000000000 ) ) ;
#245 = EDGE_CURVE ( 'NONE', #33, #167, #58, .T. ) ;
#246 = DIRECTION ( 'NONE',  ( 0.0000000000000000000, 0.0000000000000000000, 1.000000000000000000 ) ) ;
#247 = CARTESIAN_POINT ( 'NONE',  ( -43.00000000000000000, 2.499999999999993300, 0.0000000000000000000 ) ) ;
#248 = DATE_AND_TIME ( #318, #21 ) ;
#249 = LINE ( 'NONE', #298, #162 ) ;
#250 = DIRECTION ( 'NONE',  ( 1.000000000000000000, 6.123233995736766000E-017, -0.0000000000000000000 ) ) ;
#251 = AXIS2_PLACEMENT_3D ( 'NONE', #156, #121, #269 ) ;
#252 = ORIENTED_EDGE ( 'NONE', *, *, #304, .T. ) ;
#253 = CC_DESIGN_DATE_AND_TIME_ASSIGNMENT ( #327, #172, ( #213 ) ) ;
#254 = MECHANICAL_CONTEXT ( 'NONE', #75, 'mechanical' ) ;
#255 = PERSON_AND_ORGANIZATION ( #342, #158 ) ;
#256 = CARTESIAN_POINT ( 'NONE',  ( 32.60000000000000100, 0.0000000000000000000, 0.0000000000000000000 ) ) ;
#257 = CYLINDRICAL_SURFACE ( 'NONE', #110, 3.000000000000000000 ) ;
#258 = ADVANCED_FACE ( 'NONE', ( #359 ), #277, .T. ) ;
#259 = AXIS2_PLACEMENT_3D ( 'NONE', #225, #51, #168 ) ;
#260 = PERSON_AND_ORGANIZATION_ROLE ( 'creator' ) ;
#261 = VECTOR ( 'NONE', #26, 1000.000000000000000 ) ;
#262 = VERTEX_POINT ( 'NONE', #247 ) ;
#263 = EDGE_CURVE ( 'NONE', #150, #33, #49, .T. ) ;
#264 = PERSON_AND_ORGANIZATION ( #342, #158 ) ;
#265 = FACE_OUTER_BOUND ( 'NONE', #192, .T. ) ;
#266 = DIRECTION ( 'NONE',  ( -1.000000000000000000, -0.0000000000000000000, -0.0000000000000000000 ) ) ;
#267 = CIRCLE ( 'NONE', #223, 3.000000000000000000 ) ;
#268 = ORIENTED_EDGE ( 'NONE', *, *, #19, .F. ) ;
#269 = DIRECTION ( 'NONE',  ( 0.0000000000000000000, 0.0000000000000000000, 1.000000000000000000 ) ) ;
#270 = DIRECTION ( 'NONE',  ( -1.000000000000000000, -0.0000000000000000000, -0.0000000000000000000 ) ) ;
#271 = APPROVAL ( #286, 'UNSPECIFIED' ) ;
#272 = CARTESIAN_POINT ( 'NONE',  ( 0.9999999999999997800, 3.000000000000000000, 0.0000000000000000000 ) ) ;
#273 = MANIFOLD_SOLID_BREP ( 'È¸Àü4', #104 ) ;
#274 = CALENDAR_DATE ( 2023, 31, 7 ) ;
#275 = EDGE_LOOP ( 'NONE', ( #325, #360, #363, #88 ) ) ;
#276 = DIRECTION ( 'NONE',  ( -1.000000000000000000, -0.0000000000000000000, -0.0000000000000000000 ) ) ;
#277 = TOROIDAL_SURFACE ( 'NONE', #165, 2.600000000000000100, 0.3999999999999988600 ) ;
#278 = AXIS2_PLACEMENT_3D ( 'NONE', #90, #233, #57 ) ;
#279 = ORIENTED_EDGE ( 'NONE', *, *, #160, .T. ) ;
#280 = DIRECTION ( 'NONE',  ( 1.000000000000000000, 6.123233995736766000E-017, -0.0000000000000000000 ) ) ;
#281 =( LENGTH_UNIT ( ) NAMED_UNIT ( * ) SI_UNIT ( .MILLI., .METRE. ) );
#282 = EDGE_CURVE ( 'NONE', #50, #167, #349, .T. ) ;
#283 = DATE_AND_TIME ( #353, #62 ) ;
#284 = EDGE_LOOP ( 'NONE', ( #159, #119, #279, #243 ) ) ;
#285 = APPLICATION_CONTEXT ( 'configuration controlled 3d designs of mechanical parts and assemblies' ) ;
#286 = APPROVAL_STATUS ( 'not_yet_approved' ) ;
#287 = ADVANCED_FACE ( 'NONE', ( #202 ), #332, .T. ) ;
#288 = AXIS2_PLACEMENT_3D ( 'NONE', #135, #331, #164 ) ;
#289 = CARTESIAN_POINT ( 'NONE',  ( 1.000000000000000700, 3.673940397442059900E-016, -3.000000000000000000 ) ) ;
#290 = CARTESIAN_POINT ( 'NONE',  ( 1.000000000000000700, 0.0000000000000000000, 0.0000000000000000000 ) ) ;
#291 = FACE_OUTER_BOUND ( 'NONE', #355, .T. ) ;
#292 = ORIENTED_EDGE ( 'NONE', *, *, #55, .T. ) ;
#293 = CC_DESIGN_APPROVAL ( #271, ( #213 ) ) ;
#294 = APPROVAL_DATE_TIME ( #362, #38 ) ;
#295 = ORIENTED_EDGE ( 'NONE', *, *, #226, .F. ) ;
#296 = DIRECTION ( 'NONE',  ( -6.123233995736766000E-017, 1.000000000000000000, 0.0000000000000000000 ) ) ;
#297 = DESIGN_CONTEXT ( 'detailed design', #285, 'design' ) ;
#298 = CARTESIAN_POINT ( 'NONE',  ( -42.49999999999999300, 2.999999999999993300, 0.0000000000000000000 ) ) ;
#299 = VECTOR ( 'NONE', #335, 1000.000000000000000 ) ;
#300 = CARTESIAN_POINT ( 'NONE',  ( -42.49999999999999300, -2.999999999999998200, 3.673940397442054400E-016 ) ) ;
#301 = APPROVAL_PERSON_ORGANIZATION ( #5, #38, #53 ) ;
#302 = ORIENTED_EDGE ( 'NONE', *, *, #118, .T. ) ;
#303 = CARTESIAN_POINT ( 'NONE',  ( 33.00000000000000000, 0.0000000000000000000, 0.0000000000000000000 ) ) ;
#304 = EDGE_CURVE ( 'NONE', #346, #237, #114, .T. ) ;
#305 = CARTESIAN_POINT ( 'NONE',  ( 1.000000000000000700, 0.0000000000000000000, 0.0000000000000000000 ) ) ;
#306 = CARTESIAN_POINT ( 'NONE',  ( 0.0000000000000000000, 0.0000000000000000000, 0.0000000000000000000 ) ) ;
#307 = AXIS2_PLACEMENT_3D ( 'NONE', #323, #180, #222 ) ;
#308 = CIRCLE ( 'NONE', #288, 0.3999999999999988600 ) ;
#309 = DIRECTION ( 'NONE',  ( 0.0000000000000000000, 0.0000000000000000000, -1.000000000000000000 ) ) ;
#310 = CARTESIAN_POINT ( 'NONE',  ( -43.00000000000000000, -2.499999999999998700, 3.367778697655216100E-016 ) ) ;
#311 = CC_DESIGN_SECURITY_CLASSIFICATION ( #213, ( #116 ) ) ;
#312 = EDGE_LOOP ( 'NONE', ( #268, #6, #339, #123 ) ) ;
#313 = CIRCLE ( 'NONE', #230, 3.000000000000000000 ) ;
#314 = ORIENTED_EDGE ( 'NONE', *, *, #43, .F. ) ;
#315 = DIRECTION ( 'NONE',  ( 0.0000000000000000000, 0.0000000000000000000, 1.000000000000000000 ) ) ;
#316 = VERTEX_POINT ( 'NONE', #289 ) ;
#317 = EDGE_CURVE ( 'NONE', #150, #50, #343, .T. ) ;
#318 = CALENDAR_DATE ( 2023, 31, 7 ) ;
#319 = FACE_OUTER_BOUND ( 'NONE', #198, .T. ) ;
#320 = DIRECTION ( 'NONE',  ( 1.000000000000000000, 6.123233995736766000E-017, -0.0000000000000000000 ) ) ;
#321 = AXIS2_PLACEMENT_3D ( 'NONE', #79, #250, #77 ) ;
#322 = DIRECTION ( 'NONE',  ( -1.000000000000000000, -0.0000000000000000000, -0.0000000000000000000 ) ) ;
#323 = CARTESIAN_POINT ( 'NONE',  ( -43.00000000000000000, -2.632990618166809200E-015, 0.0000000000000000000 ) ) ;
#324 = CYLINDRICAL_SURFACE ( 'NONE', #278, 3.000000000000000000 ) ;
#325 = ORIENTED_EDGE ( 'NONE', *, *, #43, .T. ) ;
#326 = PRODUCT_RELATED_PRODUCT_CATEGORY ( 'detail', '', ( #66 ) ) ;
#327 = DATE_AND_TIME ( #31, #108 ) ;
#328 = LINE ( 'NONE', #208, #109 ) ;
#329 = DIRECTION ( 'NONE',  ( 0.0000000000000000000, 0.0000000000000000000, 1.000000000000000000 ) ) ;
#330 = DIRECTION ( 'NONE',  ( 0.0000000000000000000, 0.0000000000000000000, 1.000000000000000000 ) ) ;
#331 = DIRECTION ( 'NONE',  ( -0.0000000000000000000, 1.000000000000000000, 1.224646799147353200E-016 ) ) ;
#332 = CONICAL_SURFACE ( 'NONE', #201, 2.999999999999995600, 0.7853981633974405100 ) ;
#333 = ORIENTED_EDGE ( 'NONE', *, *, #100, .T. ) ;
#334 = DIRECTION ( 'NONE',  ( -1.000000000000000000, -0.0000000000000000000, -0.0000000000000000000 ) ) ;
#335 = DIRECTION ( 'NONE',  ( 1.000000000000000000, 6.123233995736766000E-017, -0.0000000000000000000 ) ) ;
#336 = UNCERTAINTY_MEASURE_WITH_UNIT (LENGTH_MEASURE( 1.000000000000000100E-005 ), #281, 'distance_accuracy_value', 'NONE');
#337 = EDGE_CURVE ( 'NONE', #237, #316, #267, .T. ) ;
#338 = PERSON_AND_ORGANIZATION ( #342, #158 ) ;
#339 = ORIENTED_EDGE ( 'NONE', *, *, #64, .T. ) ;
#340 = PERSON_AND_ORGANIZATION_ROLE ( 'classification_officer' ) ;
#341 = ADVANCED_FACE ( 'NONE', ( #182 ), #324, .T. ) ;
#342 = PERSON ( 'UNSPECIFIED', 'UNSPECIFIED', 'UNSPECIFIED', ('UNSPECIFIED'), ('UNSPECIFIED'), ('UNSPECIFIED') ) ;
#343 = LINE ( 'NONE', #361, #261 ) ;
#344 = ORIENTED_EDGE ( 'NONE', *, *, #160, .F. ) ;
#345 = LOCAL_TIME ( 9, 23, 54.00000000000000000, #52 ) ;
#346 = VERTEX_POINT ( 'NONE', #174 ) ;
#347 = PLANE ( 'NONE',  #307 ) ;
#348 = DIRECTION ( 'NONE',  ( 1.000000000000000000, 6.123233995736766000E-017, -0.0000000000000000000 ) ) ;
#349 = CIRCLE ( 'NONE', #181, 3.000000000000000000 ) ;
#350 = EDGE_LOOP ( 'NONE', ( #11, #54, #60, #98 ) ) ;
#351 = AXIS2_PLACEMENT_3D ( 'NONE', #147, #246, #234 ) ;
#352 = CARTESIAN_POINT ( 'NONE',  ( -42.49999999999999300, -2.602374448188125100E-015, 0.0000000000000000000 ) ) ;
#353 = CALENDAR_DATE ( 2023, 31, 7 ) ;
#354 = EDGE_CURVE ( 'NONE', #262, #63, #37, .T. ) ;
#355 = EDGE_LOOP ( 'NONE', ( #227, #24 ) ) ;
#356 = DIRECTION ( 'NONE',  ( -1.000000000000000000, 0.0000000000000000000, -0.0000000000000000000 ) ) ;
#357 = CARTESIAN_POINT ( 'NONE',  ( -42.49999999999999300, 2.999999999999993300, 0.0000000000000000000 ) ) ;
#358 = AXIS2_PLACEMENT_3D ( 'NONE', #190, #13, #219 ) ;
#359 = FACE_OUTER_BOUND ( 'NONE', #141, .T. ) ;
#360 = ORIENTED_EDGE ( 'NONE', *, *, #7, .T. ) ;
#361 = CARTESIAN_POINT ( 'NONE',  ( -1.836970198721029900E-016, 3.000000000000000000, 0.0000000000000000000 ) ) ;
#362 = DATE_AND_TIME ( #73, #149 ) ;
#363 = ORIENTED_EDGE ( 'NONE', *, *, #337, .F. ) ;
#364 = DATE_TIME_ROLE ( 'creation_date' ) ;
#365 = DIRECTION ( 'NONE',  ( 1.000000000000000000, 6.123233995736766000E-017, -0.0000000000000000000 ) ) ;
ENDSEC;
END-ISO-10303-21;
