ISO-10303-21;
HEADER;
FILE_DESCRIPTION (( 'STEP AP203' ),
    '1' );
FILE_NAME ('03-3207.STEP',
    '2023-07-31T00:24:12',
    ( 'USER' ),
    ( 'Hewlett-Packard Company' ),
    'SwSTEP 2.0',
    'SolidWorks 2014',
    '' );
FILE_SCHEMA (( 'CONFIG_CONTROL_DESIGN' ));
ENDSEC;

DATA;
#1 = PERSON_AND_ORGANIZATION ( #165, #269 ) ;
#2 = ORIENTED_EDGE ( 'NONE', *, *, #227, .T. ) ;
#3 = EDGE_LOOP ( 'NONE', ( #69, #16, #359, #86 ) ) ;
#4 = APPROVAL ( #59, 'UNSPECIFIED' ) ;
#5 = EDGE_LOOP ( 'NONE', ( #79, #23, #87, #38 ) ) ;
#6 = ORIENTED_EDGE ( 'NONE', *, *, #296, .T. ) ;
#7 = DIRECTION ( 'NONE',  ( 0.0000000000000000000, 1.000000000000000000, 0.0000000000000000000 ) ) ;
#8 = CALENDAR_DATE ( 2023, 31, 7 ) ;
#9 = EDGE_LOOP ( 'NONE', ( #288, #63, #6, #223 ) ) ;
#10 = ORIENTED_EDGE ( 'NONE', *, *, #334, .T. ) ;
#11 = ORIENTED_EDGE ( 'NONE', *, *, #19, .T. ) ;
#12 = CARTESIAN_POINT ( 'NONE',  ( 40.60000000000000900, 4.408728476930471200E-016, -3.600000000000000100 ) ) ;
#13 = DATE_AND_TIME ( #105, #183 ) ;
#14 = DIRECTION ( 'NONE',  ( -1.000000000000000000, -0.0000000000000000000, -0.0000000000000000000 ) ) ;
#15 = CIRCLE ( 'NONE', #358, 4.000000000000000000 ) ;
#16 = ORIENTED_EDGE ( 'NONE', *, *, #213, .T. ) ;
#17 = DIRECTION ( 'NONE',  ( 0.0000000000000000000, 1.000000000000000000, 0.0000000000000000000 ) ) ;
#18 = DIRECTION ( 'NONE',  ( 0.0000000000000000000, 0.0000000000000000000, 1.000000000000000000 ) ) ;
#19 = EDGE_CURVE ( 'NONE', #145, #73, #343, .T. ) ;
#20 = MANIFOLD_SOLID_BREP ( 'È¸Àü4', #81 ) ;
#21 = CARTESIAN_POINT ( 'NONE',  ( 0.0000000000000000000, 0.0000000000000000000, 0.0000000000000000000 ) ) ;
#22 = ORIENTED_EDGE ( 'NONE', *, *, #177, .T. ) ;
#23 = ORIENTED_EDGE ( 'NONE', *, *, #100, .T. ) ;
#24 = DIRECTION ( 'NONE',  ( 1.000000000000000000, 6.123233995736766000E-017, -0.0000000000000000000 ) ) ;
#25 = APPLICATION_CONTEXT ( 'configuration controlled 3d designs of mechanical parts and assemblies' ) ;
#26 = ADVANCED_FACE ( 'NONE', ( #277 ), #47, .T. ) ;
#27 = APPROVAL_DATE_TIME ( #114, #4 ) ;
#28 = APPROVAL_STATUS ( 'not_yet_approved' ) ;
#29 = CC_DESIGN_APPROVAL ( #4, ( #350 ) ) ;
#30 = FACE_OUTER_BOUND ( 'NONE', #41, .T. ) ;
#31 = VERTEX_POINT ( 'NONE', #191 ) ;
#32 = EDGE_CURVE ( 'NONE', #54, #33, #143, .T. ) ;
#33 = VERTEX_POINT ( 'NONE', #245 ) ;
#34 = ORIENTED_EDGE ( 'NONE', *, *, #283, .T. ) ;
#35 = ORIENTED_EDGE ( 'NONE', *, *, #72, .T. ) ;
#36 = APPROVAL_PERSON_ORGANIZATION ( #127, #4, #263 ) ;
#37 = CIRCLE ( 'NONE', #149, 4.000000000000000000 ) ;
#38 = ORIENTED_EDGE ( 'NONE', *, *, #52, .F. ) ;
#39 = CARTESIAN_POINT ( 'NONE',  ( 0.0000000000000000000, 0.0000000000000000000, 4.000000000000000000 ) ) ;
#40 = CARTESIAN_POINT ( 'NONE',  ( 41.00000000000000700, 4.653657836759940800E-016, -3.600000000000000100 ) ) ;
#41 = EDGE_LOOP ( 'NONE', ( #64, #10, #292, #82 ) ) ;
#42 = AXIS2_PLACEMENT_3D ( 'NONE', #294, #243, #136 ) ;
#43 = ORIENTED_EDGE ( 'NONE', *, *, #19, .F. ) ;
#44 = ORIENTED_EDGE ( 'NONE', *, *, #192, .F. ) ;
#45 = DIRECTION ( 'NONE',  ( -1.000000000000000000, -0.0000000000000000000, -0.0000000000000000000 ) ) ;
#46 = DIRECTION ( 'NONE',  ( 0.0000000000000000000, -1.224646799147353700E-016, 1.000000000000000000 ) ) ;
#47 = CYLINDRICAL_SURFACE ( 'NONE', #109, 4.000000000000000000 ) ;
#48 = CARTESIAN_POINT ( 'NONE',  ( 41.00000000000000700, 0.0000000000000000000, 0.0000000000000000000 ) ) ;
#49 = ORIENTED_EDGE ( 'NONE', *, *, #121, .F. ) ;
#50 = CC_DESIGN_PERSON_AND_ORGANIZATION_ASSIGNMENT ( #316, #95, ( #350 ) ) ;
#51 = EDGE_LOOP ( 'NONE', ( #155, #62, #315, #349 ) ) ;
#52 = EDGE_CURVE ( 'NONE', #70, #214, #60, .T. ) ;
#53 = CARTESIAN_POINT ( 'NONE',  ( 0.0000000000000000000, 0.0000000000000000000, 0.0000000000000000000 ) ) ;
#54 = VERTEX_POINT ( 'NONE', #321 ) ;
#55 = VERTEX_POINT ( 'NONE', #345 ) ;
#56 = EDGE_LOOP ( 'NONE', ( #34, #300 ) ) ;
#57 = AXIS2_PLACEMENT_3D ( 'NONE', #329, #331, #176 ) ;
#58 = ADVANCED_FACE ( 'NONE', ( #132 ), #265, .T. ) ;
#59 = APPROVAL_STATUS ( 'not_yet_approved' ) ;
#60 = LINE ( 'NONE', #39, #339 ) ;
#61 = ORIENTED_EDGE ( 'NONE', *, *, #346, .T. ) ;
#62 = ORIENTED_EDGE ( 'NONE', *, *, #246, .T. ) ;
#63 = ORIENTED_EDGE ( 'NONE', *, *, #32, .T. ) ;
#64 = ORIENTED_EDGE ( 'NONE', *, *, #314, .T. ) ;
#65 = AXIS2_PLACEMENT_3D ( 'NONE', #344, #193, #7 ) ;
#66 = CYLINDRICAL_SURFACE ( 'NONE', #251, 4.000000000000000000 ) ;
#67 = CALENDAR_DATE ( 2023, 31, 7 ) ;
#68 = ORIENTED_EDGE ( 'NONE', *, *, #213, .F. ) ;
#69 = ORIENTED_EDGE ( 'NONE', *, *, #100, .F. ) ;
#70 = VERTEX_POINT ( 'NONE', #247 ) ;
#71 = CC_DESIGN_DATE_AND_TIME_ASSIGNMENT ( #13, #289, ( #350 ) ) ;
#72 = EDGE_CURVE ( 'NONE', #214, #179, #270, .T. ) ;
#73 = VERTEX_POINT ( 'NONE', #218 ) ;
#74 = DIRECTION ( 'NONE',  ( -1.000000000000000000, -0.0000000000000000000, -0.0000000000000000000 ) ) ;
#75 = VERTEX_POINT ( 'NONE', #40 ) ;
#76 = DIRECTION ( 'NONE',  ( -1.000000000000000000, -0.0000000000000000000, -0.0000000000000000000 ) ) ;
#77 = FACE_OUTER_BOUND ( 'NONE', #9, .T. ) ;
#78 = DATE_AND_TIME ( #161, #229 ) ;
#79 = ORIENTED_EDGE ( 'NONE', *, *, #121, .T. ) ;
#80 = AXIS2_PLACEMENT_3D ( 'NONE', #353, #203, #17 ) ;
#81 = CLOSED_SHELL ( 'NONE', ( #287, #181, #234, #156, #58, #361 ) ) ;
#82 = ORIENTED_EDGE ( 'NONE', *, *, #346, .F. ) ;
#83 = CARTESIAN_POINT ( 'NONE',  ( -48.49999999999998600, -2.969768487932330900E-015, 0.0000000000000000000 ) ) ;
#84 = DIRECTION ( 'NONE',  ( 0.0000000000000000000, 0.0000000000000000000, 1.000000000000000000 ) ) ;
#85 = DIRECTION ( 'NONE',  ( -1.000000000000000000, 0.0000000000000000000, -0.0000000000000000000 ) ) ;
#86 = ORIENTED_EDGE ( 'NONE', *, *, #227, .F. ) ;
#87 = ORIENTED_EDGE ( 'NONE', *, *, #72, .F. ) ;
#88 = DIRECTION ( 'NONE',  ( 1.000000000000000000, 6.123233995736766000E-017, -0.0000000000000000000 ) ) ;
#89 = AXIS2_PLACEMENT_3D ( 'NONE', #272, #108, #295 ) ;
#90 = LINE ( 'NONE', #259, #166 ) ;
#91 = PERSON_AND_ORGANIZATION ( #165, #269 ) ;
#92 = DIRECTION ( 'NONE',  ( 0.7071067811865432400, 0.7071067811865517900, 0.0000000000000000000 ) ) ;
#93 = ORIENTED_EDGE ( 'NONE', *, *, #137, .T. ) ;
#94 =( NAMED_UNIT ( * ) SI_UNIT ( $, .STERADIAN. ) SOLID_ANGLE_UNIT ( ) );
#95 = PERSON_AND_ORGANIZATION_ROLE ( 'creator' ) ;
#96 = LOCAL_TIME ( 9, 24, 12.00000000000000000, #172 ) ;
#97 = PRODUCT_DEFINITION_FORMATION_WITH_SPECIFIED_SOURCE ( 'ANY', '', #194, .NOT_KNOWN. ) ;
#98 = CONICAL_SURFACE ( 'NONE', #274, 3.999999999999996400, 0.7853981633974543900 ) ;
#99 = ORIENTED_EDGE ( 'NONE', *, *, #159, .F. ) ;
#100 = EDGE_CURVE ( 'NONE', #31, #179, #130, .T. ) ;
#101 = VECTOR ( 'NONE', #122, 1000.000000000000000 ) ;
#102 = EDGE_LOOP ( 'NONE', ( #103, #44 ) ) ;
#103 = ORIENTED_EDGE ( 'NONE', *, *, #137, .F. ) ;
#104 = AXIS2_PLACEMENT_3D ( 'NONE', #202, #85, #281 ) ;
#105 = CALENDAR_DATE ( 2023, 31, 7 ) ;
#106 = FACE_OUTER_BOUND ( 'NONE', #102, .T. ) ;
#107 = DIRECTION ( 'NONE',  ( 0.0000000000000000000, 0.0000000000000000000, 1.000000000000000000 ) ) ;
#108 = DIRECTION ( 'NONE',  ( 1.000000000000000000, 6.123233995736766000E-017, -0.0000000000000000000 ) ) ;
#109 = AXIS2_PLACEMENT_3D ( 'NONE', #164, #320, #107 ) ;
#110 = DIRECTION ( 'NONE',  ( -1.000000000000000000, -0.0000000000000000000, -0.0000000000000000000 ) ) ;
#111 = ORIENTED_EDGE ( 'NONE', *, *, #314, .F. ) ;
#112 = EDGE_LOOP ( 'NONE', ( #239, #11, #61, #249 ) ) ;
#113 = DIRECTION ( 'NONE',  ( -1.000000000000000000, -6.123233995736766000E-017, 0.0000000000000000000 ) ) ;
#114 = DATE_AND_TIME ( #188, #262 ) ;
#115 = DIRECTION ( 'NONE',  ( 0.0000000000000000000, -1.000000000000000000, 0.0000000000000000000 ) ) ;
#116 = DIRECTION ( 'NONE',  ( 0.0000000000000000000, 0.0000000000000000000, -1.000000000000000000 ) ) ;
#117 = CIRCLE ( 'NONE', #168, 3.600000000000000100 ) ;
#118 = APPROVAL ( #128, 'UNSPECIFIED' ) ;
#119 = ORIENTED_EDGE ( 'NONE', *, *, #192, .T. ) ;
#120 = DIRECTION ( 'NONE',  ( -1.000000000000000000, -0.0000000000000000000, -0.0000000000000000000 ) ) ;
#121 = EDGE_CURVE ( 'NONE', #70, #31, #37, .T. ) ;
#122 = DIRECTION ( 'NONE',  ( 1.000000000000000000, 6.123233995736766000E-017, -0.0000000000000000000 ) ) ;
#123 = CARTESIAN_POINT ( 'NONE',  ( -48.99999999999997900, -3.000384657911014300E-015, 0.0000000000000000000 ) ) ;
#124 = CLOSED_SHELL ( 'NONE', ( #338, #310, #129, #26, #208, #264 ) ) ;
#125 = APPLICATION_PROTOCOL_DEFINITION ( 'international standard', 'config_control_design', 1994, #153 ) ;
#126 = AXIS2_PLACEMENT_3D ( 'NONE', #257, #88, #282 ) ;
#127 = PERSON_AND_ORGANIZATION ( #165, #269 ) ;
#128 = APPROVAL_STATUS ( 'not_yet_approved' ) ;
#129 = ADVANCED_FACE ( 'NONE', ( #210 ), #328, .T. ) ;
#130 = LINE ( 'NONE', #195, #200 ) ;
#131 = AXIS2_PLACEMENT_3D ( 'NONE', #139, #322, #167 ) ;
#132 = FACE_OUTER_BOUND ( 'NONE', #112, .T. ) ;
#133 = EDGE_LOOP ( 'NONE', ( #99, #119, #22, #68 ) ) ;
#134 = CYLINDRICAL_SURFACE ( 'NONE', #182, 4.000000000000000000 ) ;
#135 = CC_DESIGN_APPROVAL ( #118, ( #97 ) ) ;
#136 = DIRECTION ( 'NONE',  ( 0.0000000000000000000, 1.000000000000000000, 0.0000000000000000000 ) ) ;
#137 = EDGE_CURVE ( 'NONE', #231, #75, #117, .T. ) ;
#138 = VERTEX_POINT ( 'NONE', #196 ) ;
#139 = CARTESIAN_POINT ( 'NONE',  ( 0.9999999999999997800, 0.0000000000000000000, 0.0000000000000000000 ) ) ;
#140 = DIRECTION ( 'NONE',  ( 0.0000000000000000000, 0.0000000000000000000, 1.000000000000000000 ) ) ;
#141 = CARTESIAN_POINT ( 'NONE',  ( 0.9999999999999997800, 4.898587196589412800E-016, -4.000000000000000000 ) ) ;
#142 = AXIS2_PLACEMENT_3D ( 'NONE', #204, #147, #18 ) ;
#143 = CIRCLE ( 'NONE', #89, 3.999999999999996400 ) ;
#144 = DIRECTION ( 'NONE',  ( 1.000000000000000000, 6.123233995736766000E-017, -0.0000000000000000000 ) ) ;
#145 = VERTEX_POINT ( 'NONE', #324 ) ;
#146 = DIRECTION ( 'NONE',  ( 1.000000000000000000, 6.123233995736766000E-017, -0.0000000000000000000 ) ) ;
#147 = DIRECTION ( 'NONE',  ( -1.000000000000000000, -0.0000000000000000000, -0.0000000000000000000 ) ) ;
#148 = DIRECTION ( 'NONE',  ( 0.0000000000000000000, 1.000000000000000000, 0.0000000000000000000 ) ) ;
#149 = AXIS2_PLACEMENT_3D ( 'NONE', #273, #110, #299 ) ;
#150 = CIRCLE ( 'NONE', #198, 4.000000000000000000 ) ;
#151 =( LENGTH_UNIT ( ) NAMED_UNIT ( * ) SI_UNIT ( .MILLI., .METRE. ) );
#152 = LOCAL_TIME ( 9, 24, 12.00000000000000000, #221 ) ;
#153 = APPLICATION_CONTEXT ( 'configuration controlled 3d designs of mechanical parts and assemblies' ) ;
#154 = EDGE_LOOP ( 'NONE', ( #35, #2 ) ) ;
#155 = ORIENTED_EDGE ( 'NONE', *, *, #267, .T. ) ;
#156 = ADVANCED_FACE ( 'NONE', ( #318 ), #347, .T. ) ;
#157 = PERSON_AND_ORGANIZATION_ROLE ( 'creator' ) ;
#158 = CC_DESIGN_PERSON_AND_ORGANIZATION_ASSIGNMENT ( #169, #157, ( #97 ) ) ;
#159 = EDGE_CURVE ( 'NONE', #75, #31, #189, .T. ) ;
#160 = FACE_OUTER_BOUND ( 'NONE', #5, .T. ) ;
#161 = CALENDAR_DATE ( 2023, 31, 7 ) ;
#162 = EDGE_LOOP ( 'NONE', ( #111, #43 ) ) ;
#163 = AXIS2_PLACEMENT_3D ( 'NONE', #123, #307, #148 ) ;
#164 = CARTESIAN_POINT ( 'NONE',  ( 0.0000000000000000000, 0.0000000000000000000, 0.0000000000000000000 ) ) ;
#165 = PERSON ( 'UNSPECIFIED', 'UNSPECIFIED', 'UNSPECIFIED', ('UNSPECIFIED'), ('UNSPECIFIED'), ('UNSPECIFIED') ) ;
#166 = VECTOR ( 'NONE', #92, 1000.000000000000000 ) ;
#167 = DIRECTION ( 'NONE',  ( 0.0000000000000000000, 0.0000000000000000000, 1.000000000000000000 ) ) ;
#168 = AXIS2_PLACEMENT_3D ( 'NONE', #222, #45, #250 ) ;
#169 = PERSON_AND_ORGANIZATION ( #165, #269 ) ;
#170 = EDGE_LOOP ( 'NONE', ( #93, #363, #49, #309 ) ) ;
#171 = DIRECTION ( 'NONE',  ( 0.0000000000000000000, 1.000000000000000000, 0.0000000000000000000 ) ) ;
#172 = COORDINATED_UNIVERSAL_TIME_OFFSET ( 9, 0, .AHEAD. ) ;
#173 = CARTESIAN_POINT ( 'NONE',  ( 0.9999999999999997800, 0.0000000000000000000, 4.000000000000000000 ) ) ;
#174 = CC_DESIGN_PERSON_AND_ORGANIZATION_ASSIGNMENT ( #91, #337, ( #97 ) ) ;
#175 = CIRCLE ( 'NONE', #290, 3.600000000000000100 ) ;
#176 = DIRECTION ( 'NONE',  ( -6.123233995736766000E-017, 1.000000000000000000, 0.0000000000000000000 ) ) ;
#177 = EDGE_CURVE ( 'NONE', #231, #70, #185, .T. ) ;
#178 = CARTESIAN_POINT ( 'NONE',  ( 0.0000000000000000000, 0.0000000000000000000, 0.0000000000000000000 ) ) ;
#179 = VERTEX_POINT ( 'NONE', #141 ) ;
#180 = DIRECTION ( 'NONE',  ( 1.000000000000000000, 0.0000000000000000000, 0.0000000000000000000 ) ) ;
#181 = ADVANCED_FACE ( 'NONE', ( #30 ), #98, .T. ) ;
#182 = AXIS2_PLACEMENT_3D ( 'NONE', #53, #305, #332 ) ;
#183 = LOCAL_TIME ( 9, 24, 12.00000000000000000, #252 ) ;
#184 = SECURITY_CLASSIFICATION_LEVEL ( 'unclassified' ) ;
#185 = CIRCLE ( 'NONE', #260, 0.3999999999999988600 ) ;
#186 = PRODUCT_DEFINITION_SHAPE ( 'NONE', 'NONE',  #350 ) ;
#187 = AXIS2_PLACEMENT_3D ( 'NONE', #248, #219, #140 ) ;
#188 = CALENDAR_DATE ( 2023, 31, 7 ) ;
#189 = CIRCLE ( 'NONE', #220, 0.3999999999999988600 ) ;
#190 = SECURITY_CLASSIFICATION ( '', '', #184 ) ;
#191 = CARTESIAN_POINT ( 'NONE',  ( 40.60000000000000900, 4.898587196589411800E-016, -3.999999999999999100 ) ) ;
#192 = EDGE_CURVE ( 'NONE', #75, #231, #175, .T. ) ;
#193 = DIRECTION ( 'NONE',  ( 1.000000000000000000, 6.123233995736766000E-017, -0.0000000000000000000 ) ) ;
#194 = PRODUCT ( '03-3207', '03-3207', '', ( #360 ) ) ;
#195 = CARTESIAN_POINT ( 'NONE',  ( 0.0000000000000000000, 4.898587196589412800E-016, -4.000000000000000000 ) ) ;
#196 = CARTESIAN_POINT ( 'NONE',  ( 0.9999999999999986700, 4.000000000000000000, 0.0000000000000000000 ) ) ;
#197 = PERSON_AND_ORGANIZATION ( #165, #269 ) ;
#198 = AXIS2_PLACEMENT_3D ( 'NONE', #207, #24, #230 ) ;
#199 = PLANE ( 'NONE',  #342 ) ;
#200 = VECTOR ( 'NONE', #76, 1000.000000000000000 ) ;
#201 = CARTESIAN_POINT ( 'NONE',  ( 40.60000000000000900, 0.0000000000000000000, 0.0000000000000000000 ) ) ;
#202 = CARTESIAN_POINT ( 'NONE',  ( 41.00000000000000700, -7.902629168338804100E-014, 0.0000000000000000000 ) ) ;
#203 = DIRECTION ( 'NONE',  ( 1.000000000000000000, 6.123233995736766000E-017, -0.0000000000000000000 ) ) ;
#204 = CARTESIAN_POINT ( 'NONE',  ( 40.60000000000000900, 0.0000000000000000000, 0.0000000000000000000 ) ) ;
#205 = DIRECTION ( 'NONE',  ( -6.123233995736766000E-017, 1.000000000000000000, 0.0000000000000000000 ) ) ;
#206 = ADVANCED_BREP_SHAPE_REPRESENTATION ( '03-3207', ( #268, #20, #317 ), #215 ) ;
#207 = CARTESIAN_POINT ( 'NONE',  ( 0.9999999999999988900, 6.123233995736759900E-017, 0.0000000000000000000 ) ) ;
#208 = ADVANCED_FACE ( 'NONE', ( #254 ), #199, .F. ) ;
#209 = PERSON_AND_ORGANIZATION_ROLE ( 'design_owner' ) ;
#210 = FACE_OUTER_BOUND ( 'NONE', #133, .T. ) ;
#211 = DATE_TIME_ROLE ( 'classification_date' ) ;
#212 = CC_DESIGN_PERSON_AND_ORGANIZATION_ASSIGNMENT ( #1, #362, ( #190 ) ) ;
#213 = EDGE_CURVE ( 'NONE', #31, #70, #313, .T. ) ;
#214 = VERTEX_POINT ( 'NONE', #173 ) ;
#215 =( GEOMETRIC_REPRESENTATION_CONTEXT ( 3 ) GLOBAL_UNCERTAINTY_ASSIGNED_CONTEXT ( ( #323 ) ) GLOBAL_UNIT_ASSIGNED_CONTEXT ( ( #151, #261, #94 ) ) REPRESENTATION_CONTEXT ( 'NONE', 'WORKASPACE' ) );
#216 = FACE_OUTER_BOUND ( 'NONE', #56, .T. ) ;
#217 = CIRCLE ( 'NONE', #80, 3.999999999999996400 ) ;
#218 = CARTESIAN_POINT ( 'NONE',  ( -48.99999999999997900, 3.499999999999993800, 0.0000000000000000000 ) ) ;
#219 = DIRECTION ( 'NONE',  ( -1.000000000000000000, -0.0000000000000000000, -0.0000000000000000000 ) ) ;
#220 = AXIS2_PLACEMENT_3D ( 'NONE', #12, #224, #46 ) ;
#221 = COORDINATED_UNIVERSAL_TIME_OFFSET ( 9, 0, .AHEAD. ) ;
#222 = CARTESIAN_POINT ( 'NONE',  ( 41.00000000000000700, 0.0000000000000000000, 0.0000000000000000000 ) ) ;
#223 = ORIENTED_EDGE ( 'NONE', *, *, #364, .F. ) ;
#224 = DIRECTION ( 'NONE',  ( -0.0000000000000000000, 1.000000000000000000, 1.224646799147353200E-016 ) ) ;
#225 = DIRECTION ( 'NONE',  ( 0.0000000000000000000, 0.0000000000000000000, 1.000000000000000000 ) ) ;
#226 = CC_DESIGN_DATE_AND_TIME_ASSIGNMENT ( #78, #211, ( #190 ) ) ;
#227 = EDGE_CURVE ( 'NONE', #179, #214, #15, .T. ) ;
#228 = DIRECTION ( 'NONE',  ( -1.000000000000000000, -0.0000000000000000000, -0.0000000000000000000 ) ) ;
#229 = LOCAL_TIME ( 9, 24, 12.00000000000000000, #298 ) ;
#230 = DIRECTION ( 'NONE',  ( -5.421010862427522200E-017, 1.000000000000000000, 0.0000000000000000000 ) ) ;
#231 = VERTEX_POINT ( 'NONE', #351 ) ;
#232 = APPLICATION_PROTOCOL_DEFINITION ( 'international standard', 'config_control_design', 1994, #25 ) ;
#233 = AXIS2_PLACEMENT_3D ( 'NONE', #178, #228, #354 ) ;
#234 = ADVANCED_FACE ( 'NONE', ( #216 ), #303, .T. ) ;
#235 = APPROVAL_ROLE ( '' ) ;
#236 = CIRCLE ( 'NONE', #163, 3.499999999999996900 ) ;
#237 = APPROVAL_DATE_TIME ( #308, #118 ) ;
#238 = AXIS2_PLACEMENT_3D ( 'NONE', #275, #113, #301 ) ;
#239 = ORIENTED_EDGE ( 'NONE', *, *, #334, .F. ) ;
#240 = APPROVAL_PERSON_ORGANIZATION ( #312, #118, #311 ) ;
#241 = LINE ( 'NONE', #352, #244 ) ;
#242 = APPROVAL ( #28, 'UNSPECIFIED' ) ;
#243 = DIRECTION ( 'NONE',  ( 1.000000000000000000, 6.123233995736766000E-017, -0.0000000000000000000 ) ) ;
#244 = VECTOR ( 'NONE', #146, 1000.000000000000000 ) ;
#245 = CARTESIAN_POINT ( 'NONE',  ( -48.49999999999998600, 3.999999999999994200, 0.0000000000000000000 ) ) ;
#246 = EDGE_CURVE ( 'NONE', #54, #55, #241, .T. ) ;
#247 = CARTESIAN_POINT ( 'NONE',  ( 40.60000000000000900, 0.0000000000000000000, 3.999999999999999100 ) ) ;
#248 = CARTESIAN_POINT ( 'NONE',  ( 40.60000000000000900, 0.0000000000000000000, 0.0000000000000000000 ) ) ;
#249 = ORIENTED_EDGE ( 'NONE', *, *, #32, .F. ) ;
#250 = DIRECTION ( 'NONE',  ( 0.0000000000000000000, 0.0000000000000000000, 1.000000000000000000 ) ) ;
#251 = AXIS2_PLACEMENT_3D ( 'NONE', #21, #285, #205 ) ;
#252 = COORDINATED_UNIVERSAL_TIME_OFFSET ( 9, 0, .AHEAD. ) ;
#253 = DIRECTION ( 'NONE',  ( -1.000000000000000000, -0.0000000000000000000, -0.0000000000000000000 ) ) ;
#254 = FACE_OUTER_BOUND ( 'NONE', #154, .T. ) ;
#255 = CIRCLE ( 'NONE', #126, 4.000000000000000000 ) ;
#256 = PLANE ( 'NONE',  #104 ) ;
#257 = CARTESIAN_POINT ( 'NONE',  ( 0.9999999999999988900, 6.123233995736759900E-017, 0.0000000000000000000 ) ) ;
#258 = CARTESIAN_POINT ( 'NONE',  ( -48.49999999999998600, -3.999999999999999100, 4.898587196589408900E-016 ) ) ;
#259 = CARTESIAN_POINT ( 'NONE',  ( -48.49999999999998600, 3.999999999999994200, 0.0000000000000000000 ) ) ;
#260 = AXIS2_PLACEMENT_3D ( 'NONE', #276, #115, #302 ) ;
#261 =( NAMED_UNIT ( * ) PLANE_ANGLE_UNIT ( ) SI_UNIT ( $, .RADIAN. ) );
#262 = LOCAL_TIME ( 9, 24, 12.00000000000000000, #326 ) ;
#263 = APPROVAL_ROLE ( '' ) ;
#264 = ADVANCED_FACE ( 'NONE', ( #106 ), #256, .F. ) ;
#265 = CONICAL_SURFACE ( 'NONE', #65, 3.999999999999996400, 0.7853981633974543900 ) ;
#266 = CC_DESIGN_APPROVAL ( #242, ( #190 ) ) ;
#267 = EDGE_CURVE ( 'NONE', #33, #54, #217, .T. ) ;
#268 = MANIFOLD_SOLID_BREP ( 'È¸Àü3', #124 ) ;
#269 = ORGANIZATION ( 'UNSPECIFIED', 'UNSPECIFIED', '' ) ;
#270 = CIRCLE ( 'NONE', #131, 4.000000000000000000 ) ;
#271 = TOROIDAL_SURFACE ( 'NONE', #142, 3.600000000000000100, 0.3999999999999988600 ) ;
#272 = CARTESIAN_POINT ( 'NONE',  ( -48.49999999999998600, -2.969768487932330900E-015, 0.0000000000000000000 ) ) ;
#273 = CARTESIAN_POINT ( 'NONE',  ( 40.60000000000000900, 0.0000000000000000000, 0.0000000000000000000 ) ) ;
#274 = AXIS2_PLACEMENT_3D ( 'NONE', #83, #144, #171 ) ;
#275 = CARTESIAN_POINT ( 'NONE',  ( -48.99999999999998600, -3.000384657911014700E-015, 0.0000000000000000000 ) ) ;
#276 = CARTESIAN_POINT ( 'NONE',  ( 40.60000000000000900, 0.0000000000000000000, 3.600000000000000100 ) ) ;
#277 = FACE_OUTER_BOUND ( 'NONE', #3, .T. ) ;
#278 = DIRECTION ( 'NONE',  ( 1.000000000000000000, 0.0000000000000000000, 0.0000000000000000000 ) ) ;
#279 = CARTESIAN_POINT ( 'NONE',  ( 0.9999999999999997800, 0.0000000000000000000, 0.0000000000000000000 ) ) ;
#280 = CC_DESIGN_SECURITY_CLASSIFICATION ( #190, ( #97 ) ) ;
#281 = DIRECTION ( 'NONE',  ( -0.0000000000000000000, 0.0000000000000000000, 1.000000000000000000 ) ) ;
#282 = DIRECTION ( 'NONE',  ( -5.421010862427522200E-017, 1.000000000000000000, 0.0000000000000000000 ) ) ;
#283 = EDGE_CURVE ( 'NONE', #138, #55, #255, .T. ) ;
#284 = DIRECTION ( 'NONE',  ( 0.7071067811865432400, -0.7071067811865517900, 8.659560562354985900E-017 ) ) ;
#285 = DIRECTION ( 'NONE',  ( 1.000000000000000000, 6.123233995736766000E-017, -0.0000000000000000000 ) ) ;
#286 = APPROVAL_DATE_TIME ( #348, #242 ) ;
#287 = ADVANCED_FACE ( 'NONE', ( #341 ), #134, .T. ) ;
#288 = ORIENTED_EDGE ( 'NONE', *, *, #246, .F. ) ;
#289 = DATE_TIME_ROLE ( 'creation_date' ) ;
#290 = AXIS2_PLACEMENT_3D ( 'NONE', #48, #253, #84 ) ;
#291 = APPROVAL_PERSON_ORGANIZATION ( #356, #242, #235 ) ;
#292 = ORIENTED_EDGE ( 'NONE', *, *, #267, .F. ) ;
#293 = PRODUCT_RELATED_PRODUCT_CATEGORY ( 'detail', '', ( #194 ) ) ;
#294 = CARTESIAN_POINT ( 'NONE',  ( -48.99999999999997900, -3.000384657911014300E-015, 0.0000000000000000000 ) ) ;
#295 = DIRECTION ( 'NONE',  ( 0.0000000000000000000, 1.000000000000000000, 0.0000000000000000000 ) ) ;
#296 = EDGE_CURVE ( 'NONE', #33, #138, #319, .T. ) ;
#297 = VECTOR ( 'NONE', #284, 1000.000000000000000 ) ;
#298 = COORDINATED_UNIVERSAL_TIME_OFFSET ( 9, 0, .AHEAD. ) ;
#299 = DIRECTION ( 'NONE',  ( 0.0000000000000000000, 0.0000000000000000000, 1.000000000000000000 ) ) ;
#300 = ORIENTED_EDGE ( 'NONE', *, *, #364, .T. ) ;
#301 = DIRECTION ( 'NONE',  ( 6.123233995736766000E-017, -1.000000000000000000, 0.0000000000000000000 ) ) ;
#302 = DIRECTION ( 'NONE',  ( 0.0000000000000000000, 0.0000000000000000000, -1.000000000000000000 ) ) ;
#303 = PLANE ( 'NONE',  #57 ) ;
#304 = DIRECTION ( 'NONE',  ( 0.0000000000000000000, 0.0000000000000000000, 1.000000000000000000 ) ) ;
#305 = DIRECTION ( 'NONE',  ( 1.000000000000000000, 6.123233995736766000E-017, -0.0000000000000000000 ) ) ;
#306 = CARTESIAN_POINT ( 'NONE',  ( -2.449293598294706400E-016, 4.000000000000000000, 0.0000000000000000000 ) ) ;
#307 = DIRECTION ( 'NONE',  ( 1.000000000000000000, 6.123233995736766000E-017, -0.0000000000000000000 ) ) ;
#308 = DATE_AND_TIME ( #8, #96 ) ;
#309 = ORIENTED_EDGE ( 'NONE', *, *, #177, .F. ) ;
#310 = ADVANCED_FACE ( 'NONE', ( #330 ), #271, .T. ) ;
#311 = APPROVAL_ROLE ( '' ) ;
#312 = PERSON_AND_ORGANIZATION ( #165, #269 ) ;
#313 = CIRCLE ( 'NONE', #325, 4.000000000000000000 ) ;
#314 = EDGE_CURVE ( 'NONE', #73, #145, #236, .T. ) ;
#315 = ORIENTED_EDGE ( 'NONE', *, *, #283, .F. ) ;
#316 = PERSON_AND_ORGANIZATION ( #165, #269 ) ;
#317 = AXIS2_PLACEMENT_3D ( 'NONE', #357, #336, #180 ) ;
#318 = FACE_OUTER_BOUND ( 'NONE', #162, .T. ) ;
#319 = LINE ( 'NONE', #306, #101 ) ;
#320 = DIRECTION ( 'NONE',  ( -1.000000000000000000, -0.0000000000000000000, -0.0000000000000000000 ) ) ;
#321 = CARTESIAN_POINT ( 'NONE',  ( -48.49999999999998600, -3.999999999999999100, 4.898587196589408900E-016 ) ) ;
#322 = DIRECTION ( 'NONE',  ( -1.000000000000000000, -0.0000000000000000000, -0.0000000000000000000 ) ) ;
#323 = UNCERTAINTY_MEASURE_WITH_UNIT (LENGTH_MEASURE( 1.000000000000000100E-005 ), #151, 'distance_accuracy_value', 'NONE');
#324 = CARTESIAN_POINT ( 'NONE',  ( -48.99999999999997900, -3.500000000000000000, 4.592425496802570000E-016 ) ) ;
#325 = AXIS2_PLACEMENT_3D ( 'NONE', #201, #14, #225 ) ;
#326 = COORDINATED_UNIVERSAL_TIME_OFFSET ( 9, 0, .AHEAD. ) ;
#327 = CARTESIAN_POINT ( 'NONE',  ( 1.000000000000000400, 2.710505431213763600E-016, 0.0000000000000000000 ) ) ;
#328 = TOROIDAL_SURFACE ( 'NONE', #187, 3.600000000000000100, 0.3999999999999988600 ) ;
#329 = CARTESIAN_POINT ( 'NONE',  ( 0.9999999999999991100, 4.000000000000000000, 0.0000000000000000000 ) ) ;
#330 = FACE_OUTER_BOUND ( 'NONE', #170, .T. ) ;
#331 = DIRECTION ( 'NONE',  ( 1.000000000000000000, 6.123233995736766000E-017, -0.0000000000000000000 ) ) ;
#332 = DIRECTION ( 'NONE',  ( -6.123233995736766000E-017, 1.000000000000000000, 0.0000000000000000000 ) ) ;
#333 = DESIGN_CONTEXT ( 'detailed design', #25, 'design' ) ;
#334 = EDGE_CURVE ( 'NONE', #145, #54, #365, .T. ) ;
#335 = SHAPE_DEFINITION_REPRESENTATION ( #186, #206 ) ;
#336 = DIRECTION ( 'NONE',  ( 0.0000000000000000000, 0.0000000000000000000, 1.000000000000000000 ) ) ;
#337 = PERSON_AND_ORGANIZATION_ROLE ( 'design_supplier' ) ;
#338 = ADVANCED_FACE ( 'NONE', ( #160 ), #355, .T. ) ;
#339 = VECTOR ( 'NONE', #74, 1000.000000000000000 ) ;
#340 = CC_DESIGN_PERSON_AND_ORGANIZATION_ASSIGNMENT ( #197, #209, ( #194 ) ) ;
#341 = FACE_OUTER_BOUND ( 'NONE', #51, .T. ) ;
#342 = AXIS2_PLACEMENT_3D ( 'NONE', #327, #278, #116 ) ;
#343 = CIRCLE ( 'NONE', #42, 3.499999999999996900 ) ;
#344 = CARTESIAN_POINT ( 'NONE',  ( -48.49999999999998600, -2.969768487932330900E-015, 0.0000000000000000000 ) ) ;
#345 = CARTESIAN_POINT ( 'NONE',  ( 0.9999999999999991100, -4.000000000000000000, 4.898587196589412800E-016 ) ) ;
#346 = EDGE_CURVE ( 'NONE', #73, #33, #90, .T. ) ;
#347 = PLANE ( 'NONE',  #238 ) ;
#348 = DATE_AND_TIME ( #67, #152 ) ;
#349 = ORIENTED_EDGE ( 'NONE', *, *, #296, .F. ) ;
#350 = PRODUCT_DEFINITION ( 'UNKNOWN', '', #97, #333 ) ;
#351 = CARTESIAN_POINT ( 'NONE',  ( 41.00000000000000700, 0.0000000000000000000, 3.600000000000000100 ) ) ;
#352 = CARTESIAN_POINT ( 'NONE',  ( 2.449293598294706400E-016, -4.000000000000000000, 4.898587196589412800E-016 ) ) ;
#353 = CARTESIAN_POINT ( 'NONE',  ( -48.49999999999998600, -2.969768487932330900E-015, 0.0000000000000000000 ) ) ;
#354 = DIRECTION ( 'NONE',  ( 0.0000000000000000000, 0.0000000000000000000, 1.000000000000000000 ) ) ;
#355 = CYLINDRICAL_SURFACE ( 'NONE', #233, 4.000000000000000000 ) ;
#356 = PERSON_AND_ORGANIZATION ( #165, #269 ) ;
#357 = CARTESIAN_POINT ( 'NONE',  ( 0.0000000000000000000, 0.0000000000000000000, 0.0000000000000000000 ) ) ;
#358 = AXIS2_PLACEMENT_3D ( 'NONE', #279, #120, #304 ) ;
#359 = ORIENTED_EDGE ( 'NONE', *, *, #52, .T. ) ;
#360 = MECHANICAL_CONTEXT ( 'NONE', #153, 'mechanical' ) ;
#361 = ADVANCED_FACE ( 'NONE', ( #77 ), #66, .T. ) ;
#362 = PERSON_AND_ORGANIZATION_ROLE ( 'classification_officer' ) ;
#363 = ORIENTED_EDGE ( 'NONE', *, *, #159, .T. ) ;
#364 = EDGE_CURVE ( 'NONE', #55, #138, #150, .T. ) ;
#365 = LINE ( 'NONE', #258, #297 ) ;
ENDSEC;
END-ISO-10303-21;
