ISO-10303-21;
HEADER;
FILE_DESCRIPTION (( 'STEP AP203' ),
    '1' );
FILE_NAME ('03-3208.STEP',
    '2023-07-31T00:24:33',
    ( 'USER' ),
    ( 'Hewlett-Packard Company' ),
    'SwSTEP 2.0',
    'SolidWorks 2014',
    '' );
FILE_SCHEMA (( 'CONFIG_CONTROL_DESIGN' ));
ENDSEC;

DATA;
#1 = PERSON_AND_ORGANIZATION ( #242, #156 ) ;
#2 = ORIENTED_EDGE ( 'NONE', *, *, #115, .F. ) ;
#3 = AXIS2_PLACEMENT_3D ( 'NONE', #100, #342, #177 ) ;
#4 = FACE_OUTER_BOUND ( 'NONE', #157, .T. ) ;
#5 = EDGE_LOOP ( 'NONE', ( #286, #98, #122, #292 ) ) ;
#6 = CARTESIAN_POINT ( 'NONE',  ( 45.99999999999999300, 0.0000000000000000000, 4.599999999999999600 ) ) ;
#7 = CC_DESIGN_DATE_AND_TIME_ASSIGNMENT ( #273, #278, ( #298 ) ) ;
#8 = CARTESIAN_POINT ( 'NONE',  ( -48.50000000000000700, -2.969768487932332100E-015, 0.0000000000000000000 ) ) ;
#9 = ORIENTED_EDGE ( 'NONE', *, *, #10, .F. ) ;
#10 = EDGE_CURVE ( 'NONE', #77, #218, #118, .T. ) ;
#11 = CARTESIAN_POINT ( 'NONE',  ( 0.9999999999999991100, 5.000000000000000000, 0.0000000000000000000 ) ) ;
#12 = DIRECTION ( 'NONE',  ( 0.7071067811865425800, 0.7071067811865525700, 0.0000000000000000000 ) ) ;
#13 = CYLINDRICAL_SURFACE ( 'NONE', #143, 5.000000000000000000 ) ;
#14 = DIRECTION ( 'NONE',  ( 1.000000000000000000, 6.123233995736766000E-017, -0.0000000000000000000 ) ) ;
#15 = EDGE_LOOP ( 'NONE', ( #43, #131 ) ) ;
#16 = APPROVAL_ROLE ( '' ) ;
#17 = CARTESIAN_POINT ( 'NONE',  ( 0.0000000000000000000, 0.0000000000000000000, 0.0000000000000000000 ) ) ;
#18 = CARTESIAN_POINT ( 'NONE',  ( 0.0000000000000000000, 0.0000000000000000000, 0.0000000000000000000 ) ) ;
#19 = AXIS2_PLACEMENT_3D ( 'NONE', #114, #289, #129 ) ;
#20 = LOCAL_TIME ( 9, 24, 33.00000000000000000, #104 ) ;
#21 = CARTESIAN_POINT ( 'NONE',  ( 0.9999999999999997800, 0.0000000000000000000, 5.000000000000000000 ) ) ;
#22 = FACE_OUTER_BOUND ( 'NONE', #230, .T. ) ;
#23 = ORIENTED_EDGE ( 'NONE', *, *, #329, .T. ) ;
#24 = PERSON_AND_ORGANIZATION_ROLE ( 'design_supplier' ) ;
#25 = CARTESIAN_POINT ( 'NONE',  ( -48.50000000000000700, -2.969768487932332100E-015, 0.0000000000000000000 ) ) ;
#26 =( LENGTH_UNIT ( ) NAMED_UNIT ( * ) SI_UNIT ( .MILLI., .METRE. ) );
#27 = PRODUCT_DEFINITION_FORMATION_WITH_SPECIFIED_SOURCE ( 'ANY', '', #236, .NOT_KNOWN. ) ;
#28 = EDGE_LOOP ( 'NONE', ( #330, #335 ) ) ;
#29 = ADVANCED_FACE ( 'NONE', ( #182 ), #175, .T. ) ;
#30 = EDGE_CURVE ( 'NONE', #218, #352, #252, .T. ) ;
#31 = CALENDAR_DATE ( 2023, 31, 7 ) ;
#32 = CIRCLE ( 'NONE', #3, 0.3999999999999958600 ) ;
#33 = DIRECTION ( 'NONE',  ( -1.000000000000000000, -0.0000000000000000000, -0.0000000000000000000 ) ) ;
#34 = AXIS2_PLACEMENT_3D ( 'NONE', #25, #225, #61 ) ;
#35 = CARTESIAN_POINT ( 'NONE',  ( 45.99999999999999300, 0.0000000000000000000, 0.0000000000000000000 ) ) ;
#36 = FACE_OUTER_BOUND ( 'NONE', #192, .T. ) ;
#37 = ORIENTED_EDGE ( 'NONE', *, *, #259, .F. ) ;
#38 = DIRECTION ( 'NONE',  ( 0.0000000000000000000, 0.0000000000000000000, 1.000000000000000000 ) ) ;
#39 = DIRECTION ( 'NONE',  ( 1.000000000000000000, 6.123233995736766000E-017, -0.0000000000000000000 ) ) ;
#40 = CARTESIAN_POINT ( 'NONE',  ( 0.0000000000000000000, 0.0000000000000000000, 0.0000000000000000000 ) ) ;
#41 = PERSON_AND_ORGANIZATION ( #242, #156 ) ;
#42 = CARTESIAN_POINT ( 'NONE',  ( 1.000000000000000400, 2.168404344971010800E-016, 0.0000000000000000000 ) ) ;
#43 = ORIENTED_EDGE ( 'NONE', *, *, #309, .T. ) ;
#44 = AXIS2_PLACEMENT_3D ( 'NONE', #40, #39, #316 ) ;
#45 = DIRECTION ( 'NONE',  ( -6.123233995736766000E-017, 1.000000000000000000, 0.0000000000000000000 ) ) ;
#46 = CARTESIAN_POINT ( 'NONE',  ( -49.00000000000000000, -4.499999999999999100, 5.817072295949923500E-016 ) ) ;
#47 = PLANE ( 'NONE',  #211 ) ;
#48 = LINE ( 'NONE', #120, #121 ) ;
#49 = VERTEX_POINT ( 'NONE', #155 ) ;
#50 = APPROVAL ( #119, 'UNSPECIFIED' ) ;
#51 = DIRECTION ( 'NONE',  ( 0.0000000000000000000, 0.0000000000000000000, 1.000000000000000000 ) ) ;
#52 = CARTESIAN_POINT ( 'NONE',  ( 46.00000000000000000, 6.938893903907241000E-014, 0.0000000000000000000 ) ) ;
#53 = EDGE_CURVE ( 'NONE', #77, #258, #32, .T. ) ;
#54 = DIRECTION ( 'NONE',  ( -1.000000000000000000, -0.0000000000000000000, -0.0000000000000000000 ) ) ;
#55 = COORDINATED_UNIVERSAL_TIME_OFFSET ( 9, 0, .AHEAD. ) ;
#56 = ORIENTED_EDGE ( 'NONE', *, *, #356, .F. ) ;
#57 = DIRECTION ( 'NONE',  ( -1.000000000000000000, -0.0000000000000000000, -0.0000000000000000000 ) ) ;
#58 = APPLICATION_PROTOCOL_DEFINITION ( 'international standard', 'config_control_design', 1994, #276 ) ;
#59 = CARTESIAN_POINT ( 'NONE',  ( 45.60000000000000100, 0.0000000000000000000, 4.999999999999997300 ) ) ;
#60 = AXIS2_PLACEMENT_3D ( 'NONE', #52, #326, #305 ) ;
#61 = DIRECTION ( 'NONE',  ( 0.0000000000000000000, 1.000000000000000000, 0.0000000000000000000 ) ) ;
#62 = FACE_OUTER_BOUND ( 'NONE', #238, .T. ) ;
#63 = ORIENTED_EDGE ( 'NONE', *, *, #53, .F. ) ;
#64 =( NAMED_UNIT ( * ) SI_UNIT ( $, .STERADIAN. ) SOLID_ANGLE_UNIT ( ) );
#65 = ADVANCED_FACE ( 'NONE', ( #106 ), #97, .T. ) ;
#66 = LOCAL_TIME ( 9, 24, 33.00000000000000000, #141 ) ;
#67 = ORIENTED_EDGE ( 'NONE', *, *, #76, .T. ) ;
#68 = AXIS2_PLACEMENT_3D ( 'NONE', #8, #313, #345 ) ;
#69 = DIRECTION ( 'NONE',  ( 0.0000000000000000000, 0.0000000000000000000, 1.000000000000000000 ) ) ;
#70 = LINE ( 'NONE', #107, #279 ) ;
#71 = ORIENTED_EDGE ( 'NONE', *, *, #164, .F. ) ;
#72 = CARTESIAN_POINT ( 'NONE',  ( -48.50000000000000700, 4.999999999999993800, 0.0000000000000000000 ) ) ;
#73 = CC_DESIGN_APPROVAL ( #50, ( #27 ) ) ;
#74 = DIRECTION ( 'NONE',  ( 0.0000000000000000000, 0.0000000000000000000, 1.000000000000000000 ) ) ;
#75 = CALENDAR_DATE ( 2023, 31, 7 ) ;
#76 = EDGE_CURVE ( 'NONE', #218, #77, #245, .T. ) ;
#77 = VERTEX_POINT ( 'NONE', #6 ) ;
#78 = PLANE ( 'NONE',  #304 ) ;
#79 = DIRECTION ( 'NONE',  ( 1.000000000000000000, 6.123233995736766000E-017, -0.0000000000000000000 ) ) ;
#80 = DIRECTION ( 'NONE',  ( -4.336808689942017700E-017, 1.000000000000000000, 0.0000000000000000000 ) ) ;
#81 = LINE ( 'NONE', #109, #160 ) ;
#82 = AXIS2_PLACEMENT_3D ( 'NONE', #219, #54, #249 ) ;
#83 = DIRECTION ( 'NONE',  ( 0.0000000000000000000, 1.000000000000000000, 0.0000000000000000000 ) ) ;
#84 = PERSON_AND_ORGANIZATION ( #242, #156 ) ;
#85 = ORIENTED_EDGE ( 'NONE', *, *, #309, .F. ) ;
#86 = PERSON_AND_ORGANIZATION_ROLE ( 'design_owner' ) ;
#87 = AXIS2_PLACEMENT_3D ( 'NONE', #35, #235, #38 ) ;
#88 = DIRECTION ( 'NONE',  ( 1.000000000000000000, 0.0000000000000000000, 0.0000000000000000000 ) ) ;
#89 = VECTOR ( 'NONE', #297, 1000.000000000000000 ) ;
#90 = VERTEX_POINT ( 'NONE', #72 ) ;
#91 = APPROVAL_ROLE ( '' ) ;
#92 = CC_DESIGN_PERSON_AND_ORGANIZATION_ASSIGNMENT ( #41, #194, ( #27 ) ) ;
#93 = ADVANCED_FACE ( 'NONE', ( #22 ), #13, .T. ) ;
#94 = ORIENTED_EDGE ( 'NONE', *, *, #30, .T. ) ;
#95 = EDGE_CURVE ( 'NONE', #352, #258, #319, .T. ) ;
#96 = DESIGN_CONTEXT ( 'detailed design', #276, 'design' ) ;
#97 = CONICAL_SURFACE ( 'NONE', #68, 4.999999999999996400, 0.7853981633974552700 ) ;
#98 = ORIENTED_EDGE ( 'NONE', *, *, #220, .T. ) ;
#99 = AXIS2_PLACEMENT_3D ( 'NONE', #355, #196, #255 ) ;
#100 = CARTESIAN_POINT ( 'NONE',  ( 45.60000000000000100, 0.0000000000000000000, 4.599999999999999600 ) ) ;
#101 = CARTESIAN_POINT ( 'NONE',  ( -48.50000000000000700, -4.999999999999999100, 6.123233995736762300E-016 ) ) ;
#102 = VERTEX_POINT ( 'NONE', #101 ) ;
#103 = DIRECTION ( 'NONE',  ( 1.000000000000000000, 6.123233995736766000E-017, -0.0000000000000000000 ) ) ;
#104 = COORDINATED_UNIVERSAL_TIME_OFFSET ( 9, 0, .AHEAD. ) ;
#105 = AXIS2_PLACEMENT_3D ( 'NONE', #323, #162, #353 ) ;
#106 = FACE_OUTER_BOUND ( 'NONE', #5, .T. ) ;
#107 = CARTESIAN_POINT ( 'NONE',  ( -48.50000000000000700, -4.999999999999999100, 6.123233995736762300E-016 ) ) ;
#108 = CLOSED_SHELL ( 'NONE', ( #337, #65, #199, #148, #228, #29 ) ) ;
#109 = CARTESIAN_POINT ( 'NONE',  ( -3.061616997868383100E-016, 5.000000000000000000, 0.0000000000000000000 ) ) ;
#110 = DIRECTION ( 'NONE',  ( 0.0000000000000000000, 0.0000000000000000000, 1.000000000000000000 ) ) ;
#111 = FACE_OUTER_BOUND ( 'NONE', #15, .T. ) ;
#112 = EDGE_LOOP ( 'NONE', ( #315, #67, #145, #161 ) ) ;
#113 = CC_DESIGN_PERSON_AND_ORGANIZATION_ASSIGNMENT ( #328, #24, ( #27 ) ) ;
#114 = CARTESIAN_POINT ( 'NONE',  ( 45.60000000000000100, 5.633375276077824100E-016, -4.599999999999999600 ) ) ;
#115 = EDGE_CURVE ( 'NONE', #139, #274, #311, .T. ) ;
#116 = LOCAL_TIME ( 9, 24, 33.00000000000000000, #181 ) ;
#117 = ADVANCED_BREP_SHAPE_REPRESENTATION ( '03-3208', ( #173, #301, #262 ), #169 ) ;
#118 = CIRCLE ( 'NONE', #348, 4.599999999999999600 ) ;
#119 = APPROVAL_STATUS ( 'not_yet_approved' ) ;
#120 = CARTESIAN_POINT ( 'NONE',  ( 0.0000000000000000000, 6.123233995736766300E-016, -5.000000000000000000 ) ) ;
#121 = VECTOR ( 'NONE', #146, 1000.000000000000000 ) ;
#122 = ORIENTED_EDGE ( 'NONE', *, *, #151, .F. ) ;
#123 = APPROVAL_ROLE ( '' ) ;
#124 = ADVANCED_FACE ( 'NONE', ( #167 ), #303, .T. ) ;
#125 = APPROVAL_DATE_TIME ( #189, #50 ) ;
#126 = ORIENTED_EDGE ( 'NONE', *, *, #338, .F. ) ;
#127 = AXIS2_PLACEMENT_3D ( 'NONE', #128, #312, #153 ) ;
#128 = CARTESIAN_POINT ( 'NONE',  ( 45.60000000000000100, 0.0000000000000000000, 0.0000000000000000000 ) ) ;
#129 = DIRECTION ( 'NONE',  ( 0.0000000000000000000, -1.224646799147352000E-016, 1.000000000000000000 ) ) ;
#130 = FACE_OUTER_BOUND ( 'NONE', #112, .T. ) ;
#131 = ORIENTED_EDGE ( 'NONE', *, *, #115, .T. ) ;
#132 = SECURITY_CLASSIFICATION ( '', '', #223 ) ;
#133 = EDGE_CURVE ( 'NONE', #102, #135, #261, .T. ) ;
#134 = APPROVAL_PERSON_ORGANIZATION ( #200, #50, #16 ) ;
#135 = VERTEX_POINT ( 'NONE', #214 ) ;
#136 = CARTESIAN_POINT ( 'NONE',  ( -48.99999999999999300, -3.000384657911015100E-015, 0.0000000000000000000 ) ) ;
#137 = AXIS2_PLACEMENT_3D ( 'NONE', #221, #57, #250 ) ;
#138 = VECTOR ( 'NONE', #12, 999.9999999999998900 ) ;
#139 = VERTEX_POINT ( 'NONE', #212 ) ;
#140 = DIRECTION ( 'NONE',  ( 0.0000000000000000000, 1.000000000000000000, 0.0000000000000000000 ) ) ;
#141 = COORDINATED_UNIVERSAL_TIME_OFFSET ( 9, 0, .AHEAD. ) ;
#142 = VERTEX_POINT ( 'NONE', #46 ) ;
#143 = AXIS2_PLACEMENT_3D ( 'NONE', #204, #237, #74 ) ;
#144 = CIRCLE ( 'NONE', #254, 4.499999999999996400 ) ;
#145 = ORIENTED_EDGE ( 'NONE', *, *, #53, .T. ) ;
#146 = DIRECTION ( 'NONE',  ( -1.000000000000000000, -0.0000000000000000000, -0.0000000000000000000 ) ) ;
#147 = CC_DESIGN_PERSON_AND_ORGANIZATION_ASSIGNMENT ( #260, #333, ( #132 ) ) ;
#148 = ADVANCED_FACE ( 'NONE', ( #4 ), #47, .T. ) ;
#149 = LOCAL_TIME ( 9, 24, 33.00000000000000000, #217 ) ;
#150 = EDGE_LOOP ( 'NONE', ( #179, #209, #234, #37 ) ) ;
#151 = EDGE_CURVE ( 'NONE', #90, #102, #296, .T. ) ;
#152 = FACE_OUTER_BOUND ( 'NONE', #308, .T. ) ;
#153 = DIRECTION ( 'NONE',  ( 0.0000000000000000000, 0.0000000000000000000, 1.000000000000000000 ) ) ;
#154 = AXIS2_PLACEMENT_3D ( 'NONE', #17, #306, #358 ) ;
#155 = CARTESIAN_POINT ( 'NONE',  ( -49.00000000000000000, 4.499999999999993800, 0.0000000000000000000 ) ) ;
#156 = ORGANIZATION ( 'UNSPECIFIED', 'UNSPECIFIED', '' ) ;
#157 = EDGE_LOOP ( 'NONE', ( #300, #268 ) ) ;
#158 = DIRECTION ( 'NONE',  ( 1.000000000000000000, 6.123233995736766000E-017, -0.0000000000000000000 ) ) ;
#159 = DIRECTION ( 'NONE',  ( 6.123233995736766000E-017, -1.000000000000000000, 0.0000000000000000000 ) ) ;
#160 = VECTOR ( 'NONE', #269, 1000.000000000000000 ) ;
#161 = ORIENTED_EDGE ( 'NONE', *, *, #95, .F. ) ;
#162 = DIRECTION ( 'NONE',  ( -1.000000000000000000, -0.0000000000000000000, -0.0000000000000000000 ) ) ;
#163 = EDGE_LOOP ( 'NONE', ( #198, #94, #56, #63 ) ) ;
#164 = EDGE_CURVE ( 'NONE', #206, #135, #224, .T. ) ;
#165 = CARTESIAN_POINT ( 'NONE',  ( 0.9999999999999988900, 6.123233995736759900E-017, 0.0000000000000000000 ) ) ;
#166 = APPROVAL_DATE_TIME ( #243, #227 ) ;
#167 = FACE_OUTER_BOUND ( 'NONE', #163, .T. ) ;
#168 = DATE_TIME_ROLE ( 'classification_date' ) ;
#169 =( GEOMETRIC_REPRESENTATION_CONTEXT ( 3 ) GLOBAL_UNCERTAINTY_ASSIGNED_CONTEXT ( ( #241 ) ) GLOBAL_UNIT_ASSIGNED_CONTEXT ( ( #26, #226, #64 ) ) REPRESENTATION_CONTEXT ( 'NONE', 'WORKASPACE' ) );
#170 = PLANE ( 'NONE',  #60 ) ;
#171 = ORIENTED_EDGE ( 'NONE', *, *, #275, .T. ) ;
#172 = ADVANCED_FACE ( 'NONE', ( #232 ), #288, .T. ) ;
#173 = MANIFOLD_SOLID_BREP ( 'È¸Àü3', #344 ) ;
#174 = APPROVAL_PERSON_ORGANIZATION ( #251, #227, #123 ) ;
#175 = CYLINDRICAL_SURFACE ( 'NONE', #44, 5.000000000000000000 ) ;
#176 = AXIS2_PLACEMENT_3D ( 'NONE', #264, #215, #110 ) ;
#177 = DIRECTION ( 'NONE',  ( 0.0000000000000000000, 0.0000000000000000000, -1.000000000000000000 ) ) ;
#178 = CYLINDRICAL_SURFACE ( 'NONE', #154, 5.000000000000000000 ) ;
#179 = ORIENTED_EDGE ( 'NONE', *, *, #133, .F. ) ;
#180 = EDGE_CURVE ( 'NONE', #90, #206, #81, .T. ) ;
#181 = COORDINATED_UNIVERSAL_TIME_OFFSET ( 9, 0, .AHEAD. ) ;
#182 = FACE_OUTER_BOUND ( 'NONE', #150, .T. ) ;
#183 = CARTESIAN_POINT ( 'NONE',  ( -48.50000000000000700, -2.969768487932332100E-015, 0.0000000000000000000 ) ) ;
#184 = CARTESIAN_POINT ( 'NONE',  ( 0.9999999999999988900, 6.123233995736759900E-017, 0.0000000000000000000 ) ) ;
#185 = CARTESIAN_POINT ( 'NONE',  ( -48.50000000000000700, -2.969768487932332100E-015, 0.0000000000000000000 ) ) ;
#186 = AXIS2_PLACEMENT_3D ( 'NONE', #42, #360, #190 ) ;
#187 = ORIENTED_EDGE ( 'NONE', *, *, #338, .T. ) ;
#188 = CARTESIAN_POINT ( 'NONE',  ( -49.00000000000000000, -3.000384657911015500E-015, 0.0000000000000000000 ) ) ;
#189 = DATE_AND_TIME ( #267, #339 ) ;
#190 = DIRECTION ( 'NONE',  ( 0.0000000000000000000, 0.0000000000000000000, -1.000000000000000000 ) ) ;
#191 = EDGE_LOOP ( 'NONE', ( #359, #331, #187, #2 ) ) ;
#192 = EDGE_LOOP ( 'NONE', ( #248, #347, #71, #325 ) ) ;
#193 = AXIS2_PLACEMENT_3D ( 'NONE', #185, #246, #83 ) ;
#194 = PERSON_AND_ORGANIZATION_ROLE ( 'creator' ) ;
#195 = CC_DESIGN_DATE_AND_TIME_ASSIGNMENT ( #317, #168, ( #132 ) ) ;
#196 = DIRECTION ( 'NONE',  ( -1.000000000000000000, -0.0000000000000000000, -0.0000000000000000000 ) ) ;
#197 = TOROIDAL_SURFACE ( 'NONE', #99, 4.599999999999999600, 0.3999999999999954100 ) ;
#198 = ORIENTED_EDGE ( 'NONE', *, *, #10, .T. ) ;
#199 = ADVANCED_FACE ( 'NONE', ( #213 ), #78, .T. ) ;
#200 = PERSON_AND_ORGANIZATION ( #242, #156 ) ;
#201 = EDGE_CURVE ( 'NONE', #49, #142, #144, .T. ) ;
#202 = ORIENTED_EDGE ( 'NONE', *, *, #240, .T. ) ;
#203 = CARTESIAN_POINT ( 'NONE',  ( 45.60000000000000100, 6.123233995736763300E-016, -4.999999999999997300 ) ) ;
#204 = CARTESIAN_POINT ( 'NONE',  ( 0.0000000000000000000, 0.0000000000000000000, 0.0000000000000000000 ) ) ;
#205 = CIRCLE ( 'NONE', #362, 4.499999999999996400 ) ;
#206 = VERTEX_POINT ( 'NONE', #244 ) ;
#207 = PERSON_AND_ORGANIZATION ( #242, #156 ) ;
#208 = CARTESIAN_POINT ( 'NONE',  ( 45.99999999999999300, 0.0000000000000000000, 0.0000000000000000000 ) ) ;
#209 = ORIENTED_EDGE ( 'NONE', *, *, #294, .T. ) ;
#210 = DIRECTION ( 'NONE',  ( 0.7071067811865425800, -0.7071067811865525700, 8.659560562354994500E-017 ) ) ;
#211 = AXIS2_PLACEMENT_3D ( 'NONE', #136, #320, #159 ) ;
#212 = CARTESIAN_POINT ( 'NONE',  ( 0.9999999999999997800, 6.123233995736766300E-016, -5.000000000000000000 ) ) ;
#213 = FACE_OUTER_BOUND ( 'NONE', #28, .T. ) ;
#214 = CARTESIAN_POINT ( 'NONE',  ( 0.9999999999999991100, -5.000000000000000000, 6.123233995736766300E-016 ) ) ;
#215 = DIRECTION ( 'NONE',  ( -1.000000000000000000, -0.0000000000000000000, -0.0000000000000000000 ) ) ;
#216 = DIRECTION ( 'NONE',  ( -4.336808689942017700E-017, 1.000000000000000000, 0.0000000000000000000 ) ) ;
#217 = COORDINATED_UNIVERSAL_TIME_OFFSET ( 9, 0, .AHEAD. ) ;
#218 = VERTEX_POINT ( 'NONE', #295 ) ;
#219 = CARTESIAN_POINT ( 'NONE',  ( 0.9999999999999997800, 0.0000000000000000000, 0.0000000000000000000 ) ) ;
#220 = EDGE_CURVE ( 'NONE', #142, #102, #70, .T. ) ;
#221 = CARTESIAN_POINT ( 'NONE',  ( 45.60000000000000100, 0.0000000000000000000, 0.0000000000000000000 ) ) ;
#222 = CARTESIAN_POINT ( 'NONE',  ( -48.50000000000000700, 4.999999999999993800, 0.0000000000000000000 ) ) ;
#223 = SECURITY_CLASSIFICATION_LEVEL ( 'unclassified' ) ;
#224 = CIRCLE ( 'NONE', #231, 5.000000000000000000 ) ;
#225 = DIRECTION ( 'NONE',  ( 1.000000000000000000, 6.123233995736766000E-017, -0.0000000000000000000 ) ) ;
#226 =( NAMED_UNIT ( * ) PLANE_ANGLE_UNIT ( ) SI_UNIT ( $, .RADIAN. ) );
#227 = APPROVAL ( #361, 'UNSPECIFIED' ) ;
#228 = ADVANCED_FACE ( 'NONE', ( #152 ), #271, .T. ) ;
#229 = SHAPE_DEFINITION_REPRESENTATION ( #293, #117 ) ;
#230 = EDGE_LOOP ( 'NONE', ( #265, #23, #85, #126 ) ) ;
#231 = AXIS2_PLACEMENT_3D ( 'NONE', #184, #14, #80 ) ;
#232 = FACE_OUTER_BOUND ( 'NONE', #191, .T. ) ;
#233 = CARTESIAN_POINT ( 'NONE',  ( 0.0000000000000000000, 0.0000000000000000000, 5.000000000000000000 ) ) ;
#234 = ORIENTED_EDGE ( 'NONE', *, *, #180, .T. ) ;
#235 = DIRECTION ( 'NONE',  ( -1.000000000000000000, -0.0000000000000000000, -0.0000000000000000000 ) ) ;
#236 = PRODUCT ( '03-3208', '03-3208', '', ( #277 ) ) ;
#237 = DIRECTION ( 'NONE',  ( -1.000000000000000000, -0.0000000000000000000, -0.0000000000000000000 ) ) ;
#238 = EDGE_LOOP ( 'NONE', ( #9, #340 ) ) ;
#239 = DIRECTION ( 'NONE',  ( -1.000000000000000000, -0.0000000000000000000, -0.0000000000000000000 ) ) ;
#240 = EDGE_CURVE ( 'NONE', #49, #90, #343, .T. ) ;
#241 = UNCERTAINTY_MEASURE_WITH_UNIT (LENGTH_MEASURE( 1.000000000000000100E-005 ), #26, 'distance_accuracy_value', 'NONE');
#242 = PERSON ( 'UNSPECIFIED', 'UNSPECIFIED', 'UNSPECIFIED', ('UNSPECIFIED'), ('UNSPECIFIED'), ('UNSPECIFIED') ) ;
#243 = DATE_AND_TIME ( #310, #20 ) ;
#244 = CARTESIAN_POINT ( 'NONE',  ( 0.9999999999999986700, 5.000000000000000000, 0.0000000000000000000 ) ) ;
#245 = CIRCLE ( 'NONE', #87, 4.599999999999999600 ) ;
#246 = DIRECTION ( 'NONE',  ( 1.000000000000000000, 6.123233995736766000E-017, -0.0000000000000000000 ) ) ;
#247 = CC_DESIGN_APPROVAL ( #227, ( #132 ) ) ;
#248 = ORIENTED_EDGE ( 'NONE', *, *, #151, .T. ) ;
#249 = DIRECTION ( 'NONE',  ( 0.0000000000000000000, 0.0000000000000000000, 1.000000000000000000 ) ) ;
#250 = DIRECTION ( 'NONE',  ( 0.0000000000000000000, 0.0000000000000000000, 1.000000000000000000 ) ) ;
#251 = PERSON_AND_ORGANIZATION ( #242, #156 ) ;
#252 = CIRCLE ( 'NONE', #19, 0.3999999999999958600 ) ;
#253 = APPLICATION_CONTEXT ( 'configuration controlled 3d designs of mechanical parts and assemblies' ) ;
#254 = AXIS2_PLACEMENT_3D ( 'NONE', #318, #158, #349 ) ;
#255 = DIRECTION ( 'NONE',  ( 0.0000000000000000000, 0.0000000000000000000, 1.000000000000000000 ) ) ;
#256 = APPROVAL_STATUS ( 'not_yet_approved' ) ;
#257 = CIRCLE ( 'NONE', #137, 5.000000000000000000 ) ;
#258 = VERTEX_POINT ( 'NONE', #59 ) ;
#259 = EDGE_CURVE ( 'NONE', #135, #206, #351, .T. ) ;
#260 = PERSON_AND_ORGANIZATION ( #242, #156 ) ;
#261 = LINE ( 'NONE', #290, #89 ) ;
#262 = AXIS2_PLACEMENT_3D ( 'NONE', #18, #69, #88 ) ;
#263 = LINE ( 'NONE', #233, #324 ) ;
#264 = CARTESIAN_POINT ( 'NONE',  ( 45.60000000000000100, 0.0000000000000000000, 0.0000000000000000000 ) ) ;
#265 = ORIENTED_EDGE ( 'NONE', *, *, #356, .T. ) ;
#266 = CC_DESIGN_SECURITY_CLASSIFICATION ( #132, ( #27 ) ) ;
#267 = CALENDAR_DATE ( 2023, 31, 7 ) ;
#268 = ORIENTED_EDGE ( 'NONE', *, *, #275, .F. ) ;
#269 = DIRECTION ( 'NONE',  ( 1.000000000000000000, 6.123233995736766000E-017, -0.0000000000000000000 ) ) ;
#270 = CARTESIAN_POINT ( 'NONE',  ( 0.0000000000000000000, 0.0000000000000000000, 0.0000000000000000000 ) ) ;
#271 = CONICAL_SURFACE ( 'NONE', #321, 4.999999999999996400, 0.7853981633974552700 ) ;
#272 = ORIENTED_EDGE ( 'NONE', *, *, #220, .F. ) ;
#273 = DATE_AND_TIME ( #346, #66 ) ;
#274 = VERTEX_POINT ( 'NONE', #21 ) ;
#275 = EDGE_CURVE ( 'NONE', #142, #49, #205, .T. ) ;
#276 = APPLICATION_CONTEXT ( 'configuration controlled 3d designs of mechanical parts and assemblies' ) ;
#277 = MECHANICAL_CONTEXT ( 'NONE', #253, 'mechanical' ) ;
#278 = DATE_TIME_ROLE ( 'creation_date' ) ;
#279 = VECTOR ( 'NONE', #210, 999.9999999999998900 ) ;
#280 = ORIENTED_EDGE ( 'NONE', *, *, #294, .F. ) ;
#281 = CC_DESIGN_PERSON_AND_ORGANIZATION_ASSIGNMENT ( #84, #86, ( #236 ) ) ;
#282 = PERSON_AND_ORGANIZATION_ROLE ( 'creator' ) ;
#283 = PRODUCT_RELATED_PRODUCT_CATEGORY ( 'detail', '', ( #236 ) ) ;
#284 = ADVANCED_FACE ( 'NONE', ( #62 ), #170, .F. ) ;
#285 = APPROVAL_DATE_TIME ( #357, #314 ) ;
#286 = ORIENTED_EDGE ( 'NONE', *, *, #201, .T. ) ;
#287 = AXIS2_PLACEMENT_3D ( 'NONE', #270, #322, #350 ) ;
#288 = CYLINDRICAL_SURFACE ( 'NONE', #287, 5.000000000000000000 ) ;
#289 = DIRECTION ( 'NONE',  ( -0.0000000000000000000, 1.000000000000000000, 1.224646799147353200E-016 ) ) ;
#290 = CARTESIAN_POINT ( 'NONE',  ( 3.061616997868383100E-016, -5.000000000000000000, 6.123233995736766300E-016 ) ) ;
#291 = APPROVAL_PERSON_ORGANIZATION ( #1, #314, #91 ) ;
#292 = ORIENTED_EDGE ( 'NONE', *, *, #240, .F. ) ;
#293 = PRODUCT_DEFINITION_SHAPE ( 'NONE', 'NONE',  #298 ) ;
#294 = EDGE_CURVE ( 'NONE', #102, #90, #363, .T. ) ;
#295 = CARTESIAN_POINT ( 'NONE',  ( 45.99999999999999300, 5.878304635907293200E-016, -4.599999999999999600 ) ) ;
#296 = CIRCLE ( 'NONE', #193, 4.999999999999996400 ) ;
#297 = DIRECTION ( 'NONE',  ( 1.000000000000000000, 6.123233995736766000E-017, -0.0000000000000000000 ) ) ;
#298 = PRODUCT_DEFINITION ( 'UNKNOWN', '', #27, #96 ) ;
#299 = DIRECTION ( 'NONE',  ( 1.000000000000000000, 6.123233995736766000E-017, -0.0000000000000000000 ) ) ;
#300 = ORIENTED_EDGE ( 'NONE', *, *, #201, .F. ) ;
#301 = MANIFOLD_SOLID_BREP ( 'È¸Àü4', #108 ) ;
#302 = APPLICATION_PROTOCOL_DEFINITION ( 'international standard', 'config_control_design', 1994, #253 ) ;
#303 = TOROIDAL_SURFACE ( 'NONE', #176, 4.599999999999999600, 0.3999999999999954100 ) ;
#304 = AXIS2_PLACEMENT_3D ( 'NONE', #11, #103, #45 ) ;
#305 = DIRECTION ( 'NONE',  ( -0.0000000000000000000, 0.0000000000000000000, 1.000000000000000000 ) ) ;
#306 = DIRECTION ( 'NONE',  ( 1.000000000000000000, 6.123233995736766000E-017, -0.0000000000000000000 ) ) ;
#307 = ADVANCED_FACE ( 'NONE', ( #130 ), #197, .T. ) ;
#308 = EDGE_LOOP ( 'NONE', ( #272, #171, #202, #280 ) ) ;
#309 = EDGE_CURVE ( 'NONE', #274, #139, #334, .T. ) ;
#310 = CALENDAR_DATE ( 2023, 31, 7 ) ;
#311 = CIRCLE ( 'NONE', #105, 5.000000000000000000 ) ;
#312 = DIRECTION ( 'NONE',  ( -1.000000000000000000, -0.0000000000000000000, -0.0000000000000000000 ) ) ;
#313 = DIRECTION ( 'NONE',  ( 1.000000000000000000, 6.123233995736766000E-017, -0.0000000000000000000 ) ) ;
#314 = APPROVAL ( #256, 'UNSPECIFIED' ) ;
#315 = ORIENTED_EDGE ( 'NONE', *, *, #30, .F. ) ;
#316 = DIRECTION ( 'NONE',  ( -6.123233995736766000E-017, 1.000000000000000000, 0.0000000000000000000 ) ) ;
#317 = DATE_AND_TIME ( #31, #116 ) ;
#318 = CARTESIAN_POINT ( 'NONE',  ( -49.00000000000000000, -3.000384657911015500E-015, 0.0000000000000000000 ) ) ;
#319 = CIRCLE ( 'NONE', #127, 5.000000000000000000 ) ;
#320 = DIRECTION ( 'NONE',  ( -1.000000000000000000, -6.123233995736766000E-017, 0.0000000000000000000 ) ) ;
#321 = AXIS2_PLACEMENT_3D ( 'NONE', #183, #79, #364 ) ;
#322 = DIRECTION ( 'NONE',  ( -1.000000000000000000, -0.0000000000000000000, -0.0000000000000000000 ) ) ;
#323 = CARTESIAN_POINT ( 'NONE',  ( 0.9999999999999997800, 0.0000000000000000000, 0.0000000000000000000 ) ) ;
#324 = VECTOR ( 'NONE', #33, 1000.000000000000000 ) ;
#325 = ORIENTED_EDGE ( 'NONE', *, *, #180, .F. ) ;
#326 = DIRECTION ( 'NONE',  ( -1.000000000000000000, 0.0000000000000000000, -0.0000000000000000000 ) ) ;
#327 = PLANE ( 'NONE',  #186 ) ;
#328 = PERSON_AND_ORGANIZATION ( #242, #156 ) ;
#329 = EDGE_CURVE ( 'NONE', #352, #139, #48, .T. ) ;
#330 = ORIENTED_EDGE ( 'NONE', *, *, #164, .T. ) ;
#331 = ORIENTED_EDGE ( 'NONE', *, *, #95, .T. ) ;
#332 = DIRECTION ( 'NONE',  ( 1.000000000000000000, 6.123233995736766000E-017, -0.0000000000000000000 ) ) ;
#333 = PERSON_AND_ORGANIZATION_ROLE ( 'classification_officer' ) ;
#334 = CIRCLE ( 'NONE', #82, 5.000000000000000000 ) ;
#335 = ORIENTED_EDGE ( 'NONE', *, *, #259, .T. ) ;
#336 = CC_DESIGN_APPROVAL ( #314, ( #298 ) ) ;
#337 = ADVANCED_FACE ( 'NONE', ( #36 ), #178, .T. ) ;
#338 = EDGE_CURVE ( 'NONE', #258, #274, #263, .T. ) ;
#339 = LOCAL_TIME ( 9, 24, 33.00000000000000000, #55 ) ;
#340 = ORIENTED_EDGE ( 'NONE', *, *, #76, .F. ) ;
#341 = AXIS2_PLACEMENT_3D ( 'NONE', #165, #332, #216 ) ;
#342 = DIRECTION ( 'NONE',  ( 0.0000000000000000000, -1.000000000000000000, 0.0000000000000000000 ) ) ;
#343 = LINE ( 'NONE', #222, #138 ) ;
#344 = CLOSED_SHELL ( 'NONE', ( #93, #124, #307, #172, #365, #284 ) ) ;
#345 = DIRECTION ( 'NONE',  ( 0.0000000000000000000, 1.000000000000000000, 0.0000000000000000000 ) ) ;
#346 = CALENDAR_DATE ( 2023, 31, 7 ) ;
#347 = ORIENTED_EDGE ( 'NONE', *, *, #133, .T. ) ;
#348 = AXIS2_PLACEMENT_3D ( 'NONE', #208, #239, #51 ) ;
#349 = DIRECTION ( 'NONE',  ( 0.0000000000000000000, 1.000000000000000000, 0.0000000000000000000 ) ) ;
#350 = DIRECTION ( 'NONE',  ( 0.0000000000000000000, 0.0000000000000000000, 1.000000000000000000 ) ) ;
#351 = CIRCLE ( 'NONE', #341, 5.000000000000000000 ) ;
#352 = VERTEX_POINT ( 'NONE', #203 ) ;
#353 = DIRECTION ( 'NONE',  ( 0.0000000000000000000, 0.0000000000000000000, 1.000000000000000000 ) ) ;
#354 = CC_DESIGN_PERSON_AND_ORGANIZATION_ASSIGNMENT ( #207, #282, ( #298 ) ) ;
#355 = CARTESIAN_POINT ( 'NONE',  ( 45.60000000000000100, 0.0000000000000000000, 0.0000000000000000000 ) ) ;
#356 = EDGE_CURVE ( 'NONE', #258, #352, #257, .T. ) ;
#357 = DATE_AND_TIME ( #75, #149 ) ;
#358 = DIRECTION ( 'NONE',  ( -6.123233995736766000E-017, 1.000000000000000000, 0.0000000000000000000 ) ) ;
#359 = ORIENTED_EDGE ( 'NONE', *, *, #329, .F. ) ;
#360 = DIRECTION ( 'NONE',  ( 1.000000000000000000, 0.0000000000000000000, 0.0000000000000000000 ) ) ;
#361 = APPROVAL_STATUS ( 'not_yet_approved' ) ;
#362 = AXIS2_PLACEMENT_3D ( 'NONE', #188, #299, #140 ) ;
#363 = CIRCLE ( 'NONE', #34, 4.999999999999996400 ) ;
#364 = DIRECTION ( 'NONE',  ( 0.0000000000000000000, 1.000000000000000000, 0.0000000000000000000 ) ) ;
#365 = ADVANCED_FACE ( 'NONE', ( #111 ), #327, .F. ) ;
ENDSEC;
END-ISO-10303-21;
