ISO-10303-21;
HEADER;
FILE_DESCRIPTION (( 'STEP AP203' ),
    '1' );
FILE_NAME ('03-3209.STEP',
    '2023-07-31T00:24:50',
    ( 'USER' ),
    ( 'Hewlett-Packard Company' ),
    'SwSTEP 2.0',
    'SolidWorks 2014',
    '' );
FILE_SCHEMA (( 'CONFIG_CONTROL_DESIGN' ));
ENDSEC;

DATA;
#1 = CIRCLE ( 'NONE', #294, 6.000000000000000000 ) ;
#2 = ORIENTED_EDGE ( 'NONE', *, *, #68, .F. ) ;
#3 = CLOSED_SHELL ( 'NONE', ( #344, #147, #231, #47, #119, #82 ) ) ;
#4 = AXIS2_PLACEMENT_3D ( 'NONE', #140, #248, #200 ) ;
#5 = PERSON_AND_ORGANIZATION ( #176, #104 ) ;
#6 = DIRECTION ( 'NONE',  ( -1.000000000000000000, -0.0000000000000000000, -0.0000000000000000000 ) ) ;
#7 = ORIENTED_EDGE ( 'NONE', *, *, #157, .T. ) ;
#8 = VERTEX_POINT ( 'NONE', #54 ) ;
#9 = ORIENTED_EDGE ( 'NONE', *, *, #157, .F. ) ;
#10 = DIRECTION ( 'NONE',  ( 0.0000000000000000000, 1.000000000000000000, 0.0000000000000000000 ) ) ;
#11 = ADVANCED_FACE ( 'NONE', ( #137 ), #50, .T. ) ;
#12 = DIRECTION ( 'NONE',  ( 0.0000000000000000000, 1.000000000000000000, 0.0000000000000000000 ) ) ;
#13 = CC_DESIGN_APPROVAL ( #357, ( #334 ) ) ;
#14 = CARTESIAN_POINT ( 'NONE',  ( 0.9999999999999986700, 6.123233995736758600E-017, 0.0000000000000000000 ) ) ;
#15 = AXIS2_PLACEMENT_3D ( 'NONE', #175, #337, #201 ) ;
#16 = CARTESIAN_POINT ( 'NONE',  ( 50.60000000000000900, 0.0000000000000000000, 0.0000000000000000000 ) ) ;
#17 = LINE ( 'NONE', #340, #185 ) ;
#18 = DIRECTION ( 'NONE',  ( 1.000000000000000000, 0.0000000000000000000, 0.0000000000000000000 ) ) ;
#19 = ORIENTED_EDGE ( 'NONE', *, *, #113, .F. ) ;
#20 = AXIS2_PLACEMENT_3D ( 'NONE', #250, #75, #271 ) ;
#21 = DIRECTION ( 'NONE',  ( -1.000000000000000000, 0.0000000000000000000, -0.0000000000000000000 ) ) ;
#22 = DIRECTION ( 'NONE',  ( -1.000000000000000000, -0.0000000000000000000, -0.0000000000000000000 ) ) ;
#23 =( NAMED_UNIT ( * ) SI_UNIT ( $, .STERADIAN. ) SOLID_ANGLE_UNIT ( ) );
#24 = ORIENTED_EDGE ( 'NONE', *, *, #173, .T. ) ;
#25 = ORIENTED_EDGE ( 'NONE', *, *, #65, .F. ) ;
#26 = AXIS2_PLACEMENT_3D ( 'NONE', #184, #348, #210 ) ;
#27 = PERSON_AND_ORGANIZATION_ROLE ( 'creator' ) ;
#28 = CIRCLE ( 'NONE', #233, 0.4000000000000019100 ) ;
#29 = VERTEX_POINT ( 'NONE', #301 ) ;
#30 = AXIS2_PLACEMENT_3D ( 'NONE', #223, #39, #249 ) ;
#31 = EDGE_LOOP ( 'NONE', ( #98, #33, #245, #143 ) ) ;
#32 = ORIENTED_EDGE ( 'NONE', *, *, #146, .F. ) ;
#33 = ORIENTED_EDGE ( 'NONE', *, *, #90, .T. ) ;
#34 = CC_DESIGN_PERSON_AND_ORGANIZATION_ASSIGNMENT ( #170, #27, ( #334 ) ) ;
#35 = CIRCLE ( 'NONE', #30, 6.000000000000000000 ) ;
#36 = AXIS2_PLACEMENT_3D ( 'NONE', #295, #155, #304 ) ;
#37 = ORIENTED_EDGE ( 'NONE', *, *, #146, .T. ) ;
#38 = VERTEX_POINT ( 'NONE', #121 ) ;
#39 = DIRECTION ( 'NONE',  ( -1.000000000000000000, -0.0000000000000000000, -0.0000000000000000000 ) ) ;
#40 = AXIS2_PLACEMENT_3D ( 'NONE', #270, #111, #291 ) ;
#41 = CARTESIAN_POINT ( 'NONE',  ( 0.9999999999999997800, 0.0000000000000000000, 6.000000000000000000 ) ) ;
#42 = SHAPE_DEFINITION_REPRESENTATION ( #333, #136 ) ;
#43 = ORIENTED_EDGE ( 'NONE', *, *, #126, .T. ) ;
#44 = DIRECTION ( 'NONE',  ( -1.000000000000000000, -0.0000000000000000000, -0.0000000000000000000 ) ) ;
#45 = ORIENTED_EDGE ( 'NONE', *, *, #90, .F. ) ;
#46 = DIRECTION ( 'NONE',  ( 1.000000000000000000, 6.123233995736766000E-017, -0.0000000000000000000 ) ) ;
#47 = ADVANCED_FACE ( 'NONE', ( #268 ), #89, .T. ) ;
#48 = CARTESIAN_POINT ( 'NONE',  ( -3.673940397442059900E-016, 6.000000000000000000, 0.0000000000000000000 ) ) ;
#49 = AXIS2_PLACEMENT_3D ( 'NONE', #16, #186, #209 ) ;
#50 = TOROIDAL_SURFACE ( 'NONE', #49, 5.600000000000000500, 0.4000000000000019100 ) ;
#51 = EDGE_LOOP ( 'NONE', ( #356, #102 ) ) ;
#52 = ORIENTED_EDGE ( 'NONE', *, *, #118, .F. ) ;
#53 = DIRECTION ( 'NONE',  ( -7.228014483236695800E-017, 1.000000000000000000, 0.0000000000000000000 ) ) ;
#54 = CARTESIAN_POINT ( 'NONE',  ( 50.60000000000000900, 7.347880794884120700E-016, -6.000000000000001800 ) ) ;
#55 = PLANE ( 'NONE',  #135 ) ;
#56 = CARTESIAN_POINT ( 'NONE',  ( 0.9999999999999997800, 7.347880794884119700E-016, -6.000000000000000000 ) ) ;
#57 = FACE_OUTER_BOUND ( 'NONE', #360, .T. ) ;
#58 = DIRECTION ( 'NONE',  ( -6.123233995736766000E-017, 1.000000000000000000, 0.0000000000000000000 ) ) ;
#59 = ORIENTED_EDGE ( 'NONE', *, *, #133, .F. ) ;
#60 = APPLICATION_PROTOCOL_DEFINITION ( 'international standard', 'config_control_design', 1994, #93 ) ;
#61 = APPROVAL_STATUS ( 'not_yet_approved' ) ;
#62 = ORIENTED_EDGE ( 'NONE', *, *, #132, .F. ) ;
#63 = CC_DESIGN_DATE_AND_TIME_ASSIGNMENT ( #227, #239, ( #334 ) ) ;
#64 = EDGE_CURVE ( 'NONE', #195, #101, #331, .T. ) ;
#65 = EDGE_CURVE ( 'NONE', #101, #275, #131, .T. ) ;
#66 = TOROIDAL_SURFACE ( 'NONE', #196, 5.600000000000000500, 0.4000000000000019100 ) ;
#67 = APPROVAL_PERSON_ORGANIZATION ( #163, #107, #262 ) ;
#68 = EDGE_CURVE ( 'NONE', #8, #275, #207, .T. ) ;
#69 = ORIENTED_EDGE ( 'NONE', *, *, #153, .T. ) ;
#70 = COORDINATED_UNIVERSAL_TIME_OFFSET ( 9, 0, .AHEAD. ) ;
#71 = CARTESIAN_POINT ( 'NONE',  ( 0.0000000000000000000, 7.347880794884119700E-016, -6.000000000000000000 ) ) ;
#72 = CIRCLE ( 'NONE', #341, 6.000000000000000000 ) ;
#73 = ORIENTED_EDGE ( 'NONE', *, *, #165, .F. ) ;
#74 = ORIENTED_EDGE ( 'NONE', *, *, #126, .F. ) ;
#75 = DIRECTION ( 'NONE',  ( -0.0000000000000000000, 1.000000000000000000, 1.224646799147353200E-016 ) ) ;
#76 = EDGE_CURVE ( 'NONE', #195, #8, #35, .T. ) ;
#77 = COORDINATED_UNIVERSAL_TIME_OFFSET ( 9, 0, .AHEAD. ) ;
#78 = ORIENTED_EDGE ( 'NONE', *, *, #65, .T. ) ;
#79 = DIRECTION ( 'NONE',  ( 1.000000000000000000, 6.123233995736766000E-017, -0.0000000000000000000 ) ) ;
#80 = ORIENTED_EDGE ( 'NONE', *, *, #64, .T. ) ;
#81 = ORIENTED_EDGE ( 'NONE', *, *, #76, .T. ) ;
#82 = ADVANCED_FACE ( 'NONE', ( #122 ), #258, .T. ) ;
#83 = PRODUCT_DEFINITION_FORMATION_WITH_SPECIFIED_SOURCE ( 'ANY', '', #139, .NOT_KNOWN. ) ;
#84 = DIRECTION ( 'NONE',  ( -1.000000000000000000, -0.0000000000000000000, -0.0000000000000000000 ) ) ;
#85 = EDGE_CURVE ( 'NONE', #241, #29, #315, .T. ) ;
#86 = CARTESIAN_POINT ( 'NONE',  ( 0.9999999999999988900, 6.000000000000000000, 0.0000000000000000000 ) ) ;
#87 = CONICAL_SURFACE ( 'NONE', #267, 5.999999999999996400, 0.7853981633974415100 ) ;
#88 = VERTEX_POINT ( 'NONE', #141 ) ;
#89 = PLANE ( 'NONE',  #36 ) ;
#90 = EDGE_CURVE ( 'NONE', #29, #8, #197, .T. ) ;
#91 = EDGE_LOOP ( 'NONE', ( #43, #105, #62, #59 ) ) ;
#92 = DIRECTION ( 'NONE',  ( 0.0000000000000000000, 0.0000000000000000000, 1.000000000000000000 ) ) ;
#93 = APPLICATION_CONTEXT ( 'configuration controlled 3d designs of mechanical parts and assemblies' ) ;
#94 = LOCAL_TIME ( 9, 24, 50.00000000000000000, #179 ) ;
#95 = AXIS2_PLACEMENT_3D ( 'NONE', #299, #18, #235 ) ;
#96 = PERSON_AND_ORGANIZATION_ROLE ( 'creator' ) ;
#97 = ORIENTED_EDGE ( 'NONE', *, *, #169, .F. ) ;
#98 = ORIENTED_EDGE ( 'NONE', *, *, #85, .T. ) ;
#99 = EDGE_CURVE ( 'NONE', #241, #195, #28, .T. ) ;
#100 = LINE ( 'NONE', #48, #247 ) ;
#101 = VERTEX_POINT ( 'NONE', #41 ) ;
#102 = ORIENTED_EDGE ( 'NONE', *, *, #165, .T. ) ;
#103 = EDGE_CURVE ( 'NONE', #29, #241, #322, .T. ) ;
#104 = ORGANIZATION ( 'UNSPECIFIED', 'UNSPECIFIED', '' ) ;
#105 = ORIENTED_EDGE ( 'NONE', *, *, #118, .T. ) ;
#106 = VERTEX_POINT ( 'NONE', #114 ) ;
#107 = APPROVAL ( #61, 'UNSPECIFIED' ) ;
#108 = EDGE_CURVE ( 'NONE', #8, #195, #109, .T. ) ;
#109 = CIRCLE ( 'NONE', #238, 6.000000000000000000 ) ;
#110 = EDGE_LOOP ( 'NONE', ( #52, #24, #286, #73 ) ) ;
#111 = DIRECTION ( 'NONE',  ( -1.000000000000000000, -0.0000000000000000000, -0.0000000000000000000 ) ) ;
#112 = LOCAL_TIME ( 9, 24, 50.00000000000000000, #276 ) ;
#113 = EDGE_CURVE ( 'NONE', #275, #101, #194, .T. ) ;
#114 = CARTESIAN_POINT ( 'NONE',  ( -53.99999999999999300, -5.500000000000000000, 7.041719095097276900E-016 ) ) ;
#115 = ORIENTED_EDGE ( 'NONE', *, *, #153, .F. ) ;
#116 = PERSON_AND_ORGANIZATION ( #176, #104 ) ;
#117 = DIRECTION ( 'NONE',  ( 0.7071067811865523500, -0.7071067811865426900, 8.659560562354873700E-017 ) ) ;
#118 = EDGE_CURVE ( 'NONE', #38, #345, #17, .T. ) ;
#119 = ADVANCED_FACE ( 'NONE', ( #311 ), #87, .T. ) ;
#120 = CARTESIAN_POINT ( 'NONE',  ( -53.49999999999998600, 5.999999999999992900, 0.0000000000000000000 ) ) ;
#121 = CARTESIAN_POINT ( 'NONE',  ( -53.49999999999998600, -6.000000000000000000, 7.347880794884115800E-016 ) ) ;
#122 = FACE_OUTER_BOUND ( 'NONE', #110, .T. ) ;
#123 = DIRECTION ( 'NONE',  ( 1.000000000000000000, 6.123233995736766000E-017, -0.0000000000000000000 ) ) ;
#124 = DIRECTION ( 'NONE',  ( 1.000000000000000000, 6.123233995736766000E-017, -0.0000000000000000000 ) ) ;
#125 = CARTESIAN_POINT ( 'NONE',  ( 0.0000000000000000000, 0.0000000000000000000, 0.0000000000000000000 ) ) ;
#126 = EDGE_CURVE ( 'NONE', #88, #38, #174, .T. ) ;
#127 = DIRECTION ( 'NONE',  ( 1.000000000000000000, 0.0000000000000000000, 0.0000000000000000000 ) ) ;
#128 = ORIENTED_EDGE ( 'NONE', *, *, #85, .F. ) ;
#129 = SECURITY_CLASSIFICATION_LEVEL ( 'unclassified' ) ;
#130 = CC_DESIGN_APPROVAL ( #107, ( #83 ) ) ;
#131 = CIRCLE ( 'NONE', #40, 6.000000000000000000 ) ;
#132 = EDGE_CURVE ( 'NONE', #253, #345, #1, .T. ) ;
#133 = EDGE_CURVE ( 'NONE', #88, #253, #100, .T. ) ;
#134 = CYLINDRICAL_SURFACE ( 'NONE', #229, 6.000000000000000000 ) ;
#135 = AXIS2_PLACEMENT_3D ( 'NONE', #86, #124, #303 ) ;
#136 = ADVANCED_BREP_SHAPE_REPRESENTATION ( '03-3209', ( #314, #205, #310 ), #216 ) ;
#137 = FACE_OUTER_BOUND ( 'NONE', #266, .T. ) ;
#138 = PERSON_AND_ORGANIZATION ( #176, #104 ) ;
#139 = PRODUCT ( '03-3209', '03-3209', '', ( #306 ) ) ;
#140 = CARTESIAN_POINT ( 'NONE',  ( 0.0000000000000000000, 0.0000000000000000000, 0.0000000000000000000 ) ) ;
#141 = CARTESIAN_POINT ( 'NONE',  ( -53.49999999999998600, 5.999999999999992900, 0.0000000000000000000 ) ) ;
#142 = FACE_OUTER_BOUND ( 'NONE', #31, .T. ) ;
#143 = ORIENTED_EDGE ( 'NONE', *, *, #99, .F. ) ;
#144 = CARTESIAN_POINT ( 'NONE',  ( 50.60000000000000900, 0.0000000000000000000, 5.600000000000000500 ) ) ;
#145 = DIRECTION ( 'NONE',  ( -1.000000000000000000, -0.0000000000000000000, -0.0000000000000000000 ) ) ;
#146 = EDGE_CURVE ( 'NONE', #298, #106, #243, .T. ) ;
#147 = ADVANCED_FACE ( 'NONE', ( #358 ), #288, .T. ) ;
#148 = DATE_AND_TIME ( #220, #285 ) ;
#149 = DIRECTION ( 'NONE',  ( 0.0000000000000000000, 1.000000000000000000, 0.0000000000000000000 ) ) ;
#150 = ORIENTED_EDGE ( 'NONE', *, *, #99, .T. ) ;
#151 = DIRECTION ( 'NONE',  ( 0.7071067811865523500, 0.7071067811865426900, 0.0000000000000000000 ) ) ;
#152 = CC_DESIGN_PERSON_AND_ORGANIZATION_ASSIGNMENT ( #338, #96, ( #83 ) ) ;
#153 = EDGE_CURVE ( 'NONE', #106, #38, #350, .T. ) ;
#154 = CARTESIAN_POINT ( 'NONE',  ( 50.60000000000000900, 0.0000000000000000000, 0.0000000000000000000 ) ) ;
#155 = DIRECTION ( 'NONE',  ( -1.000000000000000000, -6.123233995736766000E-017, 0.0000000000000000000 ) ) ;
#156 = FACE_OUTER_BOUND ( 'NONE', #308, .T. ) ;
#157 = EDGE_CURVE ( 'NONE', #298, #88, #292, .T. ) ;
#158 = DIRECTION ( 'NONE',  ( -1.000000000000000000, -0.0000000000000000000, -0.0000000000000000000 ) ) ;
#159 = CARTESIAN_POINT ( 'NONE',  ( 0.0000000000000000000, 0.0000000000000000000, 0.0000000000000000000 ) ) ;
#160 = PERSON_AND_ORGANIZATION_ROLE ( 'design_owner' ) ;
#161 = DESIGN_CONTEXT ( 'detailed design', #329, 'design' ) ;
#162 = DATE_TIME_ROLE ( 'classification_date' ) ;
#163 = PERSON_AND_ORGANIZATION ( #176, #104 ) ;
#164 = ORIENTED_EDGE ( 'NONE', *, *, #108, .T. ) ;
#165 = EDGE_CURVE ( 'NONE', #345, #253, #72, .T. ) ;
#166 = APPROVAL_DATE_TIME ( #148, #107 ) ;
#167 = PERSON_AND_ORGANIZATION ( #176, #104 ) ;
#168 = VECTOR ( 'NONE', #117, 1000.000000000000000 ) ;
#169 = EDGE_CURVE ( 'NONE', #106, #298, #236, .T. ) ;
#170 = PERSON_AND_ORGANIZATION ( #176, #104 ) ;
#171 = ORIENTED_EDGE ( 'NONE', *, *, #64, .F. ) ;
#172 = CC_DESIGN_PERSON_AND_ORGANIZATION_ASSIGNMENT ( #116, #284, ( #83 ) ) ;
#173 = EDGE_CURVE ( 'NONE', #38, #88, #224, .T. ) ;
#174 = CIRCLE ( 'NONE', #282, 5.999999999999996400 ) ;
#175 = CARTESIAN_POINT ( 'NONE',  ( 51.00000000000000700, 0.0000000000000000000, 0.0000000000000000000 ) ) ;
#176 = PERSON ( 'UNSPECIFIED', 'UNSPECIFIED', 'UNSPECIFIED', ('UNSPECIFIED'), ('UNSPECIFIED'), ('UNSPECIFIED') ) ;
#177 = DIRECTION ( 'NONE',  ( 0.0000000000000000000, 0.0000000000000000000, -1.000000000000000000 ) ) ;
#178 = CARTESIAN_POINT ( 'NONE',  ( -53.49999999999998600, -3.275930187719168800E-015, 0.0000000000000000000 ) ) ;
#179 = COORDINATED_UNIVERSAL_TIME_OFFSET ( 9, 0, .AHEAD. ) ;
#180 = ORIENTED_EDGE ( 'NONE', *, *, #103, .F. ) ;
#181 = AXIS2_PLACEMENT_3D ( 'NONE', #260, #21, #237 ) ;
#182 = ADVANCED_FACE ( 'NONE', ( #156 ), #347, .F. ) ;
#183 = CARTESIAN_POINT ( 'NONE',  ( -53.49999999999998600, -3.275930187719168800E-015, 0.0000000000000000000 ) ) ;
#184 = CARTESIAN_POINT ( 'NONE',  ( -53.49999999999998600, -3.275930187719168800E-015, 0.0000000000000000000 ) ) ;
#185 = VECTOR ( 'NONE', #339, 1000.000000000000000 ) ;
#186 = DIRECTION ( 'NONE',  ( -1.000000000000000000, -0.0000000000000000000, -0.0000000000000000000 ) ) ;
#187 = CARTESIAN_POINT ( 'NONE',  ( 0.9999999999999983300, 6.000000000000000000, 0.0000000000000000000 ) ) ;
#188 = CARTESIAN_POINT ( 'NONE',  ( 0.0000000000000000000, 0.0000000000000000000, 0.0000000000000000000 ) ) ;
#189 = APPLICATION_PROTOCOL_DEFINITION ( 'international standard', 'config_control_design', 1994, #329 ) ;
#190 = ORIENTED_EDGE ( 'NONE', *, *, #103, .T. ) ;
#191 = APPROVAL_ROLE ( '' ) ;
#192 = APPROVAL_DATE_TIME ( #272, #242 ) ;
#193 = SECURITY_CLASSIFICATION ( '', '', #129 ) ;
#194 = CIRCLE ( 'NONE', #252, 6.000000000000000000 ) ;
#195 = VERTEX_POINT ( 'NONE', #324 ) ;
#196 = AXIS2_PLACEMENT_3D ( 'NONE', #154, #211, #279 ) ;
#197 = CIRCLE ( 'NONE', #20, 0.4000000000000019100 ) ;
#198 = EDGE_LOOP ( 'NONE', ( #115, #323, #7, #335 ) ) ;
#199 = APPROVAL_PERSON_ORGANIZATION ( #138, #242, #191 ) ;
#200 = DIRECTION ( 'NONE',  ( -6.123233995736766000E-017, 1.000000000000000000, 0.0000000000000000000 ) ) ;
#201 = DIRECTION ( 'NONE',  ( 0.0000000000000000000, 0.0000000000000000000, 1.000000000000000000 ) ) ;
#202 = CYLINDRICAL_SURFACE ( 'NONE', #264, 6.000000000000000000 ) ;
#203 = CARTESIAN_POINT ( 'NONE',  ( 0.9999999999999997800, 0.0000000000000000000, 0.0000000000000000000 ) ) ;
#204 = DIRECTION ( 'NONE',  ( 1.000000000000000000, 6.123233995736766000E-017, -0.0000000000000000000 ) ) ;
#205 = MANIFOLD_SOLID_BREP ( 'È¸Àü4', #3 ) ;
#206 = DIRECTION ( 'NONE',  ( 1.000000000000000000, 6.123233995736766000E-017, -0.0000000000000000000 ) ) ;
#207 = LINE ( 'NONE', #71, #265 ) ;
#208 = CC_DESIGN_PERSON_AND_ORGANIZATION_ASSIGNMENT ( #167, #309, ( #193 ) ) ;
#209 = DIRECTION ( 'NONE',  ( 0.0000000000000000000, 0.0000000000000000000, 1.000000000000000000 ) ) ;
#210 = DIRECTION ( 'NONE',  ( 0.0000000000000000000, 1.000000000000000000, 0.0000000000000000000 ) ) ;
#211 = DIRECTION ( 'NONE',  ( -1.000000000000000000, -0.0000000000000000000, -0.0000000000000000000 ) ) ;
#212 = FACE_OUTER_BOUND ( 'NONE', #91, .T. ) ;
#213 =( NAMED_UNIT ( * ) PLANE_ANGLE_UNIT ( ) SI_UNIT ( $, .RADIAN. ) );
#214 = ORIENTED_EDGE ( 'NONE', *, *, #113, .T. ) ;
#215 = APPROVAL_ROLE ( '' ) ;
#216 =( GEOMETRIC_REPRESENTATION_CONTEXT ( 3 ) GLOBAL_UNCERTAINTY_ASSIGNED_CONTEXT ( ( #263 ) ) GLOBAL_UNIT_ASSIGNED_CONTEXT ( ( #353, #213, #23 ) ) REPRESENTATION_CONTEXT ( 'NONE', 'WORKASPACE' ) );
#217 = VECTOR ( 'NONE', #84, 1000.000000000000000 ) ;
#218 = FACE_OUTER_BOUND ( 'NONE', #51, .T. ) ;
#219 = AXIS2_PLACEMENT_3D ( 'NONE', #225, #44, #251 ) ;
#220 = CALENDAR_DATE ( 2023, 31, 7 ) ;
#221 = EDGE_LOOP ( 'NONE', ( #81, #230, #25, #171 ) ) ;
#222 = CC_DESIGN_DATE_AND_TIME_ASSIGNMENT ( #364, #162, ( #193 ) ) ;
#223 = CARTESIAN_POINT ( 'NONE',  ( 50.60000000000000900, 0.0000000000000000000, 0.0000000000000000000 ) ) ;
#224 = CIRCLE ( 'NONE', #26, 5.999999999999996400 ) ;
#225 = CARTESIAN_POINT ( 'NONE',  ( 51.00000000000000700, 0.0000000000000000000, 0.0000000000000000000 ) ) ;
#226 = DIRECTION ( 'NONE',  ( 0.0000000000000000000, 0.0000000000000000000, 1.000000000000000000 ) ) ;
#227 = DATE_AND_TIME ( #289, #355 ) ;
#228 = DIRECTION ( 'NONE',  ( 1.000000000000000000, 6.123233995736766000E-017, -0.0000000000000000000 ) ) ;
#229 = AXIS2_PLACEMENT_3D ( 'NONE', #125, #158, #92 ) ;
#230 = ORIENTED_EDGE ( 'NONE', *, *, #68, .T. ) ;
#231 = ADVANCED_FACE ( 'NONE', ( #218 ), #55, .T. ) ;
#232 = CARTESIAN_POINT ( 'NONE',  ( -53.49999999999998600, -6.000000000000000000, 7.347880794884115800E-016 ) ) ;
#233 = AXIS2_PLACEMENT_3D ( 'NONE', #144, #317, #177 ) ;
#234 = DIRECTION ( 'NONE',  ( 1.000000000000000000, 6.123233995736766000E-017, -0.0000000000000000000 ) ) ;
#235 = DIRECTION ( 'NONE',  ( 0.0000000000000000000, 0.0000000000000000000, -1.000000000000000000 ) ) ;
#236 = CIRCLE ( 'NONE', #361, 5.499999999999996400 ) ;
#237 = DIRECTION ( 'NONE',  ( -0.0000000000000000000, 0.0000000000000000000, 1.000000000000000000 ) ) ;
#238 = AXIS2_PLACEMENT_3D ( 'NONE', #293, #145, #318 ) ;
#239 = DATE_TIME_ROLE ( 'creation_date' ) ;
#240 = APPROVAL_DATE_TIME ( #296, #357 ) ;
#241 = VERTEX_POINT ( 'NONE', #278 ) ;
#242 = APPROVAL ( #330, 'UNSPECIFIED' ) ;
#243 = CIRCLE ( 'NONE', #312, 5.499999999999996400 ) ;
#244 = APPROVAL_PERSON_ORGANIZATION ( #307, #357, #215 ) ;
#245 = ORIENTED_EDGE ( 'NONE', *, *, #76, .F. ) ;
#246 = AXIS2_PLACEMENT_3D ( 'NONE', #188, #22, #326 ) ;
#247 = VECTOR ( 'NONE', #319, 1000.000000000000000 ) ;
#248 = DIRECTION ( 'NONE',  ( 1.000000000000000000, 6.123233995736766000E-017, -0.0000000000000000000 ) ) ;
#249 = DIRECTION ( 'NONE',  ( 0.0000000000000000000, 0.0000000000000000000, 1.000000000000000000 ) ) ;
#250 = CARTESIAN_POINT ( 'NONE',  ( 50.60000000000000900, 6.858022075225178600E-016, -5.600000000000000500 ) ) ;
#251 = DIRECTION ( 'NONE',  ( 0.0000000000000000000, 0.0000000000000000000, 1.000000000000000000 ) ) ;
#252 = AXIS2_PLACEMENT_3D ( 'NONE', #203, #6, #226 ) ;
#253 = VERTEX_POINT ( 'NONE', #187 ) ;
#254 = DIRECTION ( 'NONE',  ( 0.0000000000000000000, 1.000000000000000000, 0.0000000000000000000 ) ) ;
#255 = CARTESIAN_POINT ( 'NONE',  ( 0.9999999999999986700, 6.123233995736758600E-017, 0.0000000000000000000 ) ) ;
#256 = ADVANCED_FACE ( 'NONE', ( #57 ), #349, .F. ) ;
#257 = CC_DESIGN_APPROVAL ( #242, ( #193 ) ) ;
#258 = CYLINDRICAL_SURFACE ( 'NONE', #4, 6.000000000000000000 ) ;
#259 = ORIENTED_EDGE ( 'NONE', *, *, #108, .F. ) ;
#260 = CARTESIAN_POINT ( 'NONE',  ( 51.00000000000000700, -6.319349805344094200E-014, 0.0000000000000000000 ) ) ;
#261 = CARTESIAN_POINT ( 'NONE',  ( 0.0000000000000000000, 0.0000000000000000000, 0.0000000000000000000 ) ) ;
#262 = APPROVAL_ROLE ( '' ) ;
#263 = UNCERTAINTY_MEASURE_WITH_UNIT (LENGTH_MEASURE( 1.000000000000000100E-005 ), #353, 'distance_accuracy_value', 'NONE');
#264 = AXIS2_PLACEMENT_3D ( 'NONE', #261, #281, #58 ) ;
#265 = VECTOR ( 'NONE', #316, 1000.000000000000000 ) ;
#266 = EDGE_LOOP ( 'NONE', ( #45, #190, #150, #259 ) ) ;
#267 = AXIS2_PLACEMENT_3D ( 'NONE', #178, #46, #254 ) ;
#268 = FACE_OUTER_BOUND ( 'NONE', #313, .T. ) ;
#269 = CC_DESIGN_SECURITY_CLASSIFICATION ( #193, ( #83 ) ) ;
#270 = CARTESIAN_POINT ( 'NONE',  ( 0.9999999999999997800, 0.0000000000000000000, 0.0000000000000000000 ) ) ;
#271 = DIRECTION ( 'NONE',  ( 0.0000000000000000000, -1.224646799147352700E-016, 1.000000000000000000 ) ) ;
#272 = DATE_AND_TIME ( #332, #351 ) ;
#273 = ADVANCED_FACE ( 'NONE', ( #142 ), #66, .T. ) ;
#274 = DIRECTION ( 'NONE',  ( -7.228014483236695800E-017, 1.000000000000000000, 0.0000000000000000000 ) ) ;
#275 = VERTEX_POINT ( 'NONE', #56 ) ;
#276 = COORDINATED_UNIVERSAL_TIME_OFFSET ( 9, 0, .AHEAD. ) ;
#277 = CARTESIAN_POINT ( 'NONE',  ( -53.99999999999999300, -3.306546357697853300E-015, 0.0000000000000000000 ) ) ;
#278 = CARTESIAN_POINT ( 'NONE',  ( 51.00000000000000700, 0.0000000000000000000, 5.600000000000000500 ) ) ;
#279 = DIRECTION ( 'NONE',  ( 0.0000000000000000000, 0.0000000000000000000, 1.000000000000000000 ) ) ;
#280 = FACE_OUTER_BOUND ( 'NONE', #290, .T. ) ;
#281 = DIRECTION ( 'NONE',  ( 1.000000000000000000, 6.123233995736766000E-017, -0.0000000000000000000 ) ) ;
#282 = AXIS2_PLACEMENT_3D ( 'NONE', #342, #204, #10 ) ;
#283 = DIRECTION ( 'NONE',  ( 0.0000000000000000000, 0.0000000000000000000, 1.000000000000000000 ) ) ;
#284 = PERSON_AND_ORGANIZATION_ROLE ( 'design_supplier' ) ;
#285 = LOCAL_TIME ( 9, 24, 50.00000000000000000, #343 ) ;
#286 = ORIENTED_EDGE ( 'NONE', *, *, #133, .T. ) ;
#287 = PRODUCT_RELATED_PRODUCT_CATEGORY ( 'detail', '', ( #139 ) ) ;
#288 = CONICAL_SURFACE ( 'NONE', #328, 5.999999999999996400, 0.7853981633974415100 ) ;
#289 = CALENDAR_DATE ( 2023, 31, 7 ) ;
#290 = EDGE_LOOP ( 'NONE', ( #2, #164, #80, #19 ) ) ;
#291 = DIRECTION ( 'NONE',  ( 0.0000000000000000000, 0.0000000000000000000, 1.000000000000000000 ) ) ;
#292 = LINE ( 'NONE', #120, #302 ) ;
#293 = CARTESIAN_POINT ( 'NONE',  ( 50.60000000000000900, 0.0000000000000000000, 0.0000000000000000000 ) ) ;
#294 = AXIS2_PLACEMENT_3D ( 'NONE', #255, #79, #274 ) ;
#295 = CARTESIAN_POINT ( 'NONE',  ( -53.99999999999999300, -3.306546357697853300E-015, 0.0000000000000000000 ) ) ;
#296 = DATE_AND_TIME ( #362, #94 ) ;
#297 = ADVANCED_FACE ( 'NONE', ( #280 ), #134, .T. ) ;
#298 = VERTEX_POINT ( 'NONE', #352 ) ;
#299 = CARTESIAN_POINT ( 'NONE',  ( 1.000000000000000400, 1.807003620809175600E-016, 0.0000000000000000000 ) ) ;
#300 = DIRECTION ( 'NONE',  ( 0.0000000000000000000, 1.000000000000000000, 0.0000000000000000000 ) ) ;
#301 = CARTESIAN_POINT ( 'NONE',  ( 51.00000000000000700, 7.102951435054650600E-016, -5.600000000000000500 ) ) ;
#302 = VECTOR ( 'NONE', #151, 1000.000000000000000 ) ;
#303 = DIRECTION ( 'NONE',  ( -6.123233995736766000E-017, 1.000000000000000000, 0.0000000000000000000 ) ) ;
#304 = DIRECTION ( 'NONE',  ( 6.123233995736766000E-017, -1.000000000000000000, 0.0000000000000000000 ) ) ;
#305 = CARTESIAN_POINT ( 'NONE',  ( 0.9999999999999991100, -6.000000000000000000, 7.347880794884119700E-016 ) ) ;
#306 = MECHANICAL_CONTEXT ( 'NONE', #93, 'mechanical' ) ;
#307 = PERSON_AND_ORGANIZATION ( #176, #104 ) ;
#308 = EDGE_LOOP ( 'NONE', ( #78, #214 ) ) ;
#309 = PERSON_AND_ORGANIZATION_ROLE ( 'classification_officer' ) ;
#310 = AXIS2_PLACEMENT_3D ( 'NONE', #159, #283, #127 ) ;
#311 = FACE_OUTER_BOUND ( 'NONE', #198, .T. ) ;
#312 = AXIS2_PLACEMENT_3D ( 'NONE', #346, #206, #12 ) ;
#313 = EDGE_LOOP ( 'NONE', ( #32, #97 ) ) ;
#314 = MANIFOLD_SOLID_BREP ( 'È¸Àü3', #359 ) ;
#315 = CIRCLE ( 'NONE', #15, 5.600000000000000500 ) ;
#316 = DIRECTION ( 'NONE',  ( -1.000000000000000000, -0.0000000000000000000, -0.0000000000000000000 ) ) ;
#317 = DIRECTION ( 'NONE',  ( 0.0000000000000000000, -1.000000000000000000, 0.0000000000000000000 ) ) ;
#318 = DIRECTION ( 'NONE',  ( 0.0000000000000000000, 0.0000000000000000000, 1.000000000000000000 ) ) ;
#319 = DIRECTION ( 'NONE',  ( 1.000000000000000000, 6.123233995736766000E-017, -0.0000000000000000000 ) ) ;
#320 = CC_DESIGN_PERSON_AND_ORGANIZATION_ASSIGNMENT ( #5, #160, ( #139 ) ) ;
#321 = ADVANCED_FACE ( 'NONE', ( #336 ), #327, .T. ) ;
#322 = CIRCLE ( 'NONE', #219, 5.600000000000000500 ) ;
#323 = ORIENTED_EDGE ( 'NONE', *, *, #169, .T. ) ;
#324 = CARTESIAN_POINT ( 'NONE',  ( 50.60000000000000900, 0.0000000000000000000, 6.000000000000001800 ) ) ;
#325 = CARTESIAN_POINT ( 'NONE',  ( 0.0000000000000000000, 0.0000000000000000000, 6.000000000000000000 ) ) ;
#326 = DIRECTION ( 'NONE',  ( 0.0000000000000000000, 0.0000000000000000000, 1.000000000000000000 ) ) ;
#327 = CYLINDRICAL_SURFACE ( 'NONE', #246, 6.000000000000000000 ) ;
#328 = AXIS2_PLACEMENT_3D ( 'NONE', #183, #228, #149 ) ;
#329 = APPLICATION_CONTEXT ( 'configuration controlled 3d designs of mechanical parts and assemblies' ) ;
#330 = APPROVAL_STATUS ( 'not_yet_approved' ) ;
#331 = LINE ( 'NONE', #325, #217 ) ;
#332 = CALENDAR_DATE ( 2023, 31, 7 ) ;
#333 = PRODUCT_DEFINITION_SHAPE ( 'NONE', 'NONE',  #334 ) ;
#334 = PRODUCT_DEFINITION ( 'UNKNOWN', '', #83, #161 ) ;
#335 = ORIENTED_EDGE ( 'NONE', *, *, #173, .F. ) ;
#336 = FACE_OUTER_BOUND ( 'NONE', #221, .T. ) ;
#337 = DIRECTION ( 'NONE',  ( -1.000000000000000000, -0.0000000000000000000, -0.0000000000000000000 ) ) ;
#338 = PERSON_AND_ORGANIZATION ( #176, #104 ) ;
#339 = DIRECTION ( 'NONE',  ( 1.000000000000000000, 6.123233995736766000E-017, -0.0000000000000000000 ) ) ;
#340 = CARTESIAN_POINT ( 'NONE',  ( 3.673940397442059900E-016, -6.000000000000000000, 7.347880794884119700E-016 ) ) ;
#341 = AXIS2_PLACEMENT_3D ( 'NONE', #14, #234, #53 ) ;
#342 = CARTESIAN_POINT ( 'NONE',  ( -53.49999999999998600, -3.275930187719168800E-015, 0.0000000000000000000 ) ) ;
#343 = COORDINATED_UNIVERSAL_TIME_OFFSET ( 9, 0, .AHEAD. ) ;
#344 = ADVANCED_FACE ( 'NONE', ( #212 ), #202, .T. ) ;
#345 = VERTEX_POINT ( 'NONE', #305 ) ;
#346 = CARTESIAN_POINT ( 'NONE',  ( -53.99999999999999300, -3.306546357697853300E-015, 0.0000000000000000000 ) ) ;
#347 = PLANE ( 'NONE',  #95 ) ;
#348 = DIRECTION ( 'NONE',  ( 1.000000000000000000, 6.123233995736766000E-017, -0.0000000000000000000 ) ) ;
#349 = PLANE ( 'NONE',  #181 ) ;
#350 = LINE ( 'NONE', #232, #168 ) ;
#351 = LOCAL_TIME ( 9, 24, 50.00000000000000000, #70 ) ;
#352 = CARTESIAN_POINT ( 'NONE',  ( -53.99999999999999300, 5.499999999999992900, 0.0000000000000000000 ) ) ;
#353 =( LENGTH_UNIT ( ) NAMED_UNIT ( * ) SI_UNIT ( .MILLI., .METRE. ) );
#354 = APPROVAL_STATUS ( 'not_yet_approved' ) ;
#355 = LOCAL_TIME ( 9, 24, 50.00000000000000000, #77 ) ;
#356 = ORIENTED_EDGE ( 'NONE', *, *, #132, .T. ) ;
#357 = APPROVAL ( #354, 'UNSPECIFIED' ) ;
#358 = FACE_OUTER_BOUND ( 'NONE', #363, .T. ) ;
#359 = CLOSED_SHELL ( 'NONE', ( #321, #273, #11, #297, #182, #256 ) ) ;
#360 = EDGE_LOOP ( 'NONE', ( #128, #180 ) ) ;
#361 = AXIS2_PLACEMENT_3D ( 'NONE', #277, #123, #300 ) ;
#362 = CALENDAR_DATE ( 2023, 31, 7 ) ;
#363 = EDGE_LOOP ( 'NONE', ( #37, #69, #74, #9 ) ) ;
#364 = DATE_AND_TIME ( #365, #112 ) ;
#365 = CALENDAR_DATE ( 2023, 31, 7 ) ;
ENDSEC;
END-ISO-10303-21;
